  0
SECTION
  2
HEADER
  9
$ACADVER
  1
AC1015
  9
$ACADMAINTVER
 70
     6
  9
$DWGCODEPAGE
  3
ANSI_1252
  9
$INSBASE
 10
0.0
 20
0.0
 30
0.0
  9
$EXTMIN
 10
-66.0
 20
-66.0
 30
0.0
  9
$EXTMAX
 10
66.0
 20
66.0
 30
0.0
  9
$LIMMIN
 10
0.0
 20
0.0
  9
$LIMMAX
 10
420.0
 20
297.0
  9
$ORTHOMODE
 70
     0
  9
$REGENMODE
 70
     1
  9
$FILLMODE
 70
     1
  9
$QTEXTMODE
 70
     0
  9
$MIRRTEXT
 70
     1
  9
$LTSCALE
 40
1.0
  9
$ATTMODE
 70
     1
  9
$TEXTSIZE
 40
3.5
  9
$TRACEWID
 40
1.0
  9
$TEXTSTYLE
  7
Standard
  9
$CLAYER
  8
0
  9
$CELTYPE
  6
ByLayer
  9
$CECOLOR
 62
   256
  9
$CELTSCALE
 40
1.0
  9
$DISPSILH
 70
     0
  9
$DIMSCALE
 40
1.0
  9
$DIMASZ
 40
6.0
  9
$DIMEXO
 40
1.0
  9
$DIMDLI
 40
3.75
  9
$DIMRND
 40
0.0
  9
$DIMDLE
 40
0.0
  9
$DIMEXE
 40
1.0
  9
$DIMTP
 40
0.0
  9
$DIMTM
 40
0.0
  9
$DIMTXT
 40
3.5
  9
$DIMCEN
 40
2.5
  9
$DIMTSZ
 40
0.0
  9
$DIMTOL
 70
     0
  9
$DIMLIM
 70
     0
  9
$DIMTIH
 70
     1
  9
$DIMTOH
 70
     1
  9
$DIMSE1
 70
     0
  9
$DIMSE2
 70
     0
  9
$DIMTAD
 70
     1
  9
$DIMZIN
 70
     0
  9
$DIMBLK
  1

  9
$DIMASO
 70
     1
  9
$DIMSHO
 70
     1
  9
$DIMPOST
  1

  9
$DIMAPOST
  1

  9
$DIMALT
 70
     0
  9
$DIMALTD
 70
     3
  9
$DIMALTF
 40
0.0393700787
  9
$DIMLFAC
 40
1.0
  9
$DIMTOFL
 70
     1
  9
$DIMTVP
 40
0.0
  9
$DIMTIX
 70
     0
  9
$DIMSOXD
 70
     0
  9
$DIMSAH
 70
     0
  9
$DIMBLK1
  1

  9
$DIMBLK2
  1

  9
$DIMSTYLE
  2
ISO-25
  9
$DIMCLRD
 70
     0
  9
$DIMCLRE
 70
     0
  9
$DIMCLRT
 70
     0
  9
$DIMTFAC
 40
1.0
  9
$DIMGAP
 40
1.524
  9
$DIMJUST
 70
     0
  9
$DIMSD1
 70
     0
  9
$DIMSD2
 70
     0
  9
$DIMTOLJ
 70
     0
  9
$DIMTZIN
 70
     0
  9
$DIMALTZ
 70
     0
  9
$DIMALTTZ
 70
     0
  9
$DIMUPT
 70
     0
  9
$DIMDEC
 70
     2
  9
$DIMTDEC
 70
     2
  9
$DIMALTU
 70
     2
  9
$DIMALTTD
 70
     3
  9
$DIMTXSTY
  7
Standard
  9
$DIMAUNIT
 70
     0
  9
$DIMADEC
 70
     2
  9
$DIMALTRND
 40
0.0
  9
$DIMAZIN
 70
     0
  9
$DIMDSEP
 70
    44
  9
$DIMATFIT
 70
     3
  9
$DIMFRAC
 70
     0
  9
$DIMLDRBLK
  1

  9
$DIMLUNIT
 70
     2
  9
$DIMLWD
 70
    -2
  9
$DIMLWE
 70
    -2
  9
$DIMTMOVE
 70
     0
  9
$LUNITS
 70
     2
  9
$LUPREC
 70
     2
  9
$SKETCHINC
 40
1.0
  9
$FILLETRAD
 40
10.0
  9
$AUNITS
 70
     0
  9
$AUPREC
 70
     2
  9
$MENU
  1
.
  9
$ELEVATION
 40
0.0
  9
$PELEVATION
 40
0.0
  9
$THICKNESS
 40
0.0
  9
$LIMCHECK
 70
     0
  9
$CHAMFERA
 40
0.0
  9
$CHAMFERB
 40
0.0
  9
$CHAMFERC
 40
0.0
  9
$CHAMFERD
 40
0.0
  9
$SKPOLY
 70
     0
  9
$TDCREATE
 40
2457798.695753866
  9
$TDUCREATE
 40
2457798.904087199
  9
$TDUPDATE
 40
2457798.695778993
  9
$TDUUPDATE
 40
2457798.904112326
  9
$TDINDWG
 40
0.0000000116
  9
$TDUSRTIMER
 40
0.0000000116
  9
$USRTIMER
 70
     1
  9
$ANGBASE
 50
0.0
  9
$ANGDIR
 70
     0
  9
$PDMODE
 70
     0
  9
$PDSIZE
 40
-1.0
  9
$PLINEWID
 40
0.0
  9
$SPLFRAME
 70
     0
  9
$SPLINETYPE
 70
     6
  9
$SPLINESEGS
 70
     8
  9
$HANDSEED
  5
27F
  9
$SURFTAB1
 70
     6
  9
$SURFTAB2
 70
     6
  9
$SURFTYPE
 70
     6
  9
$SURFU
 70
     6
  9
$SURFV
 70
     6
  9
$UCSBASE
  2

  9
$UCSNAME
  2

  9
$UCSORG
 10
0.0
 20
0.0
 30
0.0
  9
$UCSXDIR
 10
1.0
 20
0.0
 30
0.0
  9
$UCSYDIR
 10
0.0
 20
1.0
 30
0.0
  9
$UCSORTHOREF
  2

  9
$UCSORTHOVIEW
 70
     0
  9
$UCSORGTOP
 10
0.0
 20
0.0
 30
0.0
  9
$UCSORGBOTTOM
 10
0.0
 20
0.0
 30
0.0
  9
$UCSORGLEFT
 10
0.0
 20
0.0
 30
0.0
  9
$UCSORGRIGHT
 10
0.0
 20
0.0
 30
0.0
  9
$UCSORGFRONT
 10
0.0
 20
0.0
 30
0.0
  9
$UCSORGBACK
 10
0.0
 20
0.0
 30
0.0
  9
$PUCSBASE
  2

  9
$PUCSNAME
  2

  9
$PUCSORG
 10
0.0
 20
0.0
 30
0.0
  9
$PUCSXDIR
 10
1.0
 20
0.0
 30
0.0
  9
$PUCSYDIR
 10
0.0
 20
1.0
 30
0.0
  9
$PUCSORTHOREF
  2

  9
$PUCSORTHOVIEW
 70
     0
  9
$PUCSORGTOP
 10
0.0
 20
0.0
 30
0.0
  9
$PUCSORGBOTTOM
 10
0.0
 20
0.0
 30
0.0
  9
$PUCSORGLEFT
 10
0.0
 20
0.0
 30
0.0
  9
$PUCSORGRIGHT
 10
0.0
 20
0.0
 30
0.0
  9
$PUCSORGFRONT
 10
0.0
 20
0.0
 30
0.0
  9
$PUCSORGBACK
 10
0.0
 20
0.0
 30
0.0
  9
$USERI1
 70
     0
  9
$USERI2
 70
     0
  9
$USERI3
 70
     0
  9
$USERI4
 70
     0
  9
$USERI5
 70
     0
  9
$USERR1
 40
0.0
  9
$USERR2
 40
0.0
  9
$USERR3
 40
0.0
  9
$USERR4
 40
0.0
  9
$USERR5
 40
0.0
  9
$WORLDVIEW
 70
     1
  9
$SHADEDGE
 70
     3
  9
$SHADEDIF
 70
    70
  9
$TILEMODE
 70
     1
  9
$MAXACTVP
 70
    64
  9
$PINSBASE
 10
0.0
 20
0.0
 30
0.0
  9
$PLIMCHECK
 70
     0
  9
$PEXTMIN
 10
1.0000000000E+20
 20
1.0000000000E+20
 30
1.0000000000E+20
  9
$PEXTMAX
 10
-1.0000000000E+20
 20
-1.0000000000E+20
 30
-1.0000000000E+20
  9
$PLIMMIN
 10
0.0
 20
0.0
  9
$PLIMMAX
 10
420.0
 20
297.0
  9
$UNITMODE
 70
     0
  9
$VISRETAIN
 70
     1
  9
$PLINEGEN
 70
     0
  9
$PSLTSCALE
 70
     1
  9
$TREEDEPTH
 70
  3020
  9
$CMLSTYLE
  2
Standard
  9
$CMLJUST
 70
     0
  9
$CMLSCALE
 40
20.0
  9
$PROXYGRAPHICS
 70
     1
  9
$MEASUREMENT
 70
     1
  9
$CELWEIGHT
370
    -1
  9
$ENDCAPS
280
     0
  9
$JOINSTYLE
280
     0
  9
$LWDISPLAY
290
     1
  9
$INSUNITS
 70
     4
  9
$HYPERLINKBASE
  1

  9
$STYLESHEET
  1

  9
$XEDIT
290
     1
  9
$CEPSNTYPE
380
     0
  9
$PSTYLEMODE
290
     1
  9
$FINGERPRINTGUID
  2
{634543F8-BB89-490B-9629-4A82914B2247}
  9
$VERSIONGUID
  2
{FAEB1C32-E019-11D5-929B-00C0DF256EC4}
  9
$EXTNAMES
290
     1
  9
$PSVPSCALE
 40
0.0
  9
$OLESTARTUP
290
     0
  0
ENDSEC
  0
SECTION
  2
CLASSES
  0
CLASS
  1
ACDBDICTIONARYWDFLT
  2
AcDbDictionaryWithDefault
  3
ObjectDBX Classes
 90
        0
280
     0
281
     0
  0
CLASS
  1
VISUALSTYLE
  2
AcDbVisualStyle
  3
ObjectDBX Classes
 90
     4095
280
     0
281
     0
  0
CLASS
  1
MATERIAL
  2
AcDbMaterial
  3
ObjectDBX Classes
 90
     1153
280
     0
281
     0
  0
CLASS
  1
SCALE
  2
AcDbScale
  3
ObjectDBX Classes
 90
     1153
280
     0
281
     0
  0
CLASS
  1
TABLESTYLE
  2
AcDbTableStyle
  3
ObjectDBX Classes
 90
     4095
280
     0
281
     0
  0
CLASS
  1
MLEADERSTYLE
  2
AcDbMLeaderStyle
  3
ACDB_MLEADERSTYLE_CLASS
 90
     4095
280
     0
281
     0
  0
CLASS
  1
SUN
  2
AcDbSun
  3
SCENEOE
 90
     1153
280
     0
281
     0
  0
CLASS
  1
ACDBPLACEHOLDER
  2
AcDbPlaceHolder
  3
ObjectDBX Classes
 90
        0
280
     0
281
     0
  0
CLASS
  1
LAYOUT
  2
AcDbLayout
  3
ObjectDBX Classes
 90
        0
280
     0
281
     0
  0
ENDSEC
  0
SECTION
  2
TABLES
  0
TABLE
  2
VPORT
  5
8
330
0
100
AcDbSymbolTable
 70
     1
  0
VPORT
  5
29
330
8
100
AcDbSymbolTableRecord
100
AcDbViewportTableRecord
  2
*Active
 70
     0
 10
0.0
 20
0.0
 11
1.0
 21
1.0
 12
0.0
 22
0.0
 13
0.0
 23
0.0
 14
10.0
 24
10.0
 15
10.0
 25
10.0
 16
0.0
 26
0.0
 36
1.0
 17
0.0
 27
0.0
 37
0.0
 40
134.64
 41
1.0
 42
50.0
 43
0.0
 44
0.0
 50
0.0
 51
0.0
 71
     0
 72
   100
 73
     1
 74
     3
 75
     0
 76
     0
 77
     0
 78
     0
281
     0
 65
     1
110
0.0
120
0.0
130
0.0
111
1.0
121
0.0
131
0.0
112
0.0
122
1.0
132
0.0
 79
     0
146
0.0
  0
ENDTAB
  0
TABLE
  2
LTYPE
  5
5
330
0
100
AcDbSymbolTable
 70
     6
  0
LTYPE
  5
14
330
5
100
AcDbSymbolTableRecord
100
AcDbLinetypeTableRecord
  2
ByBlock
 70
     0
  3

 72
    65
 73
     0
 40
0.0
  0
LTYPE
  5
15
330
5
100
AcDbSymbolTableRecord
100
AcDbLinetypeTableRecord
  2
ByLayer
 70
     0
  3

 72
    65
 73
     0
 40
0.0
  0
LTYPE
  5
16
330
5
100
AcDbSymbolTableRecord
100
AcDbLinetypeTableRecord
  2
Continuous
 70
     0
  3
Solid line
 72
    65
 73
     0
 40
0.0
  0
LTYPE
  5
6E
330
5
100
AcDbSymbolTableRecord
100
AcDbLinetypeTableRecord
  2
HIDDEN
 70
     0
  3
Hidden __ __ __ __ __ __ __ __ __ __ __ __ __ __
 72
    65
 73
     2
 40
1.905
 49
1.27
 74
     0
 49
-0.635
 74
     0
  0
LTYPE
  5
6F
330
5
100
AcDbSymbolTableRecord
100
AcDbLinetypeTableRecord
  2
PHANTOM
 70
     0
  3
Phantom ______  __  __  ______  __  __  ______
 72
    65
 73
     6
 40
12.7
 49
6.35
 74
     0
 49
-1.27
 74
     0
 49
1.27
 74
     0
 49
-1.27
 74
     0
 49
1.27
 74
     0
 49
-1.27
 74
     0
  0
LTYPE
  5
70
330
5
100
AcDbSymbolTableRecord
100
AcDbLinetypeTableRecord
  2
CENTER
 70
     0
  3
Center ____ _ ____ _ ____ _ ____ _ ____ _ ____
 72
    65
 73
     4
 40
10.16
 49
6.35
 74
     0
 49
-1.27
 74
     0
 49
1.27
 74
     0
 49
-1.27
 74
     0
  0
LTYPE
  5
71
330
5
100
AcDbSymbolTableRecord
100
AcDbLinetypeTableRecord
  2
CENTERX2
 70
     0
  3
Center (2x) ________  __  ________  __  _____
 72
    65
 73
     4
 40
20.32
 49
12.7
 74
     0
 49
-2.54
 74
     0
 49
2.54
 74
     0
 49
-2.54
 74
     0
  0
LTYPE
  5
72
330
5
100
AcDbSymbolTableRecord
100
AcDbLinetypeTableRecord
  2
DOT2
 70
     0
  3
Dot (.5x) ........................................
 72
    65
 73
     2
 40
0.635
 49
0.0
 74
     0
 49
-0.635
 74
     0
  0
ENDTAB
  0
TABLE
  2
LAYER
  5
2
330
0
100
AcDbSymbolTable
 70
     1
  0
LAYER
  5
10
330
2
100
AcDbSymbolTableRecord
100
AcDbLayerTableRecord
  2
0
 70
     0
 62
     7
  6
Continuous
370
    -3
390
F
  0
ENDTAB
  0
TABLE
  2
STYLE
  5
3
330
0
100
AcDbSymbolTable
 70
     2
  0
STYLE
  5
11
330
3
100
AcDbSymbolTableRecord
100
AcDbTextStyleTableRecord
  2
Standard
 70
     0
 40
0.0
 41
1.0
 50
0.0
 71
     0
 42
3.5
  3
txt
  4

  0
STYLE
  5
27C
330
3
100
AcDbSymbolTableRecord
100
AcDbTextStyleTableRecord
  2
SLDTEXTSTYLE0
 70
     0
 40
0.0
 41
0.7
 50
0.0
 71
     0
 42
3.5
  3
TXT
  4

  0
ENDTAB
  0
TABLE
  2
VIEW
  5
6
330
0
100
AcDbSymbolTable
 70
     0
  0
ENDTAB
  0
TABLE
  2
UCS
  5
7
330
0
100
AcDbSymbolTable
 70
     0
  0
ENDTAB
  0
TABLE
  2
APPID
  5
9
330
0
100
AcDbSymbolTable
 70
     1
  0
APPID
  5
12
330
9
100
AcDbSymbolTableRecord
100
AcDbRegAppTableRecord
  2
ACAD
 70
     0
  0
ENDTAB
  0
TABLE
  2
DIMSTYLE
  5
A
330
0
100
AcDbSymbolTable
 70
     1
100
AcDbDimStyleTable
  0
DIMSTYLE
105
27
330
A
100
AcDbSymbolTableRecord
100
AcDbDimStyleTableRecord
  2
ISO-25
 70
     0
 41
2.5
 42
0.625
 43
3.75
 44
1.25
 73
     0
 74
     0
 77
     1
 78
     8
140
2.5
141
2.5
143
0.0393700787
147
0.625
171
     3
172
     1
178
     0
271
     2
272
     2
274
     3
278
    44
283
     0
284
     8
340
11
  0
ENDTAB
  0
TABLE
  2
BLOCK_RECORD
  5
1
330
0
100
AcDbSymbolTable
 70
     1
  0
BLOCK_RECORD
  5
1F
330
1
100
AcDbSymbolTableRecord
100
AcDbBlockTableRecord
  2
*Model_Space
340
22
  0
BLOCK_RECORD
  5
1B
330
1
100
AcDbSymbolTableRecord
100
AcDbBlockTableRecord
  2
*Paper_Space
340
1E
  0
BLOCK_RECORD
  5
23
330
1
100
AcDbSymbolTableRecord
100
AcDbBlockTableRecord
  2
*Paper_Space0
340
26
  0
ENDTAB
  0
ENDSEC
  0
SECTION
  2
BLOCKS
  0
BLOCK
  5
20
330
1F
100
AcDbEntity
  8
0
100
AcDbBlockBegin
  2
*Model_Space
 70
     0
 10
0.0
 20
0.0
 30
0.0
  3
*Model_Space
  1

  0
ENDBLK
  5
21
330
1F
100
AcDbEntity
  8
0
100
AcDbBlockEnd
  0
BLOCK
  5
1C
330
1B
100
AcDbEntity
 67
     1
  8
0
100
AcDbBlockBegin
  2
*Paper_Space
 70
     0
 10
0.0
 20
0.0
 30
0.0
  3
*Paper_Space
  1

  0
ENDBLK
  5
1D
330
1B
100
AcDbEntity
 67
     1
  8
0
100
AcDbBlockEnd
  0
BLOCK
  5
24
330
23
100
AcDbEntity
  8
0
100
AcDbBlockBegin
  2
*Paper_Space0
 70
     0
 10
0.0
 20
0.0
 30
0.0
  3
*Paper_Space0
  1

  0
ENDBLK
  5
25
330
23
100
AcDbEntity
  8
0
100
AcDbBlockEnd
  0
ENDSEC
  0
SECTION
  2
ENTITIES
  0
CIRCLE
  5
73
330
1F
100
AcDbEntity
  8
0
  6
Continuous
 62
     7
370
    25
100
AcDbCircle
 10
0.0
 20
53.033008589
 30
0.0
 40
3.000000000000002
  0
CIRCLE
  5
74
330
1F
100
AcDbEntity
  8
0
  6
Continuous
 62
     7
370
    25
100
AcDbCircle
 10
53.033008589
 20
0.0
 30
0.0
 40
3.0
  0
CIRCLE
  5
75
330
1F
100
AcDbEntity
  8
0
  6
Continuous
 62
     7
370
    25
100
AcDbCircle
 10
0.0
 20
-53.033008589
 30
0.0
 40
3.000000000000003
  0
CIRCLE
  5
76
330
1F
100
AcDbEntity
  8
0
  6
Continuous
 62
     7
370
    25
100
AcDbCircle
 10
-53.033008589
 20
0.0
 30
0.0
 40
3.000000000000007
  0
CIRCLE
  5
77
330
1F
100
AcDbEntity
  8
0
  6
Continuous
 62
     7
370
    25
100
AcDbCircle
 10
32.55
 20
32.55
 30
0.0
 40
1.200000000000003
  0
CIRCLE
  5
78
330
1F
100
AcDbEntity
  8
0
  6
Continuous
 62
     7
370
    25
100
AcDbCircle
 10
32.55
 20
-32.55
 30
0.0
 40
1.199999999999996
  0
CIRCLE
  5
79
330
1F
100
AcDbEntity
  8
0
  6
Continuous
 62
     7
370
    25
100
AcDbCircle
 10
-32.55
 20
-32.55
 30
0.0
 40
1.200000000000003
  0
CIRCLE
  5
7A
330
1F
100
AcDbEntity
  8
0
  6
Continuous
 62
     7
370
    25
100
AcDbCircle
 10
-32.55
 20
32.55
 30
0.0
 40
1.200000000000003
  0
CIRCLE
  5
7B
330
1F
100
AcDbEntity
  8
0
  6
Continuous
 62
     7
370
    25
100
AcDbCircle
 10
0.0
 20
0.0
 30
0.0
 40
18.5
  0
SPLINE
  5
7C
330
1F
100
AcDbEntity
  8
0
  6
Continuous
 62
     7
370
    25
100
AcDbSpline
210
0.0
220
0.0
230
1.0
 70
     8
 71
     3
 72
    14
 73
    10
 74
     0
 42
0.000000001
 43
0.00000001
 40
0.0
 40
0.0
 40
0.0
 40
0.0
 40
0.1491727089896281
 40
0.2332891805152238
 40
0.3237590634114546
 40
0.4205823576877865
 40
0.5237590633519522
 40
0.6332891804103242
 40
0.6859737861529412
 40
0.6859737861529412
 40
0.6859737861529412
 40
0.6859737861529412
 10
-62.11245843729227
 20
-4.030273436085269
 30
0.0
 10
-62.38756970328727
 20
-4.123142800438989
 30
0.0
 10
-62.81388108946824
 20
-4.279880923708291
 30
0.0
 10
-63.39725527629319
 20
-4.518332885051018
 30
0.0
 10
-63.88119372987406
 20
-4.730300301673491
 30
0.0
 10
-64.39333100493484
 20
-4.969930325533138
 30
0.0
 10
-64.93257077475903
 20
-5.238746037911021
 30
0.0
 10
-65.38905431281648
 20
-5.48062949005064
 30
0.0
 10
-65.6653678821524
 20
-5.633425800786075
 30
0.0
 10
-65.75482621923715
 20
-5.683557765896541
 30
0.0
  0
ARC
  5
7D
330
1F
100
AcDbEntity
  8
0
  6
Continuous
 62
     7
370
    25
100
AcDbCircle
 10
0.0
 20
0.0
 30
0.0
 40
66.0
100
AcDbArc
 50
184.9401166925
 51
186.3098833075
  0
SPLINE
  5
7E
330
1F
100
AcDbEntity
  8
0
  6
Continuous
 62
     7
370
    25
100
AcDbSpline
210
0.0
220
0.0
230
1.0
 70
     8
 71
     3
 72
    14
 73
    10
 74
     0
 42
0.000000001
 43
0.00000001
 40
0.3140262138470561
 40
0.3140262138470561
 40
0.3140262138470561
 40
0.3140262138470561
 40
0.3667108195896758
 40
0.4762409366480478
 40
0.5794176423122134
 40
0.6762409365885453
 40
0.7667108194847762
 40
0.8508272910103719
 40
1.0
 40
1.0
 40
1.0
 40
1.0
 10
-65.60017278604639
 20
-7.253780424111441
 30
0.0
 10
-65.50265310460759
 20
-7.285496661780588
 30
0.0
 10
-65.201839741563
 20
-7.381450931030659
 30
0.0
 10
-64.70693828612156
 20
-7.529631140027638
 30
0.0
 10
-64.12561651337919
 20
-7.688081173530082
 30
0.0
 10
-63.57657031393424
 20
-7.823193747766237
 30
0.0
 10
-63.06057781047519
 20
-7.936676561169588
 30
0.0
 10
-62.4418933251464
 20
-8.056736076974255
 30
0.0
 10
-61.99319530177095
 20
-8.12729329554563
 30
0.0
 10
-61.70525230741278
 20
-8.164706655630939
 30
0.0
  0
LINE
  5
7F
330
1F
100
AcDbEntity
  8
0
  6
Continuous
 62
     7
370
    25
100
AcDbLine
 10
-61.7052523074
 20
-8.1647066556
 30
0.0
 11
-61.6712470249
 21
-8.1698465489
 31
0.0
  0
SPLINE
  5
80
330
1F
100
AcDbEntity
  8
0
  6
Continuous
 62
     7
370
    25
100
AcDbSpline
210
0.0
220
0.0
230
1.0
 70
     8
 71
     3
 72
    15
 73
    11
 74
     0
 42
0.000000001
 43
0.00000001
 40
0.0
 40
0.0
 40
0.0
 40
0.0
 40
0.089398154854713
 40
0.153239276293117
 40
0.2229388537733802
 40
0.3017481308857564
 40
0.3942398025453073
 40
0.5064297554373132
 40
0.6447484245704628
 40
1.0
 40
1.0
 40
1.0
 40
1.0
 10
-61.67124702492536
 20
-8.169846548940706
 30
0.0
 10
-61.63638046920805
 20
-8.174506951859243
 30
0.0
 10
-61.57709274891614
 20
-8.185753444543368
 30
0.0
 10
-61.49205150145413
 20
-8.207389599735233
 30
0.0
 10
-61.41259598612169
 20
-8.233448272761747
 30
0.0
 10
-61.32510227336193
 20
-8.270310457757981
 30
0.0
 10
-61.22715211546852
 20
-8.324169974038275
 30
0.0
 10
-61.11822046775131
 20
-8.404666740877747
 30
0.0
 10
-60.95267105359589
 20
-8.578189226618111
 30
0.0
 10
-60.87217947497274
 20
-8.762497899235283
 30
0.0
 10
-60.85238070488501
 20
-8.90155955705184
 30
0.0
  0
ARC
  5
81
330
1F
100
AcDbEntity
  8
0
  6
Continuous
 62
     7
370
    25
100
AcDbCircle
 10
0.0
 20
0.0
 30
0.0
 40
61.50000000000001
100
AcDbArc
 50
188.3222701194
 51
188.5527298806
  0
SPLINE
  5
82
330
1F
100
AcDbEntity
  8
0
  6
Continuous
 62
     7
370
    25
100
AcDbSpline
210
0.0
220
0.0
230
1.0
 70
     8
 71
     3
 72
    15
 73
    11
 74
     0
 42
0.000000001
 43
0.00000001
 40
0.0
 40
0.0
 40
0.0
 40
0.0
 40
0.3552515754295372
 40
0.4935702445626868
 40
0.6057601974546927
 40
0.6982518691142436
 40
0.7770611462266198
 40
0.846760723706883
 40
0.910601845145287
 40
1.0
 40
1.0
 40
1.0
 40
1.0
 10
-60.81608396491719
 20
-9.146252302016563
 30
0.0
 10
-60.79466273815428
 20
-9.285073291119968
 30
0.0
 10
-60.81818639287968
 20
-9.484811166094932
 30
0.0
 10
-60.92623638607228
 20
-9.698918290114165
 30
0.0
 10
-61.00711049562865
 20
-9.807570081399279
 30
0.0
 10
-61.08520836030767
 20
-9.887543854962024
 30
0.0
 10
-61.15823409569593
 20
-9.948216850818403
 30
0.0
 10
-61.22670384972475
 20
-9.996218164757492
 30
0.0
 10
-61.30180260529522
 20
-10.04160884544357
 30
0.0
 10
-61.35527273175711
 20
-10.06958138467862
 30
0.0
 10
-61.38728510173399
 20
-10.08416233908551
 30
0.0
  0
LINE
  5
83
330
1F
100
AcDbEntity
  8
0
  6
Continuous
 62
     7
370
    25
100
AcDbLine
 10
-61.3872851017
 20
-10.0841623391
 30
0.0
 11
-61.4183340959
 21
-10.0989521228
 31
0.0
  0
SPLINE
  5
84
330
1F
100
AcDbEntity
  8
0
  6
Continuous
 62
     7
370
    25
100
AcDbSpline
210
0.0
220
0.0
230
1.0
 70
     8
 71
     3
 72
    14
 73
    10
 74
     0
 42
0.000000001
 43
0.00000001
 40
0.0
 40
0.0
 40
0.0
 40
0.0
 40
0.1491727089896281
 40
0.2332891805152238
 40
0.3237590634114546
 40
0.4205823576877865
 40
0.5237590633519522
 40
0.6332891804103242
 40
0.6859737861529447
 40
0.6859737861529447
 40
0.6859737861529447
 40
0.6859737861529447
 10
-61.41833409590361
 20
-10.09895212276679
 30
0.0
 10
-61.68301783643911
 20
-10.21833991531264
 30
0.0
 10
-62.09191339414939
 20
-10.4161091246409
 30
0.0
 10
-62.64910609545561
 20
-10.71059354414888
 30
0.0
 10
-63.10993781308827
 20
-10.96897454303923
 30
0.0
 10
-63.59612115751246
 20
-11.25764891399408
 30
0.0
 10
-64.10641579305278
 20
-11.57802494543219
 30
0.0
 10
-64.53699251383307
 20
-11.8634868736442
 30
0.0
 10
-64.79699890037726
 20
-12.04263089428053
 30
0.0
 10
-64.88111267925828
 20
-12.10128991065622
 30
0.0
  0
ARC
  5
85
330
1F
100
AcDbEntity
  8
0
  6
Continuous
 62
     7
370
    25
100
AcDbCircle
 10
0.0
 20
0.0
 30
0.0
 40
66.0
100
AcDbArc
 50
190.5651166925
 51
191.9348833075
  0
SPLINE
  5
86
330
1F
100
AcDbEntity
  8
0
  6
Continuous
 62
     7
370
    25
100
AcDbSpline
210
0.0
220
0.0
230
1.0
 70
     8
 71
     3
 72
    14
 73
    10
 74
     0
 42
0.000000001
 43
0.00000001
 40
0.3140262138470541
 40
0.3140262138470541
 40
0.3140262138470541
 40
0.3140262138470541
 40
0.3667108195896758
 40
0.4762409366480478
 40
0.5794176423122134
 40
0.6762409365885453
 40
0.7667108194847762
 40
0.8508272910103719
 40
1.0
 40
1.0
 40
1.0
 40
1.0
 10
-64.57329520998049
 20
-13.64879283032278
 30
0.0
 10
-64.47313637754434
 20
-13.67079774533814
 30
0.0
 10
-64.16436634998915
 20
-13.73680510293626
 30
0.0
 10
-63.65732377998668
 20
-13.83576295831784
 30
0.0
 10
-63.06327041130243
 20
-13.93647051382465
 30
0.0
 10
-62.5036246712282
 20
-14.01711654570743
 30
0.0
 10
-61.97899355186206
 20
-14.07947679872569
 30
0.0
 10
-61.35152031102527
 20
-14.13831651112796
 30
0.0
 10
-60.89806707448004
 20
-14.16455388028387
 30
0.0
 10
-60.60784345377684
 20
-14.17356373592934
 30
0.0
  0
LINE
  5
87
330
1F
100
AcDbEntity
  8
0
  6
Continuous
 62
     7
370
    25
100
AcDbLine
 10
-60.6078434538
 20
-14.1735637359
 30
0.0
 11
-60.5734981184
 21
-14.1753457787
 31
0.0
  0
SPLINE
  5
88
330
1F
100
AcDbEntity
  8
0
  6
Continuous
 62
     7
370
    25
100
AcDbSpline
210
0.0
220
0.0
230
1.0
 70
     8
 71
     3
 72
    15
 73
    11
 74
     0
 42
0.000000001
 43
0.00000001
 40
0.0
 40
0.0
 40
0.0
 40
0.0
 40
0.089398154854713
 40
0.153239276293117
 40
0.2229388537733802
 40
0.3017481308857564
 40
0.3942398025453073
 40
0.5064297554373132
 40
0.6447484245704628
 40
1.0
 40
1.0
 40
1.0
 40
1.0
 10
-60.57349811837538
 20
-14.17534577870243
 30
0.0
 10
-60.53834265528698
 20
-14.17656622042255
 30
0.0
 10
-60.47823807252163
 20
-14.18194734537074
 30
0.0
 10
-60.39148560785065
 20
-14.19514381667531
 30
0.0
 10
-60.30985849593109
 20
-14.21328900767235
 30
0.0
 10
-60.21917296335311
 20
-14.24139780765083
 30
0.0
 10
-60.11641530647714
 20
-14.2853971812674
 30
0.0
 10
-60.00011813152634
 20
-14.3548291655719
 30
0.0
 10
-59.8183577052142
 20
-14.51128941295616
 30
0.0
 10
-59.72018830651483
 20
-14.68682103458074
 30
0.0
 10
-59.68685444688796
 20
-14.82327245367945
 30
0.0
  0
ARC
  5
89
330
1F
100
AcDbEntity
  8
0
  6
Continuous
 62
     7
370
    25
100
AcDbCircle
 10
0.0
 20
0.0
 30
0.0
 40
61.50000000000001
100
AcDbArc
 50
193.9472701194
 51
194.1777298806
  0
SPLINE
  5
8A
330
1F
100
AcDbEntity
  8
0
  6
Continuous
 62
     7
370
    25
100
AcDbSpline
210
0.0
220
0.0
230
1.0
 70
     8
 71
     3
 72
    15
 73
    11
 74
     0
 42
0.000000001
 43
0.00000001
 40
0.0
 40
0.0
 40
0.0
 40
0.0
 40
0.3552515754295372
 40
0.4935702445626868
 40
0.6057601974546927
 40
0.6982518691142436
 40
0.7770611462266198
 40
0.846760723706883
 40
0.910601845145287
 40
1.0
 40
1.0
 40
1.0
 40
1.0
 10
-59.62674840252316
 20
-15.06322923354097
 30
0.0
 10
-59.59182348845249
 20
-15.19928211424855
 30
0.0
 10
-59.59565613503018
 20
-15.40036391812788
 30
0.0
 10
-59.68219966995193
 20
-15.62403080916889
 30
0.0
 10
-59.75203461069219
 20
-15.74008646132683
 30
0.0
 10
-59.82191761222048
 20
-15.8273300686725
 30
0.0
 10
-59.88864471518382
 20
-15.89486868122343
 30
0.0
 10
-59.95207981710792
 20
-15.94935006520479
 30
0.0
 10
-60.02236788692528
 20
-16.00188314262015
 30
0.0
 10
-60.07283875180982
 20
-16.03496197532197
 30
0.0
 10
-60.10326779002114
 20
-16.05261047940831
 30
0.0
  0
LINE
  5
8B
330
1F
100
AcDbEntity
  8
0
  6
Continuous
 62
     7
370
    25
100
AcDbLine
 10
-60.10326779
 20
-16.0526104794
 30
0.0
 11
-60.1327176225
 21
-16.0703723799
 31
0.0
  0
SPLINE
  5
8C
330
1F
100
AcDbEntity
  8
0
  6
Continuous
 62
     7
370
    25
100
AcDbSpline
210
0.0
220
0.0
230
1.0
 70
     8
 71
     3
 72
    14
 73
    10
 74
     0
 42
0.000000001
 43
0.00000001
 40
0.0
 40
0.0
 40
0.0
 40
0.0
 40
0.1491727089896281
 40
0.2332891805152238
 40
0.3237590634114546
 40
0.4205823576877865
 40
0.5237590633519522
 40
0.6332891804103242
 40
0.685973786152944
 40
0.685973786152944
 40
0.685973786152944
 40
0.685973786152944
 10
-60.13271762249475
 20
-16.07037237985732
 30
0.0
 10
-60.38442478845855
 20
-16.21512883088909
 30
0.0
 10
-60.77196662995233
 20
-16.45202450067883
 30
0.0
 10
-61.29761177543373
 20
-16.79970533241064
 30
0.0
 10
-61.73089869576112
 20
-17.10201156330413
 30
0.0
 10
-62.18644589816706
 20
-17.43695018935642
 30
0.0
 10
-62.66288098312785
 20
-17.80580114353666
 30
0.0
 10
-63.0634041974327
 20
-18.13209239340301
 30
0.0
 10
-63.30459939754879
 20
-18.33585886909142
 30
0.0
 10
-63.38255855655416
 20
-18.40248001833834
 30
0.0
  0
ARC
  5
8D
330
1F
100
AcDbEntity
  8
0
  6
Continuous
 62
     7
370
    25
100
AcDbCircle
 10
0.0
 20
0.0
 30
0.0
 40
66.0
100
AcDbArc
 50
196.1901166925
 51
197.5598833075
  0
SPLINE
  5
8E
330
1F
100
AcDbEntity
  8
0
  6
Continuous
 62
     7
370
    25
100
AcDbSpline
210
0.0
220
0.0
230
1.0
 70
     8
 71
     3
 72
    14
 73
    10
 74
     0
 42
0.000000001
 43
0.00000001
 40
0.3140262138470533
 40
0.3140262138470533
 40
0.3140262138470533
 40
0.3140262138470533
 40
0.3667108195896758
 40
0.4762409366480478
 40
0.5794176423122134
 40
0.6762409365885453
 40
0.7667108194847762
 40
0.8508272910103719
 40
1.0
 40
1.0
 40
1.0
 40
1.0
 10
-62.92454150168868
 20
-19.91235990038905
 30
0.0
 10
-62.82270810256389
 20
-19.92444157338992
 30
0.0
 10
-62.50895503465433
 20
-19.95986633239912
 30
0.0
 10
-61.99465444721759
 20
-20.0086488159221
 30
0.0
 10
-61.39359054127451
 20
-20.05064402462141
 30
0.0
 10
-60.8287349549814
 20
-20.07604684877817
 30
0.0
 10
-60.3005177041802
 20
-20.08668397808519
 30
0.0
 10
-59.67029861815643
 20
-20.08373722848956
 30
0.0
 10
-59.21645717099211
 20
-20.06540206802225
 30
0.0
 10
-58.92674793606363
 20
-20.04592164939272
 30
0.0
  0
LINE
  5
8F
330
1F
100
AcDbEntity
  8
0
  6
Continuous
 62
     7
370
    25
100
AcDbLine
 10
-58.9267479361
 20
-20.0459216494
 30
0.0
 11
-58.8923933121
 21
-20.0443286796
 31
0.0
  0
SPLINE
  5
90
330
1F
100
AcDbEntity
  8
0
  6
Continuous
 62
     7
370
    25
100
AcDbSpline
210
0.0
220
0.0
230
1.0
 70
     8
 71
     3
 72
    15
 73
    11
 74
     0
 42
0.000000001
 43
0.00000001
 40
0.0
 40
0.0
 40
0.0
 40
0.0
 40
0.089398154854713
 40
0.153239276293117
 40
0.2229388537733802
 40
0.3017481308857564
 40
0.3942398025453073
 40
0.5064297554373132
 40
0.6447484245704628
 40
1.0
 40
1.0
 40
1.0
 40
1.0
 10
-58.8923933121031
 20
-20.04432867958306
 30
0.0
 10
-58.8572875079711
 20
-20.04209740658383
 30
0.0
 10
-58.79694490272084
 20
-20.04156134062123
 30
0.0
 10
-58.70931669449939
 20
-20.04619103880592
 30
0.0
 10
-58.62630409970242
 20
-20.056247999665
 30
0.0
 10
-58.53330009855869
 20
-20.07533271151611
 30
0.0
 10
-58.42672455510892
 20
-20.10904820444851
 30
0.0
 10
-58.30418185829382
 20
-20.16674673825382
 30
0.0
 10
-58.10796087209069
 20
-20.30463794956978
 30
0.0
 10
-57.99305907828943
 20
-20.46970205473018
 30
0.0
 10
-57.94651115241377
 20
-20.6022291333532
 30
0.0
  0
ARC
  5
91
330
1F
100
AcDbEntity
  8
0
  6
Continuous
 62
     7
370
    25
100
AcDbCircle
 10
0.0
 20
0.0
 30
0.0
 40
61.50000000000001
100
AcDbArc
 50
199.5722701194
 51
199.8027298806
  0
SPLINE
  5
92
330
1F
100
AcDbEntity
  8
0
  6
Continuous
 62
     7
370
    25
100
AcDbSpline
210
0.0
220
0.0
230
1.0
 70
     8
 71
     3
 72
    15
 73
    11
 74
     0
 42
0.000000001
 43
0.00000001
 40
0.0
 40
0.0
 40
0.0
 40
0.0
 40
0.3552515754295372
 40
0.4935702445626868
 40
0.6057601974546927
 40
0.6982518691142436
 40
0.7770611462266198
 40
0.846760723706883
 40
0.910601845145287
 40
1.0
 40
1.0
 40
1.0
 40
1.0
 10
-57.86317465771654
 20
-20.83513903314761
 30
0.0
 10
-57.81508240235252
 20
-20.96711354184409
 30
0.0
 10
-57.79918713030081
 20
-21.16760274693393
 30
0.0
 10
-57.86339074540091
 20
-21.39867537056725
 30
0.0
 10
-57.92151396867008
 20
-21.52101720422525
 30
0.0
 10
-57.98250909554098
 20
-21.61469044172289
 30
0.0
 10
-58.0422949476011
 20
-21.68844423720916
 30
0.0
 10
-58.10008448271183
 20
-21.74888100572248
 30
0.0
 10
-58.16488495424036
 20
-21.80805055761412
 30
0.0
 10
-58.21187049552852
 20
-21.84591711654105
 30
0.0
 10
-58.2404231537021
 20
-21.86646320556484
 30
0.0
  0
LINE
  5
93
330
1F
100
AcDbEntity
  8
0
  6
Continuous
 62
     7
370
    25
100
AcDbLine
 10
-58.2404231537
 20
-21.8664632056
 30
0.0
 11
-58.2679902065
 21
-21.887026166
 31
0.0
  0
SPLINE
  5
94
330
1F
100
AcDbEntity
  8
0
  6
Continuous
 62
     7
370
    25
100
AcDbSpline
210
0.0
220
0.0
230
1.0
 70
     8
 71
     3
 72
    14
 73
    10
 74
     0
 42
0.000000001
 43
0.00000001
 40
0.0
 40
0.0
 40
0.0
 40
0.0
 40
0.1491727089896281
 40
0.2332891805152238
 40
0.3237590634114546
 40
0.4205823576877865
 40
0.5237590633519522
 40
0.6332891804103242
 40
0.6859737861529444
 40
0.6859737861529444
 40
0.6859737861529444
 40
0.6859737861529444
 10
-58.26799020649408
 20
-21.88702616597062
 30
0.0
 10
-58.50429672028081
 20
-22.05575719173294
 30
0.0
 10
-58.86675260577258
 20
-22.32949788718374
 30
0.0
 10
-59.3557879453313
 20
-22.72702677466812
 30
0.0
 10
-59.75735727845197
 20
-23.07034686330386
 30
0.0
 10
-60.17788117025305
 20
-23.44832410238864
 30
0.0
 10
-60.61586837432021
 20
-23.8620977429878
 30
0.0
 10
-60.9824808246476
 20
-24.22607595140334
 30
0.0
 10
-61.20254199670777
 20
-24.45250249959286
 30
0.0
 10
-61.27359574651948
 20
-24.52644418362495
 30
0.0
  0
ARC
  5
95
330
1F
100
AcDbEntity
  8
0
  6
Continuous
 62
     7
370
    25
100
AcDbCircle
 10
0.0
 20
0.0
 30
0.0
 40
66.0
100
AcDbArc
 50
201.8151166925
 51
203.1848833075
  0
SPLINE
  5
96
330
1F
100
AcDbEntity
  8
0
  6
Continuous
 62
     7
370
    25
100
AcDbSpline
210
0.0
220
0.0
230
1.0
 70
     8
 71
     3
 72
    14
 73
    10
 74
     0
 42
0.000000001
 43
0.00000001
 40
0.3140262138470583
 40
0.3140262138470583
 40
0.3140262138470583
 40
0.3140262138470583
 40
0.3667108195896758
 40
0.4762409366480478
 40
0.5794176423122134
 40
0.6762409365885453
 40
0.7667108194847762
 40
0.8508272910103719
 40
1.0
 40
1.0
 40
1.0
 40
1.0
 10
-60.66979006068218
 20
-25.98416005941136
 30
0.0
 10
-60.56726280617016
 20
-25.98620213728222
 30
0.0
 10
-60.25154831146509
 20
-25.99070313790809
 30
0.0
 10
-59.73494270239641
 20
-25.98884044758895
 30
0.0
 10
-59.13265683318367
 20
-25.97171887266404
 30
0.0
 10
-58.56803126874916
 20
-25.94163384601157
 30
0.0
 10
-58.04131490739104
 20
-25.90044541023727
 30
0.0
 10
-57.41441933049151
 20
-25.83574057745322
 30
0.0
 10
-56.96456041393926
 20
-25.77300946498098
 30
0.0
 10
-56.67815562308904
 20
-25.72522637915695
 30
0.0
  0
LINE
  5
97
330
1F
100
AcDbEntity
  8
0
  6
Continuous
 62
     7
370
    25
100
AcDbLine
 10
-56.6781556231
 20
-25.7252263792
 30
0.0
 11
-56.6441225644
 21
-25.7202737379
 31
0.0
  0
SPLINE
  5
98
330
1F
100
AcDbEntity
  8
0
  6
Continuous
 62
     7
370
    25
100
AcDbSpline
210
0.0
220
0.0
230
1.0
 70
     8
 71
     3
 72
    15
 73
    11
 74
     0
 42
0.000000001
 43
0.00000001
 40
0.0
 40
0.0
 40
0.0
 40
0.0
 40
0.089398154854713
 40
0.153239276293117
 40
0.2229388537733802
 40
0.3017481308857564
 40
0.3942398025453073
 40
0.5064297554373132
 40
0.6447484245704628
 40
1.0
 40
1.0
 40
1.0
 40
1.0
 10
-56.64412256437832
 20
-25.72027373793462
 30
0.0
 10
-56.60940450728729
 20
-25.71461223859475
 30
0.0
 10
-56.5494050118273
 20
-25.70816414432962
 30
0.0
 10
-56.46174496760301
 20
-25.70418248287005
 30
0.0
 10
-56.37814634659583
 20
-25.70605435956041
 30
0.0
 10
-56.28371955625852
 20
-25.71593118707627
 30
0.0
 10
-56.17435250697848
 20
-25.7390381006968
 30
0.0
 10
-56.04674444145807
 20
-25.78444751558113
 30
0.0
 10
-55.83795261072639
 20
-25.90244172308484
 30
0.0
 10
-55.70742498890926
 20
-26.05544865421514
 30
0.0
 10
-55.64811127875668
 20
-26.18277508414865
 30
0.0
  0
ARC
  5
99
330
1F
100
AcDbEntity
  8
0
  6
Continuous
 62
     7
370
    25
100
AcDbCircle
 10
0.0
 20
0.0
 30
0.0
 40
61.50000000000001
100
AcDbArc
 50
205.1972701194
 51
205.4277298806
  0
SPLINE
  5
9A
330
1F
100
AcDbEntity
  8
0
  6
Continuous
 62
     7
370
    25
100
AcDbSpline
210
0.0
220
0.0
230
1.0
 70
     8
 71
     3
 72
    15
 73
    11
 74
     0
 42
0.000000001
 43
0.00000001
 40
0.0
 40
0.0
 40
0.0
 40
0.0
 40
0.3552515754295372
 40
0.4935702445626868
 40
0.6057601974546927
 40
0.6982518691142436
 40
0.7770611462266198
 40
0.846760723706883
 40
0.910601845145287
 40
1.0
 40
1.0
 40
1.0
 40
1.0
 10
-55.54234690972728
 20
-26.40639505421953
 30
0.0
 10
-55.48155046777895
 20
-26.53302020424155
 30
0.0
 10
-55.44608035725693
 20
-26.73098598989834
 30
0.0
 10
-55.48732573662471
 20
-26.96723899044122
 30
0.0
 10
-55.53317748400931
 20
-27.09468878686232
 30
0.0
 10
-55.58469731980773
 20
-27.19388953002784
 30
0.0
 10
-55.63696615052704
 20
-27.27314821908097
 30
0.0
 10
-55.68855357401028
 20
-27.33895833300738
 30
0.0
 10
-55.74724238328564
 20
-27.40419452424522
 30
0.0
 10
-55.79029010452989
 20
-27.44648413373483
 30
0.0
 10
-55.81669140495908
 20
-27.46972993762714
 30
0.0
  0
LINE
  5
9B
330
1F
100
AcDbEntity
  8
0
  6
Continuous
 62
     7
370
    25
100
AcDbLine
 10
-55.816691405
 20
-27.4697299376
 30
0.0
 11
-55.8421101923
 21
-27.4928959254
 31
0.0
  0
SPLINE
  5
9C
330
1F
100
AcDbEntity
  8
0
  6
Continuous
 62
     7
370
    25
100
AcDbSpline
210
0.0
220
0.0
230
1.0
 70
     8
 71
     3
 72
    14
 73
    10
 74
     0
 42
0.000000001
 43
0.00000001
 40
0.0
 40
0.0
 40
0.0
 40
0.0
 40
0.1491727089896281
 40
0.2332891805152238
 40
0.3237590634114546
 40
0.4205823576877865
 40
0.5237590633519522
 40
0.6332891804103242
 40
0.6859737861529432
 40
0.6859737861529432
 40
0.6859737861529432
 40
0.6859737861529432
 10
-55.84211019228133
 20
-27.49289592544012
 30
0.0
 10
-56.06074029298493
 20
-27.68397655391713
 30
0.0
 10
-56.39461957415889
 20
-27.99192600248992
 30
0.0
 10
-56.84233543014106
 20
-28.435474525229
 30
0.0
 10
-57.20831984385692
 20
-28.81650211147557
 30
0.0
 10
-57.58977055009336
 20
-29.23387783615706
 30
0.0
 10
-57.98509181706358
 20
-29.6885892968245
 30
0.0
 10
-58.31426282510609
 20
-30.08674915467147
 30
0.0
 10
-58.51107065972573
 20
-30.33365516392569
 30
0.0
 10
-58.57453471389115
 20
-30.41420528390509
 30
0.0
  0
ARC
  5
9D
330
1F
100
AcDbEntity
  8
0
  6
Continuous
 62
     7
370
    25
100
AcDbCircle
 10
0.0
 20
0.0
 30
0.0
 40
66.0
100
AcDbArc
 50
207.4401166925
 51
208.8098833075
  0
SPLINE
  5
9E
330
1F
100
AcDbEntity
  8
0
  6
Continuous
 62
     7
370
    25
100
AcDbSpline
210
0.0
220
0.0
230
1.0
 70
     8
 71
     3
 72
    14
 73
    10
 74
     0
 42
0.000000001
 43
0.00000001
 40
0.3140262138470583
 40
0.3140262138470583
 40
0.3140262138470583
 40
0.3140262138470583
 40
0.3667108195896758
 40
0.4762409366480478
 40
0.5794176423122134
 40
0.6762409365885453
 40
0.7667108194847762
 40
0.8508272910103719
 40
1.0
 40
1.0
 40
1.0
 40
1.0
 10
-57.83075537591046
 20
-31.8057185526748
 30
0.0
 10
-57.72852165951922
 20
-31.79770136908945
 30
0.0
 10
-57.41388624118974
 20
-31.77123526423548
 30
0.0
 10
-56.89995080490981
 20
-31.71874533880022
 30
0.0
 10
-56.30224331459087
 20
-31.64267187037724
 30
0.0
 10
-55.7432854248562
 20
-31.55738872816834
 30
0.0
 10
-55.22314251943349
 20
-31.46477139446513
 30
0.0
 10
-54.60560779875971
 20
-31.33893162140362
 30
0.0
 10
-54.16406380010383
 20
-31.23240869183189
 30
0.0
 10
-53.88372168803255
 20
-31.15678311605071
 30
0.0
  0
LINE
  5
9F
330
1F
100
AcDbEntity
  8
0
  6
Continuous
 62
     7
370
    25
100
AcDbLine
 10
-53.883721688
 20
-31.1567831161
 30
0.0
 11
-53.8503379515
 21
-31.1485185001
 31
0.0
  0
SPLINE
  5
A0
330
1F
100
AcDbEntity
  8
0
  6
Continuous
 62
     7
370
    25
100
AcDbSpline
210
0.0
220
0.0
230
1.0
 70
     8
 71
     3
 72
    15
 73
    11
 74
     0
 42
0.000000001
 43
0.00000001
 40
0.0
 40
0.0
 40
0.0
 40
0.0
 40
0.089398154854713
 40
0.153239276293117
 40
0.2229388537733802
 40
0.3017481308857564
 40
0.3942398025453073
 40
0.5064297554373132
 40
0.6447484245704628
 40
1.0
 40
1.0
 40
1.0
 40
1.0
 10
-53.85033795153139
 20
-31.14851850005807
 30
0.0
 10
-53.81634199534993
 20
-31.13948129771112
 30
0.0
 10
-53.75726343762056
 20
-31.12718327381611
 30
0.0
 10
-53.67041577153916
 20
-31.11462859828874
 30
0.0
 10
-53.58703622474172
 20
-31.10829736361458
 30
0.0
 10
-53.49209602682073
 20
-31.10887118754697
 30
0.0
 10
-53.3809907361811
 20
-31.12114698964595
 30
0.0
 10
-53.249546237384
 20
-31.15382996812066
 30
0.0
 10
-53.03019434159094
 20
-31.25079082309164
 30
0.0
 10
-52.88529794410969
 20
-31.39026703980298
 30
0.0
 10
-52.81378967313312
 20
-31.511166597923
 30
0.0
  0
ARC
  5
A1
330
1F
100
AcDbEntity
  8
0
  6
Continuous
 62
     7
370
    25
100
AcDbCircle
 10
0.0
 20
0.0
 30
0.0
 40
61.50000000000001
100
AcDbArc
 50
210.8222701194
 51
211.0527298806
  0
SPLINE
  5
A2
330
1F
100
AcDbEntity
  8
0
  6
Continuous
 62
     7
370
    25
100
AcDbSpline
210
0.0
220
0.0
230
1.0
 70
     8
 71
     3
 72
    15
 73
    11
 74
     0
 42
0.000000001
 43
0.00000001
 40
0.0
 40
0.0
 40
0.0
 40
0.0
 40
0.3552515754295372
 40
0.4935702445626868
 40
0.6057601974546927
 40
0.6982518691142436
 40
0.7770611462266198
 40
0.846760723706883
 40
0.910601845145287
 40
1.0
 40
1.0
 40
1.0
 40
1.0
 10
-52.68661599846202
 20
-31.72334305571542
 30
0.0
 10
-52.61370087290006
 20
-31.84339937764792
 30
0.0
 10
-52.55899752046201
 20
-32.03693522513667
 30
0.0
 10
-52.57688744854713
 20
-32.27609335704487
 30
0.0
 10
-52.61002614265474
 20
-32.40742370501837
 30
0.0
 10
-52.65157452319833
 20
-32.51119659646644
 30
0.0
 10
-52.69582295516395
 20
-32.59519687458366
 30
0.0
 10
-52.74071145193101
 20
-32.66574654655058
 30
0.0
 10
-52.7927233936373
 20
-32.73642111695126
 30
0.0
 10
-52.83141872174979
 20
-32.78272650494631
 30
0.0
 10
-52.85541440547902
 20
-32.80844815390822
 30
0.0
  0
LINE
  5
A3
330
1F
100
AcDbEntity
  8
0
  6
Continuous
 62
     7
370
    25
100
AcDbLine
 10
-52.8554144055
 20
-32.8084481539
 30
0.0
 11
-52.8784401305
 21
-32.833994068
 31
0.0
  0
SPLINE
  5
A4
330
1F
100
AcDbEntity
  8
0
  6
Continuous
 62
     7
370
    25
100
AcDbSpline
210
0.0
220
0.0
230
1.0
 70
     8
 71
     3
 72
    14
 73
    10
 74
     0
 42
0.000000001
 43
0.00000001
 40
0.0
 40
0.0
 40
0.0
 40
0.0
 40
0.1491727089896281
 40
0.2332891805152238
 40
0.3237590634114546
 40
0.4205823576877865
 40
0.5237590633519522
 40
0.6332891804103242
 40
0.685973786152944
 40
0.685973786152944
 40
0.685973786152944
 40
0.685973786152944
 10
-52.87844013051431
 20
-32.83399406800194
 30
0.0
 10
-53.07728829074966
 20
-33.04558408828611
 30
0.0
 10
-53.37937552761109
 20
-33.38477656844884
 30
0.0
 10
-53.78146015157724
 20
-33.87007311170036
 30
0.0
 10
-54.10833501591677
 20
-34.28513869161134
 30
0.0
 10
-54.44703895776534
 20
-34.73789334550008
 30
0.0
 10
-54.7958871277331
 20
-35.22916350629901
 30
0.0
 10
-55.08444659674012
 20
-35.65767051649001
 30
0.0
 10
-55.25610572688574
 20
-35.92267814696727
 30
0.0
 10
-55.31136889187027
 20
-36.0090609612054
 30
0.0
  0
ARC
  5
A5
330
1F
100
AcDbEntity
  8
0
  6
Continuous
 62
     7
370
    25
100
AcDbCircle
 10
0.0
 20
0.0
 30
0.0
 40
66.0
100
AcDbArc
 50
213.0651166925
 51
214.4348833075
  0
SPLINE
  5
A6
330
1F
100
AcDbEntity
  8
0
  6
Continuous
 62
     7
370
    25
100
AcDbSpline
210
0.0
220
0.0
230
1.0
 70
     8
 71
     3
 72
    14
 73
    10
 74
     0
 42
0.000000001
 43
0.00000001
 40
0.3140262138470556
 40
0.3140262138470556
 40
0.3140262138470556
 40
0.3140262138470556
 40
0.3667108195896758
 40
0.4762409366480478
 40
0.5794176423122134
 40
0.6762409365885453
 40
0.7667108194847762
 40
0.8508272910103719
 40
1.0
 40
1.0
 40
1.0
 40
1.0
 10
-54.43477890336209
 20
-37.32097058950163
 30
0.0
 10
-54.33382329166712
 20
-37.30297135432063
 30
0.0
 10
-54.02329706078896
 20
-37.24579302704439
 30
0.0
 10
-53.51698127649482
 20
-37.14318137316888
 30
0.0
 10
-52.92960841494162
 20
-37.00888864033473
 30
0.0
 10
-52.38170126994239
 20
-36.86922870584938
 30
0.0
 10
-51.87314108097333
 20
-36.7260744297706
 30
0.0
 10
-51.27091441346423
 20
-36.54031162223724
 30
0.0
 10
-50.84193764278427
 20
-36.39102274960915
 30
0.0
 10
-50.57035805728175
 20
-36.28828299950676
 30
0.0
  0
LINE
  5
A7
330
1F
100
AcDbEntity
  8
0
  6
Continuous
 62
     7
370
    25
100
AcDbLine
 10
-50.5703580573
 20
-36.2882829995
 30
0.0
 11
-50.5379451466
 21
-36.2767860015
 31
0.0
  0
SPLINE
  5
A8
330
1F
100
AcDbEntity
  8
0
  6
Continuous
 62
     7
370
    25
100
AcDbSpline
210
0.0
220
0.0
230
1.0
 70
     8
 71
     3
 72
    15
 73
    11
 74
     0
 42
0.000000001
 43
0.00000001
 40
0.0
 40
0.0
 40
0.0
 40
0.0
 40
0.089398154854713
 40
0.153239276293117
 40
0.2229388537733802
 40
0.3017481308857564
 40
0.3942398025453073
 40
0.5064297554373132
 40
0.6447484245704628
 40
1.0
 40
1.0
 40
1.0
 40
1.0
 10
-50.53794514662208
 20
-36.27678600151371
 30
0.0
 10
-50.5049986909923
 20
-36.26446012935849
 30
0.0
 10
-50.4474100298001
 20
-36.2464306125265
 30
0.0
 10
-50.36221113236172
 20
-36.22542383131974
 30
0.0
 10
-50.27985365038957
 20
-36.21095045853198
 30
0.0
 10
-50.18531437089046
 20
-36.20221575264276
 30
0.0
 10
-50.07354084357643
 20
-36.20354222053533
 30
0.0
 10
-49.93952579388094
 20
-36.22318400765137
 30
0.0
 10
-49.71172631169293
 20
-36.29817772405207
 30
0.0
 10
-49.55385657006373
 20
-36.42277999413204
 30
0.0
 10
-49.47084240200308
 20
-36.53608835160347
 30
0.0
  0
ARC
  5
A9
330
1F
100
AcDbEntity
  8
0
  6
Continuous
 62
     7
370
    25
100
AcDbCircle
 10
0.0
 20
0.0
 30
0.0
 40
61.50000000000002
100
AcDbArc
 50
216.4472701194
 51
216.6777298806
  0
SPLINE
  5
AA
330
1F
100
AcDbEntity
  8
0
  6
Continuous
 62
     7
370
    25
100
AcDbSpline
210
0.0
220
0.0
230
1.0
 70
     8
 71
     3
 72
    15
 73
    11
 74
     0
 42
0.000000001
 43
0.00000001
 40
0.0
 40
0.0
 40
0.0
 40
0.0
 40
0.3552515754295372
 40
0.4935702445626868
 40
0.6057601974546927
 40
0.6982518691142436
 40
0.7770611462266198
 40
0.846760723706883
 40
0.910601845145287
 40
1.0
 40
1.0
 40
1.0
 40
1.0
 10
-49.32348417369757
 20
-36.73477792184139
 30
0.0
 10
-49.23915257704063
 20
-36.84710920767471
 30
0.0
 10
-49.1657428058744
 20
-37.03435126098666
 30
0.0
 10
-49.16010499288978
 20
-37.27411130071276
 30
0.0
 10
-49.18021148998069
 20
-37.40805741719522
 30
0.0
 10
-49.21138828165217
 20
-37.51540306725315
 30
0.0
 10
-49.2471901782756
 20
-37.60333596583696
 30
0.0
 10
-49.28494744756407
 20
-37.67794576393697
 30
0.0
 10
-49.32978161827003
 20
-37.75337807875288
 30
0.0
 10
-49.36375189608803
 20
-37.8032532990539
 30
0.0
 10
-49.38511087156562
 20
-37.83120307954499
 30
0.0
  0
LINE
  5
AB
330
1F
100
AcDbEntity
  8
0
  6
Continuous
 62
     7
370
    25
100
AcDbLine
 10
-49.3851108716
 20
-37.8312030795
 30
0.0
 11
-49.405521784
 21
-37.8588828988
 31
0.0
  0
SPLINE
  5
AC
330
1F
100
AcDbEntity
  8
0
  6
Continuous
 62
     7
370
    25
100
AcDbSpline
210
0.0
220
0.0
230
1.0
 70
     8
 71
     3
 72
    14
 73
    10
 74
     0
 42
0.000000001
 43
0.00000001
 40
0.0
 40
0.0
 40
0.0
 40
0.0
 40
0.1491727089896281
 40
0.2332891805152238
 40
0.3237590634114546
 40
0.4205823576877865
 40
0.5237590633519522
 40
0.6332891804103242
 40
0.685973786152943
 40
0.685973786152943
 40
0.685973786152943
 40
0.685973786152943
 10
-49.40552178399471
 20
-37.85888289880192
 30
0.0
 10
-49.58267298727727
 20
-38.08894458333105
 30
0.0
 10
-49.85005891459753
 20
-38.45611348607827
 30
0.0
 10
-50.20264001181703
 20
-38.97848437884065
 30
0.0
 10
-50.48725734314869
 20
-39.42359064398357
 30
0.0
 10
-50.77995261649497
 20
-39.90736395226176
 30
0.0
 10
-51.07896809088369
 20
-40.43046161298808
 30
0.0
 10
-51.32413703542602
 20
-40.88518901876921
 30
0.0
 10
-51.46899428983588
 20
-41.1657461021201
 30
0.0
 10
-51.5155243511508
 20
-41.25712969689418
 30
0.0
  0
ARC
  5
AD
330
1F
100
AcDbEntity
  8
0
  6
Continuous
 62
     7
370
    25
100
AcDbCircle
 10
0.0
 20
0.0
 30
0.0
 40
66.00000000000001
100
AcDbArc
 50
218.6901166925
 51
220.0598833075
  0
SPLINE
  5
AE
330
1F
100
AcDbEntity
  8
0
  6
Continuous
 62
     7
370
    25
100
AcDbSpline
210
0.0
220
0.0
230
1.0
 70
     8
 71
     3
 72
    14
 73
    10
 74
     0
 42
0.000000001
 43
0.00000001
 40
0.3140262138470556
 40
0.3140262138470556
 40
0.3140262138470556
 40
0.3140262138470556
 40
0.3667108195896758
 40
0.4762409366480478
 40
0.5794176423122134
 40
0.6762409365885453
 40
0.7667108194847762
 40
0.8508272910103719
 40
1.0
 40
1.0
 40
1.0
 40
1.0
 10
-50.5145657528973
 20
-42.47680127783372
 30
0.0
 10
-50.41586050362717
 20
-42.44899333353123
 30
0.0
 10
-50.11243399755458
 20
-42.36165344238127
 30
0.0
 10
-49.61861396302938
 20
-42.20990826638555
 30
0.0
 10
-49.04723245198933
 20
-42.01868958156931
 30
0.0
 10
-48.5156526970484
 20
-41.82599785632249
 30
0.0
 10
-48.02357293716006
 20
-41.63368529180286
 30
0.0
 10
-47.4424540948343
 20
-41.38978844718247
 30
0.0
 10
-47.03017583293449
 20
-41.19917136495102
 30
0.0
 10
-46.76997423386963
 20
-41.07030688048416
 30
0.0
  0
LINE
  5
AF
330
1F
100
AcDbEntity
  8
0
  6
Continuous
 62
     7
370
    25
100
AcDbLine
 10
-46.7699742339
 20
-41.0703068805
 30
0.0
 11
-46.7388443031
 21
-41.0556882229
 31
0.0
  0
SPLINE
  5
B0
330
1F
100
AcDbEntity
  8
0
  6
Continuous
 62
     7
370
    25
100
AcDbSpline
210
0.0
220
0.0
230
1.0
 70
     8
 71
     3
 72
    15
 73
    11
 74
     0
 42
0.000000001
 43
0.00000001
 40
0.0
 40
0.0
 40
0.0
 40
0.0
 40
0.089398154854713
 40
0.153239276293117
 40
0.2229388537733802
 40
0.3017481308857564
 40
0.3942398025453073
 40
0.5064297554373132
 40
0.6447484245704628
 40
1.0
 40
1.0
 40
1.0
 40
1.0
 10
-46.73884430309977
 20
-41.05568822286627
 30
0.0
 10
-46.70726464039976
 20
-41.04019238578967
 30
0.0
 10
-46.65172048603318
 20
-41.01660501012373
 30
0.0
 10
-46.56899086919461
 20
-40.98734843002407
 30
0.0
 10
-46.48844859962032
 20
-40.96487230561461
 30
0.0
 10
-46.39522070348509
 20
-40.94691318989636
 30
0.0
 10
-46.28385537966633
 20
-40.9372775489716
 30
0.0
 10
-46.14856041726108
 20
-40.94368898358176
 30
0.0
 10
-45.91450718221945
 20
-40.99599333092749
 30
0.0
 10
-45.74518446835458
 20
-41.1045216664007
 30
0.0
 10
-45.65146387502843
 20
-41.20914760180045
 30
0.0
  0
ARC
  5
B1
330
1F
100
AcDbEntity
  8
0
  6
Continuous
 62
     7
370
    25
100
AcDbCircle
 10
0.0
 20
0.0
 30
0.0
 40
61.50000000000001
100
AcDbArc
 50
222.0722701194
 51
222.3027298806
  0
SPLINE
  5
B2
330
1F
100
AcDbEntity
  8
0
  6
Continuous
 62
     7
370
    25
100
AcDbSpline
210
0.0
220
0.0
230
1.0
 70
     8
 71
     3
 72
    15
 73
    11
 74
     0
 42
0.000000001
 43
0.00000001
 40
0.0
 40
0.0
 40
0.0
 40
0.0
 40
0.3552515754295372
 40
0.4935702445626868
 40
0.6057601974546927
 40
0.6982518691142436
 40
0.7770611462266198
 40
0.846760723706883
 40
0.910601845145287
 40
1.0
 40
1.0
 40
1.0
 40
1.0
 10
-45.48534023338125
 20
-41.39243679530777
 30
0.0
 10
-45.39040432500546
 20
-41.49596123335281
 30
0.0
 10
-45.29899511133726
 20
-41.67510624915764
 30
0.0
 10
-45.26988385250387
 20
-41.9131591764529
 30
0.0
 10
-45.27676451601975
 20
-42.0484310871202
 30
0.0
 10
-45.29726946927236
 20
-42.15831569849684
 30
0.0
 10
-45.32428003871782
 20
-42.24933437566487
 30
0.0
 10
-45.35454245738423
 20
-42.3272857667564
 30
0.0
 10
-45.39176707951713
 20
-42.40674937156037
 30
0.0
 10
-45.4206851546952
 20
-42.45971409853128
 30
0.0
 10
-45.43920172331127
 20
-42.48962283888653
 30
0.0
  0
LINE
  5
B3
330
1F
100
AcDbEntity
  8
0
  6
Continuous
 62
     7
370
    25
100
AcDbLine
 10
-45.4392017233
 20
-42.4896228389
 30
0.0
 11
-45.4568012549
 21
-42.5191699915
 31
0.0
  0
SPLINE
  5
B4
330
1F
100
AcDbEntity
  8
0
  6
Continuous
 62
     7
370
    25
100
AcDbSpline
210
0.0
220
0.0
230
1.0
 70
     8
 71
     3
 72
    14
 73
    10
 74
     0
 42
0.000000001
 43
0.00000001
 40
0.0
 40
0.0
 40
0.0
 40
0.0
 40
0.1491727089896281
 40
0.2332891805152238
 40
0.3237590634114546
 40
0.4205823576877865
 40
0.5237590633519522
 40
0.6332891804103242
 40
0.6859737861529479
 40
0.6859737861529479
 40
0.6859737861529479
 40
0.6859737861529479
 10
-45.45680125488975
 20
-42.51916999151589
 30
0.0
 10
-45.6105494382912
 20
-42.76548772050345
 30
0.0
 10
-45.84065898342219
 20
-43.15709700858678
 30
0.0
 10
-46.14034100518839
 20
-43.71151153360574
 30
0.0
 10
-46.37995978302377
 20
-44.18237186732745
 30
0.0
 10
-46.62382757238195
 20
-44.69250482857895
 30
0.0
 10
-46.87013066871475
 20
-45.24239227280562
 30
0.0
 10
-47.06954797783349
 20
-45.71896080067992
 30
0.0
 10
-47.18620830196058
 20
-46.01236541882368
 30
0.0
 10
-47.22355714967954
 20
-46.10786972016071
 30
0.0
  0
ARC
  5
B5
330
1F
100
AcDbEntity
  8
0
  6
Continuous
 62
     7
370
    25
100
AcDbCircle
 10
0.0
 20
0.0
 30
0.0
 40
66.0
100
AcDbArc
 50
224.3151166925
 51
225.6848833075
  0
SPLINE
  5
B6
330
1F
100
AcDbEntity
  8
0
  6
Continuous
 62
     7
370
    25
100
AcDbSpline
210
0.0
220
0.0
230
1.0
 70
     8
 71
     3
 72
    14
 73
    10
 74
     0
 42
0.000000001
 43
0.00000001
 40
0.3140262138470571
 40
0.3140262138470571
 40
0.3140262138470571
 40
0.3140262138470571
 40
0.3667108195896758
 40
0.4762409366480478
 40
0.5794176423122134
 40
0.6762409365885453
 40
0.7667108194847762
 40
0.8508272910103719
 40
1.0
 40
1.0
 40
1.0
 40
1.0
 10
-46.1078697201615
 20
-47.22355714967873
 30
0.0
 10
-46.01236541882447
 20
-47.18620830195978
 30
0.0
 10
-45.71896080068073
 20
-47.06954797783271
 30
0.0
 10
-45.24239227280641
 20
-46.87013066871398
 30
0.0
 10
-44.69250482857976
 20
-46.62382757238117
 30
0.0
 10
-44.18237186732825
 20
-46.37995978302303
 30
0.0
 10
-43.71151153360651
 20
-46.14034100518763
 30
0.0
 10
-43.15709700858758
 20
-45.84065898342147
 30
0.0
 10
-42.76548772050422
 20
-45.61054943829045
 30
0.0
 10
-42.51916999151667
 20
-45.45680125488902
 30
0.0
  0
LINE
  5
B7
330
1F
100
AcDbEntity
  8
0
  6
Continuous
 62
     7
370
    25
100
AcDbLine
 10
-42.5191699915
 20
-45.4568012549
 30
0.0
 11
-42.4896228389
 21
-45.4392017233
 31
0.0
  0
SPLINE
  5
B8
330
1F
100
AcDbEntity
  8
0
  6
Continuous
 62
     7
370
    25
100
AcDbSpline
210
0.0
220
0.0
230
1.0
 70
     8
 71
     3
 72
    15
 73
    11
 74
     0
 42
0.000000001
 43
0.00000001
 40
0.0
 40
0.0
 40
0.0
 40
0.0
 40
0.089398154854713
 40
0.153239276293117
 40
0.2229388537733802
 40
0.3017481308857564
 40
0.3942398025453073
 40
0.5064297554373132
 40
0.6447484245704628
 40
1.0
 40
1.0
 40
1.0
 40
1.0
 10
-42.48962283888731
 20
-45.43920172331053
 30
0.0
 10
-42.45971409853206
 20
-45.42068515469447
 30
0.0
 10
-42.40674937156117
 20
-45.39176707951641
 30
0.0
 10
-42.32728576675718
 20
-45.3545424573835
 30
0.0
 10
-42.24933437566564
 20
-45.32428003871708
 30
0.0
 10
-42.15831569849762
 20
-45.29726946927163
 30
0.0
 10
-42.04843108712097
 20
-45.27676451601903
 30
0.0
 10
-41.91315917645368
 20
-45.26988385250316
 30
0.0
 10
-41.6751062491584
 20
-45.29899511133652
 30
0.0
 10
-41.49596123335359
 20
-45.39040432500475
 30
0.0
 10
-41.39243679530856
 20
-45.48534023338053
 30
0.0
  0
ARC
  5
B9
330
1F
100
AcDbEntity
  8
0
  6
Continuous
 62
     7
370
    25
100
AcDbCircle
 10
0.0
 20
0.0
 30
0.0
 40
61.50000000000001
100
AcDbArc
 50
227.6972701194
 51
227.9277298806
  0
SPLINE
  5
BA
330
1F
100
AcDbEntity
  8
0
  6
Continuous
 62
     7
370
    25
100
AcDbSpline
210
0.0
220
0.0
230
1.0
 70
     8
 71
     3
 72
    15
 73
    11
 74
     0
 42
0.000000001
 43
0.00000001
 40
0.0
 40
0.0
 40
0.0
 40
0.0
 40
0.3552515754295372
 40
0.4935702445626868
 40
0.6057601974546927
 40
0.6982518691142436
 40
0.7770611462266198
 40
0.846760723706883
 40
0.910601845145287
 40
1.0
 40
1.0
 40
1.0
 40
1.0
 10
-41.20914760180124
 20
-45.65146387502771
 30
0.0
 10
-41.10452166640151
 20
-45.74518446835386
 30
0.0
 10
-40.99599333092831
 20
-45.91450718221875
 30
0.0
 10
-40.94368898358256
 20
-46.14856041726035
 30
0.0
 10
-40.93727754897242
 20
-46.2838553796656
 30
0.0
 10
-40.94691318989717
 20
-46.39522070348436
 30
0.0
 10
-40.96487230561543
 20
-46.48844859961961
 30
0.0
 10
-40.98734843002489
 20
-46.56899086919389
 30
0.0
 10
-41.01660501012453
 20
-46.65172048603244
 30
0.0
 10
-41.04019238579048
 20
-46.70726464039903
 30
0.0
 10
-41.0556882228671
 20
-46.73884430309905
 30
0.0
  0
LINE
  5
BB
330
1F
100
AcDbEntity
  8
0
  6
Continuous
 62
     7
370
    25
100
AcDbLine
 10
-41.0556882229
 20
-46.7388443031
 30
0.0
 11
-41.0703068805
 21
-46.7699742339
 31
0.0
  0
SPLINE
  5
BC
330
1F
100
AcDbEntity
  8
0
  6
Continuous
 62
     7
370
    25
100
AcDbSpline
210
0.0
220
0.0
230
1.0
 70
     8
 71
     3
 72
    14
 73
    10
 74
     0
 42
0.000000001
 43
0.00000001
 40
0.0
 40
0.0
 40
0.0
 40
0.0
 40
0.1491727089896281
 40
0.2332891805152238
 40
0.3237590634114546
 40
0.4205823576877865
 40
0.5237590633519522
 40
0.6332891804103242
 40
0.6859737861529439
 40
0.6859737861529439
 40
0.6859737861529439
 40
0.6859737861529439
 10
-41.07030688048498
 20
-46.7699742338689
 30
0.0
 10
-41.19917136495186
 20
-47.03017583293379
 30
0.0
 10
-41.38978844718329
 20
-47.44245409483355
 30
0.0
 10
-41.63368529180372
 20
-48.02357293715934
 30
0.0
 10
-41.82599785632333
 20
-48.51565269704765
 30
0.0
 10
-42.01868958157017
 20
-49.04723245198859
 30
0.0
 10
-42.20990826638643
 20
-49.61861396302864
 30
0.0
 10
-42.36165344238214
 20
-50.11243399755383
 30
0.0
 10
-42.44899333353212
 20
-50.41586050362643
 30
0.0
 10
-42.4768012778346
 20
-50.51456575289655
 30
0.0
  0
ARC
  5
BD
330
1F
100
AcDbEntity
  8
0
  6
Continuous
 62
     7
370
    25
100
AcDbCircle
 10
0.0
 20
0.0
 30
0.0
 40
66.0
100
AcDbArc
 50
229.9401166925
 51
231.3098833075
  0
SPLINE
  5
BE
330
1F
100
AcDbEntity
  8
0
  6
Continuous
 62
     7
370
    25
100
AcDbSpline
210
0.0
220
0.0
230
1.0
 70
     8
 71
     3
 72
    14
 73
    10
 74
     0
 42
0.000000001
 43
0.00000001
 40
0.314026213847055
 40
0.314026213847055
 40
0.314026213847055
 40
0.314026213847055
 40
0.3667108195896758
 40
0.4762409366480478
 40
0.5794176423122134
 40
0.6762409365885453
 40
0.7667108194847762
 40
0.8508272910103719
 40
1.0
 40
1.0
 40
1.0
 40
1.0
 10
-41.2571296968951
 20
-51.51552435115008
 30
0.0
 10
-41.16574610212101
 20
-51.46899428983514
 30
0.0
 10
-40.88518901877012
 20
-51.32413703542531
 30
0.0
 10
-40.43046161298898
 20
-51.07896809088298
 30
0.0
 10
-39.90736395226265
 20
-50.77995261649428
 30
0.0
 10
-39.42359064398447
 20
-50.487257343148
 30
0.0
 10
-38.97848437884152
 20
-50.20264001181633
 30
0.0
 10
-38.45611348607916
 20
-49.85005891459688
 30
0.0
 10
-38.0889445833319
 20
-49.58267298727658
 30
0.0
 10
-37.85888289880278
 20
-49.40552178399405
 30
0.0
  0
LINE
  5
BF
330
1F
100
AcDbEntity
  8
0
  6
Continuous
 62
     7
370
    25
100
AcDbLine
 10
-37.8588828988
 20
-49.405521784
 30
0.0
 11
-37.8312030795
 21
-49.3851108716
 31
0.0
  0
SPLINE
  5
C0
330
1F
100
AcDbEntity
  8
0
  6
Continuous
 62
     7
370
    25
100
AcDbSpline
210
0.0
220
0.0
230
1.0
 70
     8
 71
     3
 72
    15
 73
    11
 74
     0
 42
0.000000001
 43
0.00000001
 40
0.0
 40
0.0
 40
0.0
 40
0.0
 40
0.089398154854713
 40
0.153239276293117
 40
0.2229388537733802
 40
0.3017481308857564
 40
0.3942398025453073
 40
0.5064297554373132
 40
0.6447484245704628
 40
1.0
 40
1.0
 40
1.0
 40
1.0
 10
-37.83120307954587
 20
-49.38511087156495
 30
0.0
 10
-37.80325329905477
 20
-49.36375189608737
 30
0.0
 10
-37.75337807875376
 20
-49.32978161826939
 30
0.0
 10
-37.67794576393784
 20
-49.2849474475634
 30
0.0
 10
-37.60333596583782
 20
-49.24719017827493
 30
0.0
 10
-37.51540306725402
 20
-49.21138828165151
 30
0.0
 10
-37.40805741719608
 20
-49.18021148998002
 30
0.0
 10
-37.27411130071363
 20
-49.16010499288913
 30
0.0
 10
-37.03435126098751
 20
-49.16574280587374
 30
0.0
 10
-36.84710920767558
 20
-49.23915257703999
 30
0.0
 10
-36.73477792184226
 20
-49.32348417369693
 30
0.0
  0
ARC
  5
C1
330
1F
100
AcDbEntity
  8
0
  6
Continuous
 62
     7
370
    25
100
AcDbCircle
 10
0.0
 20
0.0
 30
0.0
 40
61.50000000000001
100
AcDbArc
 50
233.3222701194
 51
233.5527298806
  0
SPLINE
  5
C2
330
1F
100
AcDbEntity
  8
0
  6
Continuous
 62
     7
370
    25
100
AcDbSpline
210
0.0
220
0.0
230
1.0
 70
     8
 71
     3
 72
    15
 73
    11
 74
     0
 42
0.000000001
 43
0.00000001
 40
0.0
 40
0.0
 40
0.0
 40
0.0
 40
0.3552515754295372
 40
0.4935702445626868
 40
0.6057601974546927
 40
0.6982518691142436
 40
0.7770611462266198
 40
0.846760723706883
 40
0.910601845145287
 40
1.0
 40
1.0
 40
1.0
 40
1.0
 10
-36.53608835160433
 20
-49.47084240200245
 30
0.0
 10
-36.4227799941329
 20
-49.55385657006311
 30
0.0
 10
-36.29817772405294
 20
-49.71172631169232
 30
0.0
 10
-36.22318400765224
 20
-49.93952579388031
 30
0.0
 10
-36.20354222053621
 20
-50.07354084357582
 30
0.0
 10
-36.20221575264363
 20
-50.18531437088983
 30
0.0
 10
-36.21095045853286
 20
-50.27985365038897
 30
0.0
 10
-36.22542383132062
 20
-50.36221113236111
 30
0.0
 10
-36.24643061252737
 20
-50.44741002979946
 30
0.0
 10
-36.26446012935936
 20
-50.50499869099167
 30
0.0
 10
-36.27678600151459
 20
-50.53794514662146
 30
0.0
  0
LINE
  5
C3
330
1F
100
AcDbEntity
  8
0
  6
Continuous
 62
     7
370
    25
100
AcDbLine
 10
-36.2767860015
 20
-50.5379451466
 30
0.0
 11
-36.2882829995
 21
-50.5703580573
 31
0.0
  0
SPLINE
  5
C4
330
1F
100
AcDbEntity
  8
0
  6
Continuous
 62
     7
370
    25
100
AcDbSpline
210
0.0
220
0.0
230
1.0
 70
     8
 71
     3
 72
    14
 73
    10
 74
     0
 42
0.000000001
 43
0.00000001
 40
0.0
 40
0.0
 40
0.0
 40
0.0
 40
0.1491727089896281
 40
0.2332891805152238
 40
0.3237590634114546
 40
0.4205823576877865
 40
0.5237590633519522
 40
0.6332891804103242
 40
0.6859737861529426
 40
0.6859737861529426
 40
0.6859737861529426
 40
0.6859737861529426
 10
-36.28828299950763
 20
-50.57035805728114
 30
0.0
 10
-36.39102274961004
 20
-50.84193764278368
 30
0.0
 10
-36.54031162223811
 20
-51.27091441346359
 30
0.0
 10
-36.72607442977151
 20
-51.87314108097274
 30
0.0
 10
-36.86922870585028
 20
-52.38170126994175
 30
0.0
 10
-37.00888864033566
 20
-52.92960841494099
 30
0.0
 10
-37.14318137316981
 20
-53.51698127649419
 30
0.0
 10
-37.24579302704532
 20
-54.0232970607883
 30
0.0
 10
-37.30297135432156
 20
-54.33382329166648
 30
0.0
 10
-37.32097058950256
 20
-54.43477890336145
 30
0.0
  0
ARC
  5
C5
330
1F
100
AcDbEntity
  8
0
  6
Continuous
 62
     7
370
    25
100
AcDbCircle
 10
0.0
 20
0.0
 30
0.0
 40
66.0
100
AcDbArc
 50
235.5651166925
 51
236.9348833075
  0
SPLINE
  5
C6
330
1F
100
AcDbEntity
  8
0
  6
Continuous
 62
     7
370
    25
100
AcDbSpline
210
0.0
220
0.0
230
1.0
 70
     8
 71
     3
 72
    14
 73
    10
 74
     0
 42
0.000000001
 43
0.00000001
 40
0.3140262138470582
 40
0.3140262138470582
 40
0.3140262138470582
 40
0.3140262138470582
 40
0.3667108195896758
 40
0.4762409366480478
 40
0.5794176423122134
 40
0.6762409365885453
 40
0.7667108194847762
 40
0.8508272910103719
 40
1.0
 40
1.0
 40
1.0
 40
1.0
 10
-36.00906096120634
 20
-55.31136889186965
 30
0.0
 10
-35.92267814696822
 20
-55.25610572688511
 30
0.0
 10
-35.65767051649097
 20
-55.08444659673952
 30
0.0
 10
-35.22916350629997
 20
-54.79588712773251
 30
0.0
 10
-34.73789334550103
 20
-54.44703895776475
 30
0.0
 10
-34.2851386916123
 20
-54.1083350159162
 30
0.0
 10
-33.87007311170128
 20
-53.78146015157664
 30
0.0
 10
-33.38477656844978
 20
-53.37937552761055
 30
0.0
 10
-33.04558408828701
 20
-53.07728829074907
 30
0.0
 10
-32.83399406800285
 20
-52.87844013051375
 30
0.0
  0
LINE
  5
C7
330
1F
100
AcDbEntity
  8
0
  6
Continuous
 62
     7
370
    25
100
AcDbLine
 10
-32.833994068
 20
-52.8784401305
 30
0.0
 11
-32.8084481539
 21
-52.8554144055
 31
0.0
  0
SPLINE
  5
C8
330
1F
100
AcDbEntity
  8
0
  6
Continuous
 62
     7
370
    25
100
AcDbSpline
210
0.0
220
0.0
230
1.0
 70
     8
 71
     3
 72
    15
 73
    11
 74
     0
 42
0.000000001
 43
0.00000001
 40
0.0
 40
0.0
 40
0.0
 40
0.0
 40
0.089398154854713
 40
0.153239276293117
 40
0.2229388537733802
 40
0.3017481308857564
 40
0.3942398025453073
 40
0.5064297554373132
 40
0.6447484245704628
 40
1.0
 40
1.0
 40
1.0
 40
1.0
 10
-32.80844815390913
 20
-52.85541440547846
 30
0.0
 10
-32.78272650494724
 20
-52.83141872174924
 30
0.0
 10
-32.73642111695219
 20
-52.79272339363676
 30
0.0
 10
-32.6657465465515
 20
-52.74071145193045
 30
0.0
 10
-32.59519687458457
 20
-52.69582295516339
 30
0.0
 10
-32.51119659646736
 20
-52.65157452319779
 30
0.0
 10
-32.40742370501929
 20
-52.61002614265418
 30
0.0
 10
-32.27609335704579
 20
-52.57688744854659
 30
0.0
 10
-32.03693522513758
 20
-52.55899752046145
 30
0.0
 10
-31.84339937764884
 20
-52.61370087289953
 30
0.0
 10
-31.72334305571633
 20
-52.68661599846147
 30
0.0
  0
ARC
  5
C9
330
1F
100
AcDbEntity
  8
0
  6
Continuous
 62
     7
370
    25
100
AcDbCircle
 10
0.0
 20
0.0
 30
0.0
 40
61.50000000000001
100
AcDbArc
 50
238.9472701194
 51
239.1777298806
  0
SPLINE
  5
CA
330
1F
100
AcDbEntity
  8
0
  6
Continuous
 62
     7
370
    25
100
AcDbSpline
210
0.0
220
0.0
230
1.0
 70
     8
 71
     3
 72
    15
 73
    11
 74
     0
 42
0.000000001
 43
0.00000001
 40
0.0
 40
0.0
 40
0.0
 40
0.0
 40
0.3552515754295372
 40
0.4935702445626868
 40
0.6057601974546927
 40
0.6982518691142436
 40
0.7770611462266198
 40
0.846760723706883
 40
0.910601845145287
 40
1.0
 40
1.0
 40
1.0
 40
1.0
 10
-31.51116659792391
 20
-52.81378967313258
 30
0.0
 10
-31.39026703980389
 20
-52.88529794410915
 30
0.0
 10
-31.25079082309257
 20
-53.03019434159042
 30
0.0
 10
-31.15382996812157
 20
-53.24954623738346
 30
0.0
 10
-31.12114698964688
 20
-53.38099073618056
 30
0.0
 10
-31.1088711875479
 20
-53.49209602682018
 30
0.0
 10
-31.10829736361551
 20
-53.58703622474118
 30
0.0
 10
-31.11462859828967
 20
-53.67041577153863
 30
0.0
 10
-31.12718327381703
 20
-53.75726343762
 30
0.0
 10
-31.13948129771204
 20
-53.81634199534939
 30
0.0
 10
-31.148518500059
 20
-53.85033795153086
 30
0.0
  0
LINE
  5
CB
330
1F
100
AcDbEntity
  8
0
  6
Continuous
 62
     7
370
    25
100
AcDbLine
 10
-31.1485185001
 20
-53.8503379515
 30
0.0
 11
-31.1567831161
 21
-53.883721688
 31
0.0
  0
SPLINE
  5
CC
330
1F
100
AcDbEntity
  8
0
  6
Continuous
 62
     7
370
    25
100
AcDbSpline
210
0.0
220
0.0
230
1.0
 70
     8
 71
     3
 72
    14
 73
    10
 74
     0
 42
0.000000001
 43
0.00000001
 40
0.0
 40
0.0
 40
0.0
 40
0.0
 40
0.1491727089896281
 40
0.2332891805152238
 40
0.3237590634114546
 40
0.4205823576877865
 40
0.5237590633519522
 40
0.6332891804103242
 40
0.6859737861529444
 40
0.6859737861529444
 40
0.6859737861529444
 40
0.6859737861529444
 10
-31.15678311605165
 20
-53.88372168803201
 30
0.0
 10
-31.23240869183284
 20
-54.16406380010331
 30
0.0
 10
-31.33893162140455
 20
-54.60560779875915
 30
0.0
 10
-31.46477139446609
 20
-55.22314251943296
 30
0.0
 10
-31.55738872816929
 20
-55.74328542485565
 30
0.0
 10
-31.64267187037821
 20
-56.30224331459033
 30
0.0
 10
-31.7187453388012
 20
-56.89995080490926
 30
0.0
 10
-31.77123526423646
 20
-57.41388624118919
 30
0.0
 10
-31.79770136909044
 20
-57.72852165951868
 30
0.0
 10
-31.80571855267579
 20
-57.83075537590992
 30
0.0
  0
ARC
  5
CD
330
1F
100
AcDbEntity
  8
0
  6
Continuous
 62
     7
370
    25
100
AcDbCircle
 10
0.0
 20
0.0
 30
0.0
 40
66.0
100
AcDbArc
 50
241.1901166925
 51
242.5598833075
  0
SPLINE
  5
CE
330
1F
100
AcDbEntity
  8
0
  6
Continuous
 62
     7
370
    25
100
AcDbSpline
210
0.0
220
0.0
230
1.0
 70
     8
 71
     3
 72
    14
 73
    10
 74
     0
 42
0.000000001
 43
0.00000001
 40
0.3140262138470566
 40
0.3140262138470566
 40
0.3140262138470566
 40
0.3140262138470566
 40
0.3667108195896758
 40
0.4762409366480478
 40
0.5794176423122134
 40
0.6762409365885453
 40
0.7667108194847762
 40
0.8508272910103719
 40
1.0
 40
1.0
 40
1.0
 40
1.0
 10
-30.41420528390609
 20
-58.57453471389063
 30
0.0
 10
-30.3336551639267
 20
-58.51107065972521
 30
0.0
 10
-30.08674915467248
 20
-58.31426282510559
 30
0.0
 10
-29.6885892968255
 20
-57.98509181706307
 30
0.0
 10
-29.23387783615805
 20
-57.58977055009286
 30
0.0
 10
-28.81650211147657
 20
-57.20831984385644
 30
0.0
 10
-28.43547452522997
 20
-56.84233543014055
 30
0.0
 10
-27.9919260024909
 20
-56.39461957415843
 30
0.0
 10
-27.68397655391808
 20
-56.06074029298444
 30
0.0
 10
-27.49289592544109
 20
-55.84211019228086
 30
0.0
  0
LINE
  5
CF
330
1F
100
AcDbEntity
  8
0
  6
Continuous
 62
     7
370
    25
100
AcDbLine
 10
-27.4928959254
 20
-55.8421101923
 30
0.0
 11
-27.4697299376
 21
-55.816691405
 31
0.0
  0
SPLINE
  5
D0
330
1F
100
AcDbEntity
  8
0
  6
Continuous
 62
     7
370
    25
100
AcDbSpline
210
0.0
220
0.0
230
1.0
 70
     8
 71
     3
 72
    15
 73
    11
 74
     0
 42
0.000000001
 43
0.00000001
 40
0.0
 40
0.0
 40
0.0
 40
0.0
 40
0.089398154854713
 40
0.153239276293117
 40
0.2229388537733802
 40
0.3017481308857564
 40
0.3942398025453073
 40
0.5064297554373132
 40
0.6447484245704628
 40
1.0
 40
1.0
 40
1.0
 40
1.0
 10
-27.46972993762811
 20
-55.81669140495861
 30
0.0
 10
-27.4464841337358
 20
-55.79029010452943
 30
0.0
 10
-27.40419452424619
 20
-55.74724238328519
 30
0.0
 10
-27.33895833300834
 20
-55.68855357400982
 30
0.0
 10
-27.27314821908192
 20
-55.63696615052657
 30
0.0
 10
-27.1938895300288
 20
-55.58469731980728
 30
0.0
 10
-27.09468878686327
 20
-55.53317748400884
 30
0.0
 10
-26.96723899044218
 20
-55.48732573662425
 30
0.0
 10
-26.73098598989929
 20
-55.44608035725646
 30
0.0
 10
-26.53302020424251
 20
-55.4815504677785
 30
0.0
 10
-26.40639505422049
 20
-55.54234690972682
 30
0.0
  0
ARC
  5
D1
330
1F
100
AcDbEntity
  8
0
  6
Continuous
 62
     7
370
    25
100
AcDbCircle
 10
0.0
 20
0.0
 30
0.0
 40
61.50000000000001
100
AcDbArc
 50
244.5722701194
 51
244.8027298806
  0
SPLINE
  5
D2
330
1F
100
AcDbEntity
  8
0
  6
Continuous
 62
     7
370
    25
100
AcDbSpline
210
0.0
220
0.0
230
1.0
 70
     8
 71
     3
 72
    15
 73
    11
 74
     0
 42
0.000000001
 43
0.00000001
 40
0.0
 40
0.0
 40
0.0
 40
0.0
 40
0.3552515754295372
 40
0.4935702445626868
 40
0.6057601974546927
 40
0.6982518691142436
 40
0.7770611462266198
 40
0.846760723706883
 40
0.910601845145287
 40
1.0
 40
1.0
 40
1.0
 40
1.0
 10
-26.18277508414963
 20
-55.64811127875621
 30
0.0
 10
-26.05544865421613
 20
-55.70742498890879
 30
0.0
 10
-25.90244172308583
 20
-55.83795261072595
 30
0.0
 10
-25.78444751558212
 20
-56.04674444145761
 30
0.0
 10
-25.7390381006978
 20
-56.17435250697803
 30
0.0
 10
-25.71593118707726
 20
-56.28371955625806
 30
0.0
 10
-25.70605435956141
 20
-56.37814634659537
 30
0.0
 10
-25.70418248287105
 20
-56.46174496760256
 30
0.0
 10
-25.70816414433062
 20
-56.54940501182682
 30
0.0
 10
-25.71461223859575
 20
-56.60940450728683
 30
0.0
 10
-25.72027373793562
 20
-56.64412256437787
 30
0.0
  0
LINE
  5
D3
330
1F
100
AcDbEntity
  8
0
  6
Continuous
 62
     7
370
    25
100
AcDbLine
 10
-25.7202737379
 20
-56.6441225644
 30
0.0
 11
-25.7252263792
 21
-56.6781556231
 31
0.0
  0
SPLINE
  5
D4
330
1F
100
AcDbEntity
  8
0
  6
Continuous
 62
     7
370
    25
100
AcDbSpline
210
0.0
220
0.0
230
1.0
 70
     8
 71
     3
 72
    14
 73
    10
 74
     0
 42
0.000000001
 43
0.00000001
 40
0.0
 40
0.0
 40
0.0
 40
0.0
 40
0.1491727089896281
 40
0.2332891805152238
 40
0.3237590634114546
 40
0.4205823576877865
 40
0.5237590633519522
 40
0.6332891804103242
 40
0.6859737861529456
 40
0.6859737861529456
 40
0.6859737861529456
 40
0.6859737861529456
 10
-25.72522637915795
 20
-56.67815562308858
 30
0.0
 10
-25.773009464982
 20
-56.96456041393883
 30
0.0
 10
-25.83574057745423
 20
-57.41441933049101
 30
0.0
 10
-25.90044541023831
 20
-58.04131490739061
 30
0.0
 10
-25.94163384601259
 20
-58.56803126874868
 30
0.0
 10
-25.97171887266509
 20
-59.1326568331832
 30
0.0
 10
-25.98884044759
 20
-59.73494270239595
 30
0.0
 10
-25.99070313790915
 20
-60.25154831146462
 30
0.0
 10
-25.98620213728328
 20
-60.56726280616969
 30
0.0
 10
-25.98416005941242
 20
-60.66979006068174
 30
0.0
  0
ARC
  5
D5
330
1F
100
AcDbEntity
  8
0
  6
Continuous
 62
     7
370
    25
100
AcDbCircle
 10
0.0
 20
0.0
 30
0.0
 40
66.0
100
AcDbArc
 50
246.8151166925
 51
248.1848833075
  0
SPLINE
  5
D6
330
1F
100
AcDbEntity
  8
0
  6
Continuous
 62
     7
370
    25
100
AcDbSpline
210
0.0
220
0.0
230
1.0
 70
     8
 71
     3
 72
    14
 73
    10
 74
     0
 42
0.000000001
 43
0.00000001
 40
0.3140262138470559
 40
0.3140262138470559
 40
0.3140262138470559
 40
0.3140262138470559
 40
0.3667108195896758
 40
0.4762409366480478
 40
0.5794176423122134
 40
0.6762409365885453
 40
0.7667108194847762
 40
0.8508272910103719
 40
1.0
 40
1.0
 40
1.0
 40
1.0
 10
-24.52644418362604
 20
-61.27359574651904
 30
0.0
 10
-24.45250249959394
 20
-61.20254199670734
 30
0.0
 10
-24.22607595140442
 20
-60.98248082464718
 30
0.0
 10
-23.86209774298887
 20
-60.6158683743198
 30
0.0
 10
-23.4483241023897
 20
-60.17788117025263
 30
0.0
 10
-23.07034686330493
 20
-59.75735727845156
 30
0.0
 10
-22.72702677466916
 20
-59.35578794533087
 30
0.0
 10
-22.32949788718479
 20
-58.86675260577221
 30
0.0
 10
-22.05575719173396
 20
-58.50429672028039
 30
0.0
 10
-21.88702616597165
 20
-58.26799020649369
 30
0.0
  0
LINE
  5
D7
330
1F
100
AcDbEntity
  8
0
  6
Continuous
 62
     7
370
    25
100
AcDbLine
 10
-21.887026166
 20
-58.2679902065
 30
0.0
 11
-21.8664632056
 21
-58.2404231537
 31
0.0
  0
SPLINE
  5
D8
330
1F
100
AcDbEntity
  8
0
  6
Continuous
 62
     7
370
    25
100
AcDbSpline
210
0.0
220
0.0
230
1.0
 70
     8
 71
     3
 72
    15
 73
    11
 74
     0
 42
0.000000001
 43
0.00000001
 40
0.0
 40
0.0
 40
0.0
 40
0.0
 40
0.089398154854713
 40
0.153239276293117
 40
0.2229388537733802
 40
0.3017481308857564
 40
0.3942398025453073
 40
0.5064297554373132
 40
0.6447484245704628
 40
1.0
 40
1.0
 40
1.0
 40
1.0
 10
-21.86646320556587
 20
-58.24042315370173
 30
0.0
 10
-21.84591711654208
 20
-58.21187049552813
 30
0.0
 10
-21.80805055761516
 20
-58.16488495424
 30
0.0
 10
-21.7488810057235
 20
-58.10008448271144
 30
0.0
 10
-21.68844423721018
 20
-58.04229494760071
 30
0.0
 10
-21.61469044172392
 20
-57.98250909554061
 30
0.0
 10
-21.52101720422627
 20
-57.92151396866969
 30
0.0
 10
-21.39867537056827
 20
-57.86339074540054
 30
0.0
 10
-21.16760274693495
 20
-57.79918713030041
 30
0.0
 10
-20.96711354184511
 20
-57.81508240235214
 30
0.0
 10
-20.83513903314863
 20
-57.86317465771617
 30
0.0
  0
ARC
  5
D9
330
1F
100
AcDbEntity
  8
0
  6
Continuous
 62
     7
370
    25
100
AcDbCircle
 10
0.0
 20
0.0
 30
0.0
 40
61.50000000000001
100
AcDbArc
 50
250.1972701194
 51
250.4277298806
  0
SPLINE
  5
DA
330
1F
100
AcDbEntity
  8
0
  6
Continuous
 62
     7
370
    25
100
AcDbSpline
210
0.0
220
0.0
230
1.0
 70
     8
 71
     3
 72
    15
 73
    11
 74
     0
 42
0.000000001
 43
0.00000001
 40
0.0
 40
0.0
 40
0.0
 40
0.0
 40
0.3552515754295372
 40
0.4935702445626868
 40
0.6057601974546927
 40
0.6982518691142436
 40
0.7770611462266198
 40
0.846760723706883
 40
0.910601845145287
 40
1.0
 40
1.0
 40
1.0
 40
1.0
 10
-20.6022291333542
 20
-57.94651115241341
 30
0.0
 10
-20.46970205473118
 20
-57.99305907828908
 30
0.0
 10
-20.30463794957079
 20
-58.10796087209037
 30
0.0
 10
-20.16674673825482
 20
-58.30418185829347
 30
0.0
 10
-20.10904820444952
 20
-58.42672455510858
 30
0.0
 10
-20.07533271151712
 20
-58.53330009855834
 30
0.0
 10
-20.05624799966601
 20
-58.62630409970208
 30
0.0
 10
-20.04619103880692
 20
-58.70931669449904
 30
0.0
 10
-20.04156134062224
 20
-58.79694490272048
 30
0.0
 10
-20.04209740658484
 20
-58.85728750797075
 30
0.0
 10
-20.04432867958408
 20
-58.89239331210275
 30
0.0
  0
LINE
  5
DB
330
1F
100
AcDbEntity
  8
0
  6
Continuous
 62
     7
370
    25
100
AcDbLine
 10
-20.0443286796
 20
-58.8923933121
 30
0.0
 11
-20.0459216494
 21
-58.9267479361
 31
0.0
  0
SPLINE
  5
DC
330
1F
100
AcDbEntity
  8
0
  6
Continuous
 62
     7
370
    25
100
AcDbSpline
210
0.0
220
0.0
230
1.0
 70
     8
 71
     3
 72
    14
 73
    10
 74
     0
 42
0.000000001
 43
0.00000001
 40
0.0
 40
0.0
 40
0.0
 40
0.0
 40
0.1491727089896281
 40
0.2332891805152238
 40
0.3237590634114546
 40
0.4205823576877865
 40
0.5237590633519522
 40
0.6332891804103242
 40
0.6859737861529456
 40
0.6859737861529456
 40
0.6859737861529456
 40
0.6859737861529456
 10
-20.04592164939373
 20
-58.92674793606329
 30
0.0
 10
-20.06540206802327
 20
-59.2164571709918
 30
0.0
 10
-20.08373722849058
 20
-59.67029861815606
 30
0.0
 10
-20.08668397808623
 20
-60.30051770417988
 30
0.0
 10
-20.07604684877921
 20
-60.82873495498104
 30
0.0
 10
-20.05064402462246
 20
-61.39359054127415
 30
0.0
 10
-20.00864881592317
 20
-61.99465444721724
 30
0.0
 10
-19.95986633240019
 20
-62.50895503465397
 30
0.0
 10
-19.924441573391
 20
-62.82270810256353
 30
0.0
 10
-19.91235990039014
 20
-62.92454150168832
 30
0.0
  0
ARC
  5
DD
330
1F
100
AcDbEntity
  8
0
  6
Continuous
 62
     7
370
    25
100
AcDbCircle
 10
0.0
 20
0.0
 30
0.0
 40
66.0
100
AcDbArc
 50
252.4401166925
 51
253.8098833075
  0
SPLINE
  5
DE
330
1F
100
AcDbEntity
  8
0
  6
Continuous
 62
     7
370
    25
100
AcDbSpline
210
0.0
220
0.0
230
1.0
 70
     8
 71
     3
 72
    14
 73
    10
 74
     0
 42
0.000000001
 43
0.00000001
 40
0.3140262138470562
 40
0.3140262138470562
 40
0.3140262138470562
 40
0.3140262138470562
 40
0.3667108195896758
 40
0.4762409366480478
 40
0.5794176423122134
 40
0.6762409365885453
 40
0.7667108194847762
 40
0.8508272910103719
 40
1.0
 40
1.0
 40
1.0
 40
1.0
 10
-18.40248001833943
 20
-63.38255855655385
 30
0.0
 10
-18.3358588690925
 20
-63.30459939754849
 30
0.0
 10
-18.1320923934041
 20
-63.06340419743239
 30
0.0
 10
-17.80580114353774
 20
-62.66288098312754
 30
0.0
 10
-17.4369501893575
 20
-62.18644589816676
 30
0.0
 10
-17.1020115633052
 20
-61.73089869576084
 30
0.0
 10
-16.79970533241168
 20
-61.29761177543341
 30
0.0
 10
-16.45202450067989
 20
-60.77196662995208
 30
0.0
 10
-16.21512883089012
 20
-60.38442478845825
 30
0.0
 10
-16.07037237985836
 20
-60.13271762249448
 30
0.0
  0
LINE
  5
DF
330
1F
100
AcDbEntity
  8
0
  6
Continuous
 62
     7
370
    25
100
AcDbLine
 10
-16.0703723799
 20
-60.1327176225
 30
0.0
 11
-16.0526104794
 21
-60.10326779
 31
0.0
  0
SPLINE
  5
E0
330
1F
100
AcDbEntity
  8
0
  6
Continuous
 62
     7
370
    25
100
AcDbSpline
210
0.0
220
0.0
230
1.0
 70
     8
 71
     3
 72
    15
 73
    11
 74
     0
 42
0.000000001
 43
0.00000001
 40
0.0
 40
0.0
 40
0.0
 40
0.0
 40
0.089398154854713
 40
0.153239276293117
 40
0.2229388537733802
 40
0.3017481308857564
 40
0.3942398025453073
 40
0.5064297554373132
 40
0.6447484245704628
 40
1.0
 40
1.0
 40
1.0
 40
1.0
 10
-16.05261047940935
 20
-60.10326779002086
 30
0.0
 10
-16.034961975323
 20
-60.07283875180954
 30
0.0
 10
-16.00188314262119
 20
-60.02236788692503
 30
0.0
 10
-15.94935006520582
 20
-59.95207981710765
 30
0.0
 10
-15.89486868122446
 20
-59.88864471518353
 30
0.0
 10
-15.82733006867353
 20
-59.8219176122202
 30
0.0
 10
-15.74008646132786
 20
-59.75203461069191
 30
0.0
 10
-15.62403080916993
 20
-59.68219966995166
 30
0.0
 10
-15.4003639181289
 20
-59.59565613502989
 30
0.0
 10
-15.19928211424958
 20
-59.59182348845223
 30
0.0
 10
-15.06322923354199
 20
-59.6267484025229
 30
0.0
  0
ARC
  5
E1
330
1F
100
AcDbEntity
  8
0
  6
Continuous
 62
     7
370
    25
100
AcDbCircle
 10
0.0
 20
0.0
 30
0.0
 40
61.50000000000001
100
AcDbArc
 50
255.8222701194
 51
256.0527298806
  0
SPLINE
  5
E2
330
1F
100
AcDbEntity
  8
0
  6
Continuous
 62
     7
370
    25
100
AcDbSpline
210
0.0
220
0.0
230
1.0
 70
     8
 71
     3
 72
    15
 73
    11
 74
     0
 42
0.000000001
 43
0.00000001
 40
0.0
 40
0.0
 40
0.0
 40
0.0
 40
0.3552515754295372
 40
0.4935702445626868
 40
0.6057601974546927
 40
0.6982518691142436
 40
0.7770611462266198
 40
0.846760723706883
 40
0.910601845145287
 40
1.0
 40
1.0
 40
1.0
 40
1.0
 10
-14.82327245368048
 20
-59.68685444688771
 30
0.0
 10
-14.68682103458177
 20
-59.72018830651458
 30
0.0
 10
-14.5112894129572
 20
-59.81835770521397
 30
0.0
 10
-14.35482916557294
 20
-60.00011813152609
 30
0.0
 10
-14.28539718126843
 20
-60.1164153064769
 30
0.0
 10
-14.24139780765187
 20
-60.21917296335285
 30
0.0
 10
-14.21328900767339
 20
-60.30985849593085
 30
0.0
 10
-14.19514381667635
 20
-60.39148560785041
 30
0.0
 10
-14.18194734537178
 20
-60.47823807252136
 30
0.0
 10
-14.17656622042359
 20
-60.53834265528673
 30
0.0
 10
-14.17534577870347
 20
-60.57349811837513
 30
0.0
  0
LINE
  5
E3
330
1F
100
AcDbEntity
  8
0
  6
Continuous
 62
     7
370
    25
100
AcDbLine
 10
-14.1753457787
 20
-60.5734981184
 30
0.0
 11
-14.1735637359
 21
-60.6078434538
 31
0.0
  0
SPLINE
  5
E4
330
1F
100
AcDbEntity
  8
0
  6
Continuous
 62
     7
370
    25
100
AcDbSpline
210
0.0
220
0.0
230
1.0
 70
     8
 71
     3
 72
    14
 73
    10
 74
     0
 42
0.000000001
 43
0.00000001
 40
0.0
 40
0.0
 40
0.0
 40
0.0
 40
0.1491727089896281
 40
0.2332891805152238
 40
0.3237590634114546
 40
0.4205823576877865
 40
0.5237590633519522
 40
0.6332891804103242
 40
0.6859737861529414
 40
0.6859737861529414
 40
0.6859737861529414
 40
0.6859737861529414
 10
-14.17356373593038
 20
-60.60784345377661
 30
0.0
 10
-14.16455388028492
 20
-60.89806707447983
 30
0.0
 10
-14.13831651112901
 20
-61.35152031102501
 30
0.0
 10
-14.07947679872676
 20
-61.97899355186184
 30
0.0
 10
-14.0171165457085
 20
-62.50362467122794
 30
0.0
 10
-13.93647051382574
 20
-63.06327041130219
 30
0.0
 10
-13.83576295831893
 20
-63.65732377998644
 30
0.0
 10
-13.73680510293736
 20
-64.16436634998891
 30
0.0
 10
-13.67079774533926
 20
-64.47313637754411
 30
0.0
 10
-13.6487928303239
 20
-64.57329520998026
 30
0.0
  0
ARC
  5
E5
330
1F
100
AcDbEntity
  8
0
  6
Continuous
 62
     7
370
    25
100
AcDbCircle
 10
0.0
 20
0.0
 30
0.0
 40
66.0
100
AcDbArc
 50
258.0651166925
 51
259.4348833075
  0
SPLINE
  5
E6
330
1F
100
AcDbEntity
  8
0
  6
Continuous
 62
     7
370
    25
100
AcDbSpline
210
0.0
220
0.0
230
1.0
 70
     8
 71
     3
 72
    14
 73
    10
 74
     0
 42
0.000000001
 43
0.00000001
 40
0.3140262138470559
 40
0.3140262138470559
 40
0.3140262138470559
 40
0.3140262138470559
 40
0.3667108195896758
 40
0.4762409366480478
 40
0.5794176423122134
 40
0.6762409365885453
 40
0.7667108194847762
 40
0.8508272910103719
 40
1.0
 40
1.0
 40
1.0
 40
1.0
 10
-12.10128991065733
 20
-64.88111267925807
 30
0.0
 10
-12.04263089428164
 20
-64.79699890037708
 30
0.0
 10
-11.86348687364531
 20
-64.5369925138329
 30
0.0
 10
-11.57802494543329
 20
-64.10641579305258
 30
0.0
 10
-11.25764891399517
 20
-63.59612115751227
 30
0.0
 10
-10.96897454304032
 20
-63.10993781308809
 30
0.0
 10
-10.71059354414995
 20
-62.6491060954554
 30
0.0
 10
-10.41610912464198
 20
-62.09191339414924
 30
0.0
 10
-10.2183399153137
 20
-61.68301783643892
 30
0.0
 10
-10.09895212276785
 20
-61.41833409590344
 30
0.0
  0
LINE
  5
E7
330
1F
100
AcDbEntity
  8
0
  6
Continuous
 62
     7
370
    25
100
AcDbLine
 10
-10.0989521228
 20
-61.4183340959
 30
0.0
 11
-10.0841623391
 21
-61.3872851017
 31
0.0
  0
SPLINE
  5
E8
330
1F
100
AcDbEntity
  8
0
  6
Continuous
 62
     7
370
    25
100
AcDbSpline
210
0.0
220
0.0
230
1.0
 70
     8
 71
     3
 72
    15
 73
    11
 74
     0
 42
0.000000001
 43
0.00000001
 40
0.0
 40
0.0
 40
0.0
 40
0.0
 40
0.089398154854713
 40
0.153239276293117
 40
0.2229388537733802
 40
0.3017481308857564
 40
0.3942398025453073
 40
0.5064297554373132
 40
0.6447484245704628
 40
1.0
 40
1.0
 40
1.0
 40
1.0
 10
-10.08416233908656
 20
-61.38728510173382
 30
0.0
 10
-10.06958138467968
 20
-61.35527273175695
 30
0.0
 10
-10.04160884544464
 20
-61.30180260529507
 30
0.0
 10
-9.996218164758547
 20
-61.22670384972458
 30
0.0
 10
-9.948216850819454
 20
-61.15823409569575
 30
0.0
 10
-9.887543854963077
 20
-61.0852083603075
 30
0.0
 10
-9.807570081400327
 20
-61.00711049562848
 30
0.0
 10
-9.698918290115214
 20
-60.92623638607212
 30
0.0
 10
-9.484811166095973
 20
-60.81818639287951
 30
0.0
 10
-9.285073291121016
 20
-60.79466273815412
 30
0.0
 10
-9.146252302017611
 20
-60.81608396491703
 30
0.0
  0
ARC
  5
E9
330
1F
100
AcDbEntity
  8
0
  6
Continuous
 62
     7
370
    25
100
AcDbCircle
 10
0.0
 20
0.0
 30
0.0
 40
61.50000000000001
100
AcDbArc
 50
261.4472701194
 51
261.6777298806
  0
SPLINE
  5
EA
330
1F
100
AcDbEntity
  8
0
  6
Continuous
 62
     7
370
    25
100
AcDbSpline
210
0.0
220
0.0
230
1.0
 70
     8
 71
     3
 72
    15
 73
    11
 74
     0
 42
0.000000001
 43
0.00000001
 40
0.0
 40
0.0
 40
0.0
 40
0.0
 40
0.3552515754295372
 40
0.4935702445626868
 40
0.6057601974546927
 40
0.6982518691142436
 40
0.7770611462266198
 40
0.846760723706883
 40
0.910601845145287
 40
1.0
 40
1.0
 40
1.0
 40
1.0
 10
-8.90155955705286
 20
-60.85238070488486
 30
0.0
 10
-8.762497899236305
 20
-60.87217947497259
 30
0.0
 10
-8.578189226619136
 20
-60.95267105359576
 30
0.0
 10
-8.40466674087877
 20
-61.11822046775115
 30
0.0
 10
-8.324169974039304
 20
-61.22715211546839
 30
0.0
 10
-8.270310457759008
 20
-61.32510227336178
 30
0.0
 10
-8.233448272762775
 20
-61.41259598612155
 30
0.0
 10
-8.207389599736265
 20
-61.49205150145399
 30
0.0
 10
-8.185753444544398
 20
-61.57709274891599
 30
0.0
 10
-8.174506951860277
 20
-61.63638046920791
 30
0.0
 10
-8.169846548941742
 20
-61.67124702492523
 30
0.0
  0
LINE
  5
EB
330
1F
100
AcDbEntity
  8
0
  6
Continuous
 62
     7
370
    25
100
AcDbLine
 10
-8.1698465489
 20
-61.6712470249
 30
0.0
 11
-8.1647066556
 21
-61.7052523074
 31
0.0
  0
SPLINE
  5
EC
330
1F
100
AcDbEntity
  8
0
  6
Continuous
 62
     7
370
    25
100
AcDbSpline
210
0.0
220
0.0
230
1.0
 70
     8
 71
     3
 72
    14
 73
    10
 74
     0
 42
0.000000001
 43
0.00000001
 40
0.0
 40
0.0
 40
0.0
 40
0.0
 40
0.1491727089896281
 40
0.2332891805152238
 40
0.3237590634114546
 40
0.4205823576877865
 40
0.5237590633519522
 40
0.6332891804103242
 40
0.6859737861529412
 40
0.6859737861529412
 40
0.6859737861529412
 40
0.6859737861529412
 10
-8.164706655631974
 20
-61.70525230741264
 30
0.0
 10
-8.127293295546671
 20
-61.99319530177084
 30
0.0
 10
-8.0567360769753
 20
-62.44189332514622
 30
0.0
 10
-7.936676561170648
 20
-63.06057781047508
 30
0.0
 10
-7.823193747767302
 20
-63.5765703139341
 30
0.0
 10
-7.688081173531159
 20
-64.12561651337906
 30
0.0
 10
-7.529631140028722
 20
-64.70693828612144
 30
0.0
 10
-7.381450931031752
 20
-65.20183974156286
 30
0.0
 10
-7.285496661781689
 20
-65.50265310460746
 30
0.0
 10
-7.253780424112545
 20
-65.60017278604623
 30
0.0
  0
ARC
  5
ED
330
1F
100
AcDbEntity
  8
0
  6
Continuous
 62
     7
370
    25
100
AcDbCircle
 10
0.0
 20
0.0
 30
0.0
 40
66.0
100
AcDbArc
 50
263.6901166925
 51
265.0598833075
  0
SPLINE
  5
EE
330
1F
100
AcDbEntity
  8
0
  6
Continuous
 62
     7
370
    25
100
AcDbSpline
210
0.0
220
0.0
230
1.0
 70
     8
 71
     3
 72
    14
 73
    10
 74
     0
 42
0.000000001
 43
0.00000001
 40
0.3140262138470578
 40
0.3140262138470578
 40
0.3140262138470578
 40
0.3140262138470578
 40
0.3667108195896758
 40
0.4762409366480478
 40
0.5794176423122134
 40
0.6762409365885453
 40
0.7667108194847762
 40
0.8508272910103719
 40
1.0
 40
1.0
 40
1.0
 40
1.0
 10
-5.683557765897646
 20
-65.75482621923705
 30
0.0
 10
-5.633425800787178
 20
-65.6653678821523
 30
0.0
 10
-5.480629490051739
 20
-65.3890543128164
 30
0.0
 10
-5.238746037912108
 20
-64.93257077475893
 30
0.0
 10
-4.969930325534219
 20
-64.39333100493478
 30
0.0
 10
-4.730300301674563
 20
-63.88119372987398
 30
0.0
 10
-4.518332885052079
 20
-63.39725527629309
 30
0.0
 10
-4.279880923709347
 20
-62.81388108946818
 30
0.0
 10
-4.123142800440032
 20
-62.38756970328718
 30
0.0
 10
-4.030273436086312
 20
-62.1124584372922
 30
0.0
  0
LINE
  5
EF
330
1F
100
AcDbEntity
  8
0
  6
Continuous
 62
     7
370
    25
100
AcDbLine
 10
-4.0302734361
 20
-62.1124584373
 30
0.0
 11
-4.0185982029
 21
-62.0801093002
 31
0.0
  0
SPLINE
  5
F0
330
1F
100
AcDbEntity
  8
0
  6
Continuous
 62
     7
370
    25
100
AcDbSpline
210
0.0
220
0.0
230
1.0
 70
     8
 71
     3
 72
    15
 73
    11
 74
     0
 42
0.000000001
 43
0.00000001
 40
0.0
 40
0.0
 40
0.0
 40
0.0
 40
0.089398154854713
 40
0.153239276293117
 40
0.2229388537733802
 40
0.3017481308857564
 40
0.3942398025453073
 40
0.5064297554373132
 40
0.6447484245704628
 40
1.0
 40
1.0
 40
1.0
 40
1.0
 10
-4.018598202874531
 20
-62.08010930021352
 30
0.0
 10
-4.007225220708799
 20
-62.04682189509372
 30
0.0
 10
-3.984628365784697
 20
-61.99086745360206
 30
0.0
 10
-3.946817218895976
 20
-61.91168125434776
 30
0.0
 10
-3.905758253892568
 20
-61.8388362493749
 30
0.0
 10
-3.852535188848075
 20
-61.76021515931343
 30
0.0
 10
-3.780601440225768
 20
-61.67465455661317
 30
0.0
 10
-3.680399885958664
 20
-61.58352014012601
 30
0.0
 10
-3.477914497608375
 20
-61.45500426916313
 30
0.0
 10
-3.281444136461617
 20
-61.41201615194437
 30
0.0
 10
-3.141191960974729
 20
-61.41972739327576
 30
0.0
  0
ARC
  5
F1
330
1F
100
AcDbEntity
  8
0
  6
Continuous
 62
     7
370
    25
100
AcDbCircle
 10
0.0
 20
0.0
 30
0.0
 40
61.50000000000001
100
AcDbArc
 50
267.0722701194
 51
267.3027298806
  0
SPLINE
  5
F2
330
1F
100
AcDbEntity
  8
0
  6
Continuous
 62
     7
370
    25
100
AcDbSpline
210
0.0
220
0.0
230
1.0
 70
     8
 71
     3
 72
    15
 73
    11
 74
     0
 42
0.000000001
 43
0.00000001
 40
0.0
 40
0.0
 40
0.0
 40
0.0
 40
0.3552515754295372
 40
0.4935702445626868
 40
0.6057601974546927
 40
0.6982518691142436
 40
0.7770611462266198
 40
0.846760723706883
 40
0.910601845145287
 40
1.0
 40
1.0
 40
1.0
 40
1.0
 10
-2.894119775802951
 20
-61.43186527139891
 30
0.0
 10
-2.753787119052157
 20
-61.43793827896845
 30
0.0
 10
-2.56247638871307
 20
-61.4999768596121
 30
0.0
 10
-2.373562781011318
 20
-61.64772093025391
 30
0.0
 10
-2.282776459505555
 20
-61.74823797942197
 30
0.0
 10
-2.219575497145913
 20
-61.84043732476727
 30
0.0
 10
-2.174314930124369
 20
-61.923896605426
 30
0.0
 10
-2.140593734334743
 20
-62.00041532412387
 30
0.0
 10
-2.110726263257603
 20
-62.08292636067557
 30
0.0
 10
-2.093722712710062
 20
-62.14082624533766
 30
0.0
 10
-2.085667230820843
 20
-62.17506810969235
 30
0.0
  0
LINE
  5
F3
330
1F
100
AcDbEntity
  8
0
  6
Continuous
 62
     7
370
    25
100
AcDbLine
 10
-2.0856672308
 20
-62.1750681097
 30
0.0
 11
-2.077218987
 21
-62.2084058498
 31
0.0
  0
SPLINE
  5
F4
330
1F
100
AcDbEntity
  8
0
  6
Continuous
 62
     7
370
    25
100
AcDbSpline
210
0.0
220
0.0
230
1.0
 70
     8
 71
     3
 72
    14
 73
    10
 74
     0
 42
0.000000001
 43
0.00000001
 40
0.0
 40
0.0
 40
0.0
 40
0.0
 40
0.1491727089896281
 40
0.2332891805152238
 40
0.3237590634114546
 40
0.4205823576877865
 40
0.5237590633519522
 40
0.6332891804103242
 40
0.6859737861529446
 40
0.6859737861529446
 40
0.6859737861529446
 40
0.6859737861529446
 10
-2.077218986956724
 20
-62.20840584980617
 30
0.0
 10
-2.01176243354142
 20
-62.49129516937803
 30
0.0
 10
-1.897564870139932
 20
-62.93091677233525
 30
0.0
 10
-1.717441789701279
 20
-63.53485423235505
 30
0.0
 10
-1.553929317441932
 20
-64.03723883002846
 30
0.0
 10
-1.365651408802346
 20
-64.57039787380431
 30
0.0
 10
-1.150984857744502
 20
-65.1333896041505
 30
0.0
 10
-0.9550093515483112
 20
-65.61138377347433
 30
0.0
 10
-0.8300322627131027
 20
-65.90134347488092
 30
0.0
 10
-0.7889101470967843
 20
-65.99528483748038
 30
0.0
  0
ARC
  5
F5
330
1F
100
AcDbEntity
  8
0
  6
Continuous
 62
     7
370
    25
100
AcDbCircle
 10
0.0
 20
0.0
 30
0.0
 40
66.0
100
AcDbArc
 50
269.3151166925
 51
270.6848833075
  0
SPLINE
  5
F6
330
1F
100
AcDbEntity
  8
0
  6
Continuous
 62
     7
370
    25
100
AcDbSpline
210
0.0
220
0.0
230
1.0
 70
     8
 71
     3
 72
    14
 73
    10
 74
     0
 42
0.000000001
 43
0.00000001
 40
0.3140262138470525
 40
0.3140262138470525
 40
0.3140262138470525
 40
0.3140262138470525
 40
0.3667108195896758
 40
0.4762409366480478
 40
0.5794176423122134
 40
0.6762409365885453
 40
0.7667108194847762
 40
0.8508272910103719
 40
1.0
 40
1.0
 40
1.0
 40
1.0
 10
0.7889101470967936
 20
-65.9952848374804
 30
0.0
 10
0.8300322627131144
 20
-65.90134347488093
 30
0.0
 10
0.9550093515483254
 20
-65.61138377347434
 30
0.0
 10
1.150984857744518
 20
-65.1333896041505
 30
0.0
 10
1.365651408802361
 20
-64.57039787380431
 30
0.0
 10
1.553929317441948
 20
-64.03723883002847
 30
0.0
 10
1.717441789701295
 20
-63.53485423235502
 30
0.0
 10
1.897564870139947
 20
-62.93091677233528
 30
0.0
 10
2.011762433541436
 20
-62.491295169378
 30
0.0
 10
2.077218986956739
 20
-62.20840584980617
 30
0.0
  0
LINE
  5
F7
330
1F
100
AcDbEntity
  8
0
  6
Continuous
 62
     7
370
    25
100
AcDbLine
 10
2.077218987
 20
-62.2084058498
 30
0.0
 11
2.0856672308
 21
-62.1750681097
 31
0.0
  0
SPLINE
  5
F8
330
1F
100
AcDbEntity
  8
0
  6
Continuous
 62
     7
370
    25
100
AcDbSpline
210
0.0
220
0.0
230
1.0
 70
     8
 71
     3
 72
    15
 73
    11
 74
     0
 42
0.000000001
 43
0.00000001
 40
0.0
 40
0.0
 40
0.0
 40
0.0
 40
0.089398154854713
 40
0.153239276293117
 40
0.2229388537733802
 40
0.3017481308857564
 40
0.3942398025453073
 40
0.5064297554373132
 40
0.6447484245704628
 40
1.0
 40
1.0
 40
1.0
 40
1.0
 10
2.085667230820858
 20
-62.17506810969235
 30
0.0
 10
2.093722712710075
 20
-62.14082624533767
 30
0.0
 10
2.110726263257618
 20
-62.08292636067559
 30
0.0
 10
2.140593734334758
 20
-62.00041532412387
 30
0.0
 10
2.174314930124385
 20
-61.92389660542599
 30
0.0
 10
2.219575497145927
 20
-61.84043732476727
 30
0.0
 10
2.28277645950557
 20
-61.74823797942196
 30
0.0
 10
2.373562781011333
 20
-61.64772093025392
 30
0.0
 10
2.562476388713084
 20
-61.49997685961208
 30
0.0
 10
2.753787119052173
 20
-61.43793827896845
 30
0.0
 10
2.894119775802966
 20
-61.43186527139891
 30
0.0
  0
ARC
  5
F9
330
1F
100
AcDbEntity
  8
0
  6
Continuous
 62
     7
370
    25
100
AcDbCircle
 10
0.0
 20
0.0
 30
0.0
 40
61.50000000000001
100
AcDbArc
 50
272.6972701194
 51
272.9277298806
  0
SPLINE
  5
FA
330
1F
100
AcDbEntity
  8
0
  6
Continuous
 62
     7
370
    25
100
AcDbSpline
210
0.0
220
0.0
230
1.0
 70
     8
 71
     3
 72
    15
 73
    11
 74
     0
 42
0.000000001
 43
0.00000001
 40
0.0
 40
0.0
 40
0.0
 40
0.0
 40
0.3552515754295372
 40
0.4935702445626868
 40
0.6057601974546927
 40
0.6982518691142436
 40
0.7770611462266198
 40
0.846760723706883
 40
0.910601845145287
 40
1.0
 40
1.0
 40
1.0
 40
1.0
 10
3.141191960973885
 20
-61.4197273932758
 30
0.0
 10
3.281444136460773
 20
-61.41201615194441
 30
0.0
 10
3.477914497607531
 20
-61.45500426916319
 30
0.0
 10
3.680399885957817
 20
-61.58352014012605
 30
0.0
 10
3.780601440224922
 20
-61.67465455661321
 30
0.0
 10
3.852535188847225
 20
-61.76021515931347
 30
0.0
 10
3.90575825389172
 20
-61.83883624937494
 30
0.0
 10
3.946817218895126
 20
-61.9116812543478
 30
0.0
 10
3.984628365783843
 20
-61.99086745360209
 30
0.0
 10
4.007225220707944
 20
-62.04682189509376
 30
0.0
 10
4.018598202873678
 20
-62.08010930021356
 30
0.0
  0
LINE
  5
FB
330
1F
100
AcDbEntity
  8
0
  6
Continuous
 62
     7
370
    25
100
AcDbLine
 10
4.0185982029
 20
-62.0801093002
 30
0.0
 11
4.0302734361
 21
-62.1124584373
 31
0.0
  0
SPLINE
  5
FC
330
1F
100
AcDbEntity
  8
0
  6
Continuous
 62
     7
370
    25
100
AcDbSpline
210
0.0
220
0.0
230
1.0
 70
     8
 71
     3
 72
    14
 73
    10
 74
     0
 42
0.000000001
 43
0.00000001
 40
0.0
 40
0.0
 40
0.0
 40
0.0
 40
0.1491727089896281
 40
0.2332891805152238
 40
0.3237590634114546
 40
0.4205823576877865
 40
0.5237590633519522
 40
0.6332891804103242
 40
0.6859737861529417
 40
0.6859737861529417
 40
0.6859737861529417
 40
0.6859737861529417
 10
4.030273436085459
 20
-62.11245843729225
 30
0.0
 10
4.123142800439179
 20
-62.38756970328726
 30
0.0
 10
4.279880923708481
 20
-62.81388108946821
 30
0.0
 10
4.518332885051211
 20
-63.39725527629317
 30
0.0
 10
4.730300301673686
 20
-63.88119372987401
 30
0.0
 10
4.969930325533332
 20
-64.39333100493481
 30
0.0
 10
5.238746037911216
 20
-64.932570774759
 30
0.0
 10
5.480629490050839
 20
-65.38905431281646
 30
0.0
 10
5.633425800786275
 20
-65.66536788215238
 30
0.0
 10
5.68355776589674
 20
-65.75482621923713
 30
0.0
  0
ARC
  5
FD
330
1F
100
AcDbEntity
  8
0
  6
Continuous
 62
     7
370
    25
100
AcDbCircle
 10
0.0
 20
0.0
 30
0.0
 40
66.0
100
AcDbArc
 50
274.9401166925
 51
276.3098833075
  0
SPLINE
  5
FE
330
1F
100
AcDbEntity
  8
0
  6
Continuous
 62
     7
370
    25
100
AcDbSpline
210
0.0
220
0.0
230
1.0
 70
     8
 71
     3
 72
    14
 73
    10
 74
     0
 42
0.000000001
 43
0.00000001
 40
0.3140262138470586
 40
0.3140262138470586
 40
0.3140262138470586
 40
0.3140262138470586
 40
0.3667108195896758
 40
0.4762409366480478
 40
0.5794176423122134
 40
0.6762409365885453
 40
0.7667108194847762
 40
0.8508272910103719
 40
1.0
 40
1.0
 40
1.0
 40
1.0
 10
7.253780424111643
 20
-65.60017278604634
 30
0.0
 10
7.285496661780789
 20
-65.50265310460756
 30
0.0
 10
7.381450931030858
 20
-65.20183974156298
 30
0.0
 10
7.529631140027833
 20
-64.70693828612154
 30
0.0
 10
7.688081173530276
 20
-64.12561651337916
 30
0.0
 10
7.823193747766429
 20
-63.5765703139342
 30
0.0
 10
7.936676561169779
 20
-63.06057781047517
 30
0.0
 10
8.056736076974442
 20
-62.44189332514637
 30
0.0
 10
8.127293295545817
 20
-61.99319530177092
 30
0.0
 10
8.164706655631127
 20
-61.70525230741274
 30
0.0
  0
LINE
  5
FF
330
1F
100
AcDbEntity
  8
0
  6
Continuous
 62
     7
370
    25
100
AcDbLine
 10
8.1647066556
 20
-61.7052523074
 30
0.0
 11
8.1698465489
 21
-61.6712470249
 31
0.0
  0
SPLINE
  5
100
330
1F
100
AcDbEntity
  8
0
  6
Continuous
 62
     7
370
    25
100
AcDbSpline
210
0.0
220
0.0
230
1.0
 70
     8
 71
     3
 72
    15
 73
    11
 74
     0
 42
0.000000001
 43
0.00000001
 40
0.0
 40
0.0
 40
0.0
 40
0.0
 40
0.089398154854713
 40
0.153239276293117
 40
0.2229388537733802
 40
0.3017481308857564
 40
0.3942398025453073
 40
0.5064297554373132
 40
0.6447484245704628
 40
1.0
 40
1.0
 40
1.0
 40
1.0
 10
8.169846548940892
 20
-61.67124702492532
 30
0.0
 10
8.17450695185943
 20
-61.63638046920801
 30
0.0
 10
8.185753444543554
 20
-61.57709274891611
 30
0.0
 10
8.20738959973542
 20
-61.49205150145409
 30
0.0
 10
8.233448272761931
 20
-61.41259598612165
 30
0.0
 10
8.270310457758166
 20
-61.32510227336189
 30
0.0
 10
8.32416997403846
 20
-61.22715211546849
 30
0.0
 10
8.404666740877932
 20
-61.11822046775127
 30
0.0
 10
8.578189226618298
 20
-60.95267105359586
 30
0.0
 10
8.762497899235468
 20
-60.8721794749727
 30
0.0
 10
8.901559557052023
 20
-60.85238070488497
 30
0.0
  0
ARC
  5
101
330
1F
100
AcDbEntity
  8
0
  6
Continuous
 62
     7
370
    25
100
AcDbCircle
 10
0.0
 20
0.0
 30
0.0
 40
61.50000000000001
100
AcDbArc
 50
278.3222701194
 51
278.5527298806
  0
SPLINE
  5
102
330
1F
100
AcDbEntity
  8
0
  6
Continuous
 62
     7
370
    25
100
AcDbSpline
210
0.0
220
0.0
230
1.0
 70
     8
 71
     3
 72
    15
 73
    11
 74
     0
 42
0.000000001
 43
0.00000001
 40
0.0
 40
0.0
 40
0.0
 40
0.0
 40
0.3552515754295372
 40
0.4935702445626868
 40
0.6057601974546927
 40
0.6982518691142436
 40
0.7770611462266198
 40
0.846760723706883
 40
0.910601845145287
 40
1.0
 40
1.0
 40
1.0
 40
1.0
 10
9.146252302016777
 20
-60.81608396491715
 30
0.0
 10
9.285073291120181
 20
-60.79466273815424
 30
0.0
 10
9.484811166095144
 20
-60.81818639287965
 30
0.0
 10
9.698918290114378
 20
-60.92623638607224
 30
0.0
 10
9.807570081399492
 20
-61.00711049562862
 30
0.0
 10
9.887543854962237
 20
-61.08520836030763
 30
0.0
 10
9.948216850818616
 20
-61.1582340956959
 30
0.0
 10
9.996218164757707
 20
-61.22670384972471
 30
0.0
 10
10.04160884544379
 20
-61.30180260529519
 30
0.0
 10
10.06958138467884
 20
-61.35527273175708
 30
0.0
 10
10.08416233908572
 20
-61.38728510173395
 30
0.0
  0
LINE
  5
103
330
1F
100
AcDbEntity
  8
0
  6
Continuous
 62
     7
370
    25
100
AcDbLine
 10
10.0841623391
 20
-61.3872851017
 30
0.0
 11
10.0989521228
 21
-61.4183340959
 31
0.0
  0
SPLINE
  5
104
330
1F
100
AcDbEntity
  8
0
  6
Continuous
 62
     7
370
    25
100
AcDbSpline
210
0.0
220
0.0
230
1.0
 70
     8
 71
     3
 72
    14
 73
    10
 74
     0
 42
0.000000001
 43
0.00000001
 40
0.0
 40
0.0
 40
0.0
 40
0.0
 40
0.1491727089896281
 40
0.2332891805152238
 40
0.3237590634114546
 40
0.4205823576877865
 40
0.5237590633519522
 40
0.6332891804103242
 40
0.6859737861529447
 40
0.6859737861529447
 40
0.6859737861529447
 40
0.6859737861529447
 10
10.098952122767
 20
-61.41833409590358
 30
0.0
 10
10.21833991531286
 20
-61.68301783643908
 30
0.0
 10
10.41610912464112
 20
-62.09191339414935
 30
0.0
 10
10.7105935441491
 20
-62.64910609545557
 30
0.0
 10
10.96897454303945
 20
-63.10993781308823
 30
0.0
 10
11.2576489139943
 20
-63.59612115751243
 30
0.0
 10
11.57802494543242
 20
-64.10641579305273
 30
0.0
 10
11.86348687364443
 20
-64.53699251383304
 30
0.0
 10
12.04263089428075
 20
-64.79699890037723
 30
0.0
 10
12.10128991065644
 20
-64.88111267925825
 30
0.0
  0
ARC
  5
105
330
1F
100
AcDbEntity
  8
0
  6
Continuous
 62
     7
370
    25
100
AcDbCircle
 10
0.0
 20
0.0
 30
0.0
 40
66.0
100
AcDbArc
 50
280.5651166925
 51
281.9348833075
  0
SPLINE
  5
106
330
1F
100
AcDbEntity
  8
0
  6
Continuous
 62
     7
370
    25
100
AcDbSpline
210
0.0
220
0.0
230
1.0
 70
     8
 71
     3
 72
    14
 73
    10
 74
     0
 42
0.000000001
 43
0.00000001
 40
0.3140262138470543
 40
0.3140262138470543
 40
0.3140262138470543
 40
0.3140262138470543
 40
0.3667108195896758
 40
0.4762409366480478
 40
0.5794176423122134
 40
0.6762409365885453
 40
0.7667108194847762
 40
0.8508272910103719
 40
1.0
 40
1.0
 40
1.0
 40
1.0
 10
13.64879283032301
 20
-64.57329520998044
 30
0.0
 10
13.67079774533837
 20
-64.4731363775443
 30
0.0
 10
13.73680510293648
 20
-64.16436634998911
 30
0.0
 10
13.83576295831806
 20
-63.65732377998662
 30
0.0
 10
13.93647051382487
 20
-63.06327041130238
 30
0.0
 10
14.01711654570765
 20
-62.50362467122817
 30
0.0
 10
14.0794767987259
 20
-61.97899355186201
 30
0.0
 10
14.13831651112817
 20
-61.35152031102522
 30
0.0
 10
14.16455388028409
 20
-60.89806707447999
 30
0.0
 10
14.17356373592955
 20
-60.6078434537768
 30
0.0
  0
LINE
  5
107
330
1F
100
AcDbEntity
  8
0
  6
Continuous
 62
     7
370
    25
100
AcDbLine
 10
14.1735637359
 20
-60.6078434538
 30
0.0
 11
14.1753457787
 21
-60.5734981184
 31
0.0
  0
SPLINE
  5
108
330
1F
100
AcDbEntity
  8
0
  6
Continuous
 62
     7
370
    25
100
AcDbSpline
210
0.0
220
0.0
230
1.0
 70
     8
 71
     3
 72
    15
 73
    11
 74
     0
 42
0.000000001
 43
0.00000001
 40
0.0
 40
0.0
 40
0.0
 40
0.0
 40
0.089398154854713
 40
0.153239276293117
 40
0.2229388537733802
 40
0.3017481308857564
 40
0.3942398025453073
 40
0.5064297554373132
 40
0.6447484245704628
 40
1.0
 40
1.0
 40
1.0
 40
1.0
 10
14.17534577870264
 20
-60.57349811837533
 30
0.0
 10
14.17656622042276
 20
-60.53834265528693
 30
0.0
 10
14.18194734537096
 20
-60.47823807252158
 30
0.0
 10
14.19514381667553
 20
-60.3914856078506
 30
0.0
 10
14.21328900767256
 20
-60.30985849593103
 30
0.0
 10
14.24139780765105
 20
-60.21917296335306
 30
0.0
 10
14.28539718126761
 20
-60.11641530647709
 30
0.0
 10
14.35482916557211
 20
-60.00011813152628
 30
0.0
 10
14.51128941295637
 20
-59.81835770521415
 30
0.0
 10
14.68682103458095
 20
-59.72018830651478
 30
0.0
 10
14.82327245367966
 20
-59.68685444688791
 30
0.0
  0
ARC
  5
109
330
1F
100
AcDbEntity
  8
0
  6
Continuous
 62
     7
370
    25
100
AcDbCircle
 10
0.0
 20
0.0
 30
0.0
 40
61.50000000000002
100
AcDbArc
 50
283.9472701194
 51
284.1777298806
  0
SPLINE
  5
10A
330
1F
100
AcDbEntity
  8
0
  6
Continuous
 62
     7
370
    25
100
AcDbSpline
210
0.0
220
0.0
230
1.0
 70
     8
 71
     3
 72
    15
 73
    11
 74
     0
 42
0.000000001
 43
0.00000001
 40
0.0
 40
0.0
 40
0.0
 40
0.0
 40
0.3552515754295372
 40
0.4935702445626868
 40
0.6057601974546927
 40
0.6982518691142436
 40
0.7770611462266198
 40
0.846760723706883
 40
0.910601845145287
 40
1.0
 40
1.0
 40
1.0
 40
1.0
 10
15.06322923354117
 20
-59.6267484025231
 30
0.0
 10
15.19928211424876
 20
-59.59182348845244
 30
0.0
 10
15.40036391812808
 20
-59.59565613503013
 30
0.0
 10
15.6240308091691
 20
-59.68219966995188
 30
0.0
 10
15.74008646132704
 20
-59.75203461069214
 30
0.0
 10
15.82733006867271
 20
-59.82191761222042
 30
0.0
 10
15.89486868122364
 20
-59.88864471518377
 30
0.0
 10
15.94935006520499
 20
-59.95207981710787
 30
0.0
 10
16.00188314262036
 20
-60.02236788692523
 30
0.0
 10
16.03496197532218
 20
-60.07283875180976
 30
0.0
 10
16.05261047940852
 20
-60.10326779002109
 30
0.0
  0
LINE
  5
10B
330
1F
100
AcDbEntity
  8
0
  6
Continuous
 62
     7
370
    25
100
AcDbLine
 10
16.0526104794
 20
-60.10326779
 30
0.0
 11
16.0703723799
 21
-60.1327176225
 31
0.0
  0
SPLINE
  5
10C
330
1F
100
AcDbEntity
  8
0
  6
Continuous
 62
     7
370
    25
100
AcDbSpline
210
0.0
220
0.0
230
1.0
 70
     8
 71
     3
 72
    14
 73
    10
 74
     0
 42
0.000000001
 43
0.00000001
 40
0.0
 40
0.0
 40
0.0
 40
0.0
 40
0.1491727089896281
 40
0.2332891805152238
 40
0.3237590634114546
 40
0.4205823576877865
 40
0.5237590633519522
 40
0.6332891804103242
 40
0.6859737861529432
 40
0.6859737861529432
 40
0.6859737861529432
 40
0.6859737861529432
 10
16.07037237985753
 20
-60.1327176224947
 30
0.0
 10
16.2151288308893
 20
-60.3844247884585
 30
0.0
 10
16.45202450067904
 20
-60.77196662995227
 30
0.0
 10
16.79970533241085
 20
-61.29761177543367
 30
0.0
 10
17.10201156330435
 20
-61.73089869576106
 30
0.0
 10
17.43695018935664
 20
-62.18644589816701
 30
0.0
 10
17.80580114353688
 20
-62.66288098312779
 30
0.0
 10
18.13209239340323
 20
-63.06340419743265
 30
0.0
 10
18.33585886909163
 20
-63.30459939754873
 30
0.0
 10
18.40248001833857
 20
-63.38255855655412
 30
0.0
  0
ARC
  5
10D
330
1F
100
AcDbEntity
  8
0
  6
Continuous
 62
     7
370
    25
100
AcDbCircle
 10
0.0
 20
0.0
 30
0.0
 40
66.0
100
AcDbArc
 50
286.1901166925
 51
287.5598833075
  0
SPLINE
  5
10E
330
1F
100
AcDbEntity
  8
0
  6
Continuous
 62
     7
370
    25
100
AcDbSpline
210
0.0
220
0.0
230
1.0
 70
     8
 71
     3
 72
    14
 73
    10
 74
     0
 42
0.000000001
 43
0.00000001
 40
0.3140262138470579
 40
0.3140262138470579
 40
0.3140262138470579
 40
0.3140262138470579
 40
0.3667108195896758
 40
0.4762409366480478
 40
0.5794176423122134
 40
0.6762409365885453
 40
0.7667108194847762
 40
0.8508272910103719
 40
1.0
 40
1.0
 40
1.0
 40
1.0
 10
19.91235990038927
 20
-62.92454150168857
 30
0.0
 10
19.92444157339014
 20
-62.82270810256379
 30
0.0
 10
19.95986633239933
 20
-62.50895503465427
 30
0.0
 10
20.00864881592232
 20
-61.99465444721752
 30
0.0
 10
20.05064402462162
 20
-61.39359054127443
 30
0.0
 10
20.07604684877838
 20
-60.82873495498134
 30
0.0
 10
20.0866839780854
 20
-60.30051770418014
 30
0.0
 10
20.08373722848977
 20
-59.67029861815637
 30
0.0
 10
20.06540206802245
 20
-59.21645717099204
 30
0.0
 10
20.04592164939293
 20
-58.92674793606357
 30
0.0
  0
LINE
  5
10F
330
1F
100
AcDbEntity
  8
0
  6
Continuous
 62
     7
370
    25
100
AcDbLine
 10
20.0459216494
 20
-58.9267479361
 30
0.0
 11
20.0443286796
 21
-58.8923933121
 31
0.0
  0
SPLINE
  5
110
330
1F
100
AcDbEntity
  8
0
  6
Continuous
 62
     7
370
    25
100
AcDbSpline
210
0.0
220
0.0
230
1.0
 70
     8
 71
     3
 72
    15
 73
    11
 74
     0
 42
0.000000001
 43
0.00000001
 40
0.0
 40
0.0
 40
0.0
 40
0.0
 40
0.089398154854713
 40
0.153239276293117
 40
0.2229388537733802
 40
0.3017481308857564
 40
0.3942398025453073
 40
0.5064297554373132
 40
0.6447484245704628
 40
1.0
 40
1.0
 40
1.0
 40
1.0
 10
20.04432867958327
 20
-58.89239331210303
 30
0.0
 10
20.04209740658403
 20
-58.85728750797104
 30
0.0
 10
20.04156134062144
 20
-58.79694490272077
 30
0.0
 10
20.04619103880612
 20
-58.70931669449931
 30
0.0
 10
20.0562479996652
 20
-58.62630409970235
 30
0.0
 10
20.07533271151632
 20
-58.53330009855862
 30
0.0
 10
20.10904820444872
 20
-58.42672455510885
 30
0.0
 10
20.16674673825402
 20
-58.30418185829376
 30
0.0
 10
20.30463794956999
 20
-58.10796087209062
 30
0.0
 10
20.46970205473039
 20
-57.99305907828937
 30
0.0
 10
20.6022291333534
 20
-57.9465111524137
 30
0.0
  0
ARC
  5
111
330
1F
100
AcDbEntity
  8
0
  6
Continuous
 62
     7
370
    25
100
AcDbCircle
 10
0.0
 20
0.0
 30
0.0
 40
61.50000000000001
100
AcDbArc
 50
289.5722701194
 51
289.8027298806
  0
SPLINE
  5
112
330
1F
100
AcDbEntity
  8
0
  6
Continuous
 62
     7
370
    25
100
AcDbSpline
210
0.0
220
0.0
230
1.0
 70
     8
 71
     3
 72
    15
 73
    11
 74
     0
 42
0.000000001
 43
0.00000001
 40
0.0
 40
0.0
 40
0.0
 40
0.0
 40
0.3552515754295372
 40
0.4935702445626868
 40
0.6057601974546927
 40
0.6982518691142436
 40
0.7770611462266198
 40
0.846760723706883
 40
0.910601845145287
 40
1.0
 40
1.0
 40
1.0
 40
1.0
 10
20.83513903314784
 20
-57.86317465771646
 30
0.0
 10
20.96711354184432
 20
-57.81508240235243
 30
0.0
 10
21.16760274693416
 20
-57.79918713030072
 30
0.0
 10
21.39867537056747
 20
-57.86339074540082
 30
0.0
 10
21.52101720422547
 20
-57.92151396866998
 30
0.0
 10
21.61469044172312
 20
-57.98250909554089
 30
0.0
 10
21.68844423720939
 20
-58.04229494760101
 30
0.0
 10
21.7488810057227
 20
-58.10008448271174
 30
0.0
 10
21.80805055761435
 20
-58.16488495424028
 30
0.0
 10
21.84591711654128
 20
-58.21187049552842
 30
0.0
 10
21.86646320556508
 20
-58.24042315370203
 30
0.0
  0
LINE
  5
113
330
1F
100
AcDbEntity
  8
0
  6
Continuous
 62
     7
370
    25
100
AcDbLine
 10
21.8664632056
 20
-58.2404231537
 30
0.0
 11
21.887026166
 21
-58.2679902065
 31
0.0
  0
SPLINE
  5
114
330
1F
100
AcDbEntity
  8
0
  6
Continuous
 62
     7
370
    25
100
AcDbSpline
210
0.0
220
0.0
230
1.0
 70
     8
 71
     3
 72
    14
 73
    10
 74
     0
 42
0.000000001
 43
0.00000001
 40
0.0
 40
0.0
 40
0.0
 40
0.0
 40
0.1491727089896281
 40
0.2332891805152238
 40
0.3237590634114546
 40
0.4205823576877865
 40
0.5237590633519522
 40
0.6332891804103242
 40
0.6859737861529445
 40
0.6859737861529445
 40
0.6859737861529445
 40
0.6859737861529445
 10
21.88702616597085
 20
-58.26799020649398
 30
0.0
 10
22.05575719173317
 20
-58.50429672028071
 30
0.0
 10
22.32949788718397
 20
-58.86675260577249
 30
0.0
 10
22.72702677466835
 20
-59.35578794533119
 30
0.0
 10
23.07034686330409
 20
-59.75735727845188
 30
0.0
 10
23.44832410238887
 20
-60.17788117025295
 30
0.0
 10
23.86209774298803
 20
-60.61586837432012
 30
0.0
 10
24.22607595140358
 20
-60.9824808246475
 30
0.0
 10
24.4525024995931
 20
-61.20254199670767
 30
0.0
 10
24.52644418362519
 20
-61.27359574651938
 30
0.0
  0
ARC
  5
115
330
1F
100
AcDbEntity
  8
0
  6
Continuous
 62
     7
370
    25
100
AcDbCircle
 10
0.0
 20
0.0
 30
0.0
 40
66.0
100
AcDbArc
 50
291.8151166925
 51
293.1848833075
  0
SPLINE
  5
116
330
1F
100
AcDbEntity
  8
0
  6
Continuous
 62
     7
370
    25
100
AcDbSpline
210
0.0
220
0.0
230
1.0
 70
     8
 71
     3
 72
    14
 73
    10
 74
     0
 42
0.000000001
 43
0.00000001
 40
0.3140262138470561
 40
0.3140262138470561
 40
0.3140262138470561
 40
0.3140262138470561
 40
0.3667108195896758
 40
0.4762409366480478
 40
0.5794176423122134
 40
0.6762409365885453
 40
0.7667108194847762
 40
0.8508272910103719
 40
1.0
 40
1.0
 40
1.0
 40
1.0
 10
25.98416005941159
 20
-60.66979006068208
 30
0.0
 10
25.98620213728245
 20
-60.56726280617006
 30
0.0
 10
25.99070313790833
 20
-60.25154831146499
 30
0.0
 10
25.98884044758918
 20
-59.7349427023963
 30
0.0
 10
25.97171887266427
 20
-59.13265683318356
 30
0.0
 10
25.94163384601179
 20
-58.56803126874905
 30
0.0
 10
25.9004454102375
 20
-58.04131490739093
 30
0.0
 10
25.83574057745345
 20
-57.4144193304914
 30
0.0
 10
25.77300946498121
 20
-56.96456041393916
 30
0.0
 10
25.72522637915717
 20
-56.67815562308893
 30
0.0
  0
LINE
  5
117
330
1F
100
AcDbEntity
  8
0
  6
Continuous
 62
     7
370
    25
100
AcDbLine
 10
25.7252263792
 20
-56.6781556231
 30
0.0
 11
25.7202737379
 21
-56.6441225644
 31
0.0
  0
SPLINE
  5
118
330
1F
100
AcDbEntity
  8
0
  6
Continuous
 62
     7
370
    25
100
AcDbSpline
210
0.0
220
0.0
230
1.0
 70
     8
 71
     3
 72
    15
 73
    11
 74
     0
 42
0.000000001
 43
0.00000001
 40
0.0
 40
0.0
 40
0.0
 40
0.0
 40
0.089398154854713
 40
0.153239276293117
 40
0.2229388537733802
 40
0.3017481308857564
 40
0.3942398025453073
 40
0.5064297554373132
 40
0.6447484245704628
 40
1.0
 40
1.0
 40
1.0
 40
1.0
 10
25.72027373793484
 20
-56.64412256437821
 30
0.0
 10
25.71461223859497
 20
-56.60940450728719
 30
0.0
 10
25.70816414432985
 20
-56.5494050118272
 30
0.0
 10
25.70418248287027
 20
-56.46174496760291
 30
0.0
 10
25.70605435956064
 20
-56.37814634659572
 30
0.0
 10
25.71593118707649
 20
-56.28371955625842
 30
0.0
 10
25.73903810069703
 20
-56.17435250697838
 30
0.0
 10
25.78444751558136
 20
-56.04674444145797
 30
0.0
 10
25.90244172308505
 20
-55.83795261072629
 30
0.0
 10
26.05544865421536
 20
-55.70742498890915
 30
0.0
 10
26.18277508414887
 20
-55.64811127875657
 30
0.0
  0
ARC
  5
119
330
1F
100
AcDbEntity
  8
0
  6
Continuous
 62
     7
370
    25
100
AcDbCircle
 10
0.0
 20
0.0
 30
0.0
 40
61.50000000000001
100
AcDbArc
 50
295.1972701194
 51
295.4277298806
  0
SPLINE
  5
11A
330
1F
100
AcDbEntity
  8
0
  6
Continuous
 62
     7
370
    25
100
AcDbSpline
210
0.0
220
0.0
230
1.0
 70
     8
 71
     3
 72
    15
 73
    11
 74
     0
 42
0.000000001
 43
0.00000001
 40
0.0
 40
0.0
 40
0.0
 40
0.0
 40
0.3552515754295372
 40
0.4935702445626868
 40
0.6057601974546927
 40
0.6982518691142436
 40
0.7770611462266198
 40
0.846760723706883
 40
0.910601845145287
 40
1.0
 40
1.0
 40
1.0
 40
1.0
 10
26.40639505421973
 20
-55.54234690972718
 30
0.0
 10
26.53302020424175
 20
-55.48155046777886
 30
0.0
 10
26.73098598989854
 20
-55.44608035725685
 30
0.0
 10
26.96723899044142
 20
-55.48732573662461
 30
0.0
 10
27.09468878686252
 20
-55.53317748400922
 30
0.0
 10
27.19388953002803
 20
-55.58469731980764
 30
0.0
 10
27.27314821908117
 20
-55.63696615052694
 30
0.0
 10
27.33895833300757
 20
-55.68855357401018
 30
0.0
 10
27.40419452424542
 20
-55.74724238328555
 30
0.0
 10
27.44648413373503
 20
-55.7902901045298
 30
0.0
 10
27.46972993762734
 20
-55.81669140495899
 30
0.0
  0
LINE
  5
11B
330
1F
100
AcDbEntity
  8
0
  6
Continuous
 62
     7
370
    25
100
AcDbLine
 10
27.4697299376
 20
-55.816691405
 30
0.0
 11
27.4928959254
 21
-55.8421101923
 31
0.0
  0
SPLINE
  5
11C
330
1F
100
AcDbEntity
  8
0
  6
Continuous
 62
     7
370
    25
100
AcDbSpline
210
0.0
220
0.0
230
1.0
 70
     8
 71
     3
 72
    14
 73
    10
 74
     0
 42
0.000000001
 43
0.00000001
 40
0.0
 40
0.0
 40
0.0
 40
0.0
 40
0.1491727089896281
 40
0.2332891805152238
 40
0.3237590634114546
 40
0.4205823576877865
 40
0.5237590633519522
 40
0.6332891804103242
 40
0.6859737861529449
 40
0.6859737861529449
 40
0.6859737861529449
 40
0.6859737861529449
 10
27.49289592544032
 20
-55.84211019228123
 30
0.0
 10
27.68397655391732
 20
-56.06074029298484
 30
0.0
 10
27.99192600249012
 20
-56.39461957415879
 30
0.0
 10
28.43547452522921
 20
-56.84233543014096
 30
0.0
 10
28.81650211147578
 20
-57.20831984385683
 30
0.0
 10
29.23387783615727
 20
-57.58977055009326
 30
0.0
 10
29.68858929682471
 20
-57.98509181706348
 30
0.0
 10
30.08674915467168
 20
-58.314262825106
 30
0.0
 10
30.33365516392589
 20
-58.51107065972562
 30
0.0
 10
30.4142052839053
 20
-58.57453471389104
 30
0.0
  0
ARC
  5
11D
330
1F
100
AcDbEntity
  8
0
  6
Continuous
 62
     7
370
    25
100
AcDbCircle
 10
0.0
 20
0.0
 30
0.0
 40
66.0
100
AcDbArc
 50
297.4401166925
 51
298.8098833075
  0
SPLINE
  5
11E
330
1F
100
AcDbEntity
  8
0
  6
Continuous
 62
     7
370
    25
100
AcDbSpline
210
0.0
220
0.0
230
1.0
 70
     8
 71
     3
 72
    14
 73
    10
 74
     0
 42
0.000000001
 43
0.00000001
 40
0.3140262138470556
 40
0.3140262138470556
 40
0.3140262138470556
 40
0.3140262138470556
 40
0.3667108195896758
 40
0.4762409366480478
 40
0.5794176423122134
 40
0.6762409365885453
 40
0.7667108194847762
 40
0.8508272910103719
 40
1.0
 40
1.0
 40
1.0
 40
1.0
 10
31.805718552675
 20
-57.83075537591036
 30
0.0
 10
31.79770136908964
 20
-57.72852165951911
 30
0.0
 10
31.77123526423568
 20
-57.41388624118964
 30
0.0
 10
31.71874533880042
 20
-56.89995080490969
 30
0.0
 10
31.64267187037744
 20
-56.30224331459076
 30
0.0
 10
31.55738872816854
 20
-55.74328542485608
 30
0.0
 10
31.46477139446532
 20
-55.22314251943337
 30
0.0
 10
31.33893162140382
 20
-54.6056077987596
 30
0.0
 10
31.23240869183208
 20
-54.16406380010373
 30
0.0
 10
31.15678311605091
 20
-53.88372168803244
 30
0.0
  0
LINE
  5
11F
330
1F
100
AcDbEntity
  8
0
  6
Continuous
 62
     7
370
    25
100
AcDbLine
 10
31.1567831161
 20
-53.883721688
 30
0.0
 11
31.1485185001
 21
-53.8503379515
 31
0.0
  0
SPLINE
  5
120
330
1F
100
AcDbEntity
  8
0
  6
Continuous
 62
     7
370
    25
100
AcDbSpline
210
0.0
220
0.0
230
1.0
 70
     8
 71
     3
 72
    15
 73
    11
 74
     0
 42
0.000000001
 43
0.00000001
 40
0.0
 40
0.0
 40
0.0
 40
0.0
 40
0.089398154854713
 40
0.153239276293117
 40
0.2229388537733802
 40
0.3017481308857564
 40
0.3942398025453073
 40
0.5064297554373132
 40
0.6447484245704628
 40
1.0
 40
1.0
 40
1.0
 40
1.0
 10
31.14851850005826
 20
-53.85033795153127
 30
0.0
 10
31.1394812977113
 20
-53.81634199534982
 30
0.0
 10
31.1271832738163
 20
-53.75726343762045
 30
0.0
 10
31.11462859828893
 20
-53.67041577153906
 30
0.0
 10
31.10829736361477
 20
-53.5870362247416
 30
0.0
 10
31.10887118754717
 20
-53.49209602682061
 30
0.0
 10
31.12114698964614
 20
-53.38099073618099
 30
0.0
 10
31.15382996812085
 20
-53.24954623738388
 30
0.0
 10
31.25079082309183
 20
-53.03019434159083
 30
0.0
 10
31.39026703980316
 20
-52.88529794410957
 30
0.0
 10
31.51116659792319
 20
-52.81378967313301
 30
0.0
  0
ARC
  5
121
330
1F
100
AcDbEntity
  8
0
  6
Continuous
 62
     7
370
    25
100
AcDbCircle
 10
0.0
 20
0.0
 30
0.0
 40
61.50000000000001
100
AcDbArc
 50
300.8222701194
 51
301.0527298806
  0
SPLINE
  5
122
330
1F
100
AcDbEntity
  8
0
  6
Continuous
 62
     7
370
    25
100
AcDbSpline
210
0.0
220
0.0
230
1.0
 70
     8
 71
     3
 72
    15
 73
    11
 74
     0
 42
0.000000001
 43
0.00000001
 40
0.0
 40
0.0
 40
0.0
 40
0.0
 40
0.3552515754295372
 40
0.4935702445626868
 40
0.6057601974546927
 40
0.6982518691142436
 40
0.7770611462266198
 40
0.846760723706883
 40
0.910601845145287
 40
1.0
 40
1.0
 40
1.0
 40
1.0
 10
31.72334305571561
 20
-52.6866159984619
 30
0.0
 10
31.84339937764812
 20
-52.61370087289995
 30
0.0
 10
32.03693522513687
 20
-52.55899752046189
 30
0.0
 10
32.27609335704506
 20
-52.57688744854701
 30
0.0
 10
32.40742370501857
 20
-52.61002614265462
 30
0.0
 10
32.51119659646663
 20
-52.65157452319821
 30
0.0
 10
32.59519687458385
 20
-52.69582295516383
 30
0.0
 10
32.66574654655076
 20
-52.74071145193089
 30
0.0
 10
32.73642111695144
 20
-52.79272339363717
 30
0.0
 10
32.78272650494651
 20
-52.83141872174967
 30
0.0
 10
32.80844815390839
 20
-52.8554144054789
 30
0.0
  0
LINE
  5
123
330
1F
100
AcDbEntity
  8
0
  6
Continuous
 62
     7
370
    25
100
AcDbLine
 10
32.8084481539
 20
-52.8554144055
 30
0.0
 11
32.833994068
 21
-52.8784401305
 31
0.0
  0
SPLINE
  5
124
330
1F
100
AcDbEntity
  8
0
  6
Continuous
 62
     7
370
    25
100
AcDbSpline
210
0.0
220
0.0
230
1.0
 70
     8
 71
     3
 72
    14
 73
    10
 74
     0
 42
0.000000001
 43
0.00000001
 40
0.0
 40
0.0
 40
0.0
 40
0.0
 40
0.1491727089896281
 40
0.2332891805152238
 40
0.3237590634114546
 40
0.4205823576877865
 40
0.5237590633519522
 40
0.6332891804103242
 40
0.6859737861529422
 40
0.6859737861529422
 40
0.6859737861529422
 40
0.6859737861529422
 10
32.83399406800212
 20
-52.87844013051419
 30
0.0
 10
33.0455840882863
 20
-53.07728829074954
 30
0.0
 10
33.38477656844903
 20
-53.37937552761097
 30
0.0
 10
33.87007311170056
 20
-53.78146015157711
 30
0.0
 10
34.28513869161154
 20
-54.10833501591665
 30
0.0
 10
34.73789334550029
 20
-54.44703895776521
 30
0.0
 10
35.22916350629921
 20
-54.79588712773298
 30
0.0
 10
35.6576705164902
 20
-55.08444659673999
 30
0.0
 10
35.92267814696745
 20
-55.2561057268856
 30
0.0
 10
36.00906096120558
 20
-55.31136889187014
 30
0.0
  0
ARC
  5
125
330
1F
100
AcDbEntity
  8
0
  6
Continuous
 62
     7
370
    25
100
AcDbCircle
 10
0.0
 20
0.0
 30
0.0
 40
66.0
100
AcDbArc
 50
303.0651166925
 51
304.4348833075
  0
SPLINE
  5
126
330
1F
100
AcDbEntity
  8
0
  6
Continuous
 62
     7
370
    25
100
AcDbSpline
210
0.0
220
0.0
230
1.0
 70
     8
 71
     3
 72
    14
 73
    10
 74
     0
 42
0.000000001
 43
0.00000001
 40
0.3140262138470567
 40
0.3140262138470567
 40
0.3140262138470567
 40
0.3140262138470567
 40
0.3667108195896758
 40
0.4762409366480478
 40
0.5794176423122134
 40
0.6762409365885453
 40
0.7667108194847762
 40
0.8508272910103719
 40
1.0
 40
1.0
 40
1.0
 40
1.0
 10
37.32097058950182
 20
-54.43477890336195
 30
0.0
 10
37.30297135432082
 20
-54.33382329166699
 30
0.0
 10
37.24579302704459
 20
-54.02329706078881
 30
0.0
 10
37.14318137316907
 20
-53.51698127649469
 30
0.0
 10
37.00888864033493
 20
-52.92960841494148
 30
0.0
 10
36.86922870584957
 20
-52.38170126994226
 30
0.0
 10
36.72607442977078
 20
-51.87314108097321
 30
0.0
 10
36.54031162223742
 20
-51.2709144134641
 30
0.0
 10
36.39102274960933
 20
-50.84193764278415
 30
0.0
 10
36.28828299950693
 20
-50.57035805728162
 30
0.0
  0
LINE
  5
127
330
1F
100
AcDbEntity
  8
0
  6
Continuous
 62
     7
370
    25
100
AcDbLine
 10
36.2882829995
 20
-50.5703580573
 30
0.0
 11
36.2767860015
 21
-50.5379451466
 31
0.0
  0
SPLINE
  5
128
330
1F
100
AcDbEntity
  8
0
  6
Continuous
 62
     7
370
    25
100
AcDbSpline
210
0.0
220
0.0
230
1.0
 70
     8
 71
     3
 72
    15
 73
    11
 74
     0
 42
0.000000001
 43
0.00000001
 40
0.0
 40
0.0
 40
0.0
 40
0.0
 40
0.089398154854713
 40
0.153239276293117
 40
0.2229388537733802
 40
0.3017481308857564
 40
0.3942398025453073
 40
0.5064297554373132
 40
0.6447484245704628
 40
1.0
 40
1.0
 40
1.0
 40
1.0
 10
36.27678600151388
 20
-50.53794514662194
 30
0.0
 10
36.26446012935867
 20
-50.50499869099217
 30
0.0
 10
36.24643061252669
 20
-50.44741002979997
 30
0.0
 10
36.22542383131992
 20
-50.36221113236159
 30
0.0
 10
36.21095045853216
 20
-50.27985365038943
 30
0.0
 10
36.20221575264294
 20
-50.18531437089032
 30
0.0
 10
36.20354222053551
 20
-50.0735408435763
 30
0.0
 10
36.22318400765155
 20
-49.9395257938808
 30
0.0
 10
36.29817772405225
 20
-49.71172631169279
 30
0.0
 10
36.42277999413222
 20
-49.5538565700636
 30
0.0
 10
36.53608835160365
 20
-49.47084240200294
 30
0.0
  0
ARC
  5
129
330
1F
100
AcDbEntity
  8
0
  6
Continuous
 62
     7
370
    25
100
AcDbCircle
 10
0.0
 20
0.0
 30
0.0
 40
61.50000000000001
100
AcDbArc
 50
306.4472701194
 51
306.6777298806
  0
SPLINE
  5
12A
330
1F
100
AcDbEntity
  8
0
  6
Continuous
 62
     7
370
    25
100
AcDbSpline
210
0.0
220
0.0
230
1.0
 70
     8
 71
     3
 72
    15
 73
    11
 74
     0
 42
0.000000001
 43
0.00000001
 40
0.0
 40
0.0
 40
0.0
 40
0.0
 40
0.3552515754295372
 40
0.4935702445626868
 40
0.6057601974546927
 40
0.6982518691142436
 40
0.7770611462266198
 40
0.846760723706883
 40
0.910601845145287
 40
1.0
 40
1.0
 40
1.0
 40
1.0
 10
36.73477792184158
 20
-49.32348417369743
 30
0.0
 10
36.8471092076749
 20
-49.23915257704049
 30
0.0
 10
37.03435126098686
 20
-49.16574280587425
 30
0.0
 10
37.27411130071295
 20
-49.16010499288963
 30
0.0
 10
37.4080574171954
 20
-49.18021148998053
 30
0.0
 10
37.51540306725335
 20
-49.21138828165201
 30
0.0
 10
37.60333596583715
 20
-49.24719017827545
 30
0.0
 10
37.67794576393716
 20
-49.28494744756392
 30
0.0
 10
37.75337807875308
 20
-49.32978161826988
 30
0.0
 10
37.80325329905409
 20
-49.36375189608788
 30
0.0
 10
37.83120307954518
 20
-49.38511087156545
 30
0.0
  0
LINE
  5
12B
330
1F
100
AcDbEntity
  8
0
  6
Continuous
 62
     7
370
    25
100
AcDbLine
 10
37.8312030795
 20
-49.3851108716
 30
0.0
 11
37.8588828988
 21
-49.405521784
 31
0.0
  0
SPLINE
  5
12C
330
1F
100
AcDbEntity
  8
0
  6
Continuous
 62
     7
370
    25
100
AcDbSpline
210
0.0
220
0.0
230
1.0
 70
     8
 71
     3
 72
    14
 73
    10
 74
     0
 42
0.000000001
 43
0.00000001
 40
0.0
 40
0.0
 40
0.0
 40
0.0
 40
0.1491727089896281
 40
0.2332891805152238
 40
0.3237590634114546
 40
0.4205823576877865
 40
0.5237590633519522
 40
0.6332891804103242
 40
0.6859737861529438
 40
0.6859737861529438
 40
0.6859737861529438
 40
0.6859737861529438
 10
37.85888289880211
 20
-49.40552178399457
 30
0.0
 10
38.08894458333123
 20
-49.58267298727711
 30
0.0
 10
38.45611348607847
 20
-49.85005891459738
 30
0.0
 10
38.97848437884085
 20
-50.20264001181688
 30
0.0
 10
39.42359064398378
 20
-50.48725734314853
 30
0.0
 10
39.90736395226196
 20
-50.77995261649482
 30
0.0
 10
40.43046161298829
 20
-51.07896809088353
 30
0.0
 10
40.88518901876941
 20
-51.32413703542586
 30
0.0
 10
41.1657461021203
 20
-51.46899428983571
 30
0.0
 10
41.2571296968944
 20
-51.51552435115065
 30
0.0
  0
ARC
  5
12D
330
1F
100
AcDbEntity
  8
0
  6
Continuous
 62
     7
370
    25
100
AcDbCircle
 10
0.0
 20
0.0
 30
0.0
 40
66.0
100
AcDbArc
 50
308.6901166925
 51
310.0598833075
  0
SPLINE
  5
12E
330
1F
100
AcDbEntity
  8
0
  6
Continuous
 62
     7
370
    25
100
AcDbSpline
210
0.0
220
0.0
230
1.0
 70
     8
 71
     3
 72
    14
 73
    10
 74
     0
 42
0.000000001
 43
0.00000001
 40
0.3140262138470582
 40
0.3140262138470582
 40
0.3140262138470582
 40
0.3140262138470582
 40
0.3667108195896758
 40
0.4762409366480478
 40
0.5794176423122134
 40
0.6762409365885453
 40
0.7667108194847762
 40
0.8508272910103719
 40
1.0
 40
1.0
 40
1.0
 40
1.0
 10
42.4768012778339
 20
-50.51456575289711
 30
0.0
 10
42.44899333353142
 20
-50.41586050362699
 30
0.0
 10
42.36165344238147
 20
-50.1124339975544
 30
0.0
 10
42.20990826638575
 20
-49.6186139630292
 30
0.0
 10
42.0186895815695
 20
-49.04723245198916
 30
0.0
 10
41.82599785632268
 20
-48.51565269704822
 30
0.0
 10
41.63368529180305
 20
-48.0235729371599
 30
0.0
 10
41.38978844718265
 20
-47.44245409483414
 30
0.0
 10
41.1991713649512
 20
-47.03017583293433
 30
0.0
 10
41.07030688048434
 20
-46.76997423386945
 30
0.0
  0
LINE
  5
12F
330
1F
100
AcDbEntity
  8
0
  6
Continuous
 62
     7
370
    25
100
AcDbLine
 10
41.0703068805
 20
-46.7699742339
 30
0.0
 11
41.0556882229
 21
-46.7388443031
 31
0.0
  0
SPLINE
  5
130
330
1F
100
AcDbEntity
  8
0
  6
Continuous
 62
     7
370
    25
100
AcDbSpline
210
0.0
220
0.0
230
1.0
 70
     8
 71
     3
 72
    15
 73
    11
 74
     0
 42
0.000000001
 43
0.00000001
 40
0.0
 40
0.0
 40
0.0
 40
0.0
 40
0.089398154854713
 40
0.153239276293117
 40
0.2229388537733802
 40
0.3017481308857564
 40
0.3942398025453073
 40
0.5064297554373132
 40
0.6447484245704628
 40
1.0
 40
1.0
 40
1.0
 40
1.0
 10
41.05568822286646
 20
-46.7388443030996
 30
0.0
 10
41.04019238578985
 20
-46.70726464039959
 30
0.0
 10
41.0166050101239
 20
-46.65172048603301
 30
0.0
 10
40.98734843002426
 20
-46.56899086919444
 30
0.0
 10
40.96487230561478
 20
-46.48844859962016
 30
0.0
 10
40.94691318989653
 20
-46.39522070348492
 30
0.0
 10
40.93727754897178
 20
-46.28385537966616
 30
0.0
 10
40.94368898358193
 20
-46.14856041726091
 30
0.0
 10
40.99599333092767
 20
-45.91450718221929
 30
0.0
 10
41.10452166640088
 20
-45.74518446835442
 30
0.0
 10
41.20914760180062
 20
-45.65146387502827
 30
0.0
  0
ARC
  5
131
330
1F
100
AcDbEntity
  8
0
  6
Continuous
 62
     7
370
    25
100
AcDbCircle
 10
0.0
 20
0.0
 30
0.0
 40
61.50000000000001
100
AcDbArc
 50
312.0722701194
 51
312.3027298806
  0
SPLINE
  5
132
330
1F
100
AcDbEntity
  8
0
  6
Continuous
 62
     7
370
    25
100
AcDbSpline
210
0.0
220
0.0
230
1.0
 70
     8
 71
     3
 72
    15
 73
    11
 74
     0
 42
0.000000001
 43
0.00000001
 40
0.0
 40
0.0
 40
0.0
 40
0.0
 40
0.3552515754295372
 40
0.4935702445626868
 40
0.6057601974546927
 40
0.6982518691142436
 40
0.7770611462266198
 40
0.846760723706883
 40
0.910601845145287
 40
1.0
 40
1.0
 40
1.0
 40
1.0
 10
41.39243679530794
 20
-45.48534023338111
 30
0.0
 10
41.49596123335296
 20
-45.39040432500531
 30
0.0
 10
41.6751062491578
 20
-45.29899511133711
 30
0.0
 10
41.91315917645306
 20
-45.26988385250372
 30
0.0
 10
42.04843108712036
 20
-45.2767645160196
 30
0.0
 10
42.158315698497
 20
-45.29726946927222
 30
0.0
 10
42.24933437566502
 20
-45.32428003871767
 30
0.0
 10
42.32728576675655
 20
-45.35454245738408
 30
0.0
 10
42.40674937156052
 20
-45.39176707951697
 30
0.0
 10
42.45971409853143
 20
-45.42068515469505
 30
0.0
 10
42.48962283888669
 20
-45.43920172331112
 30
0.0
  0
LINE
  5
133
330
1F
100
AcDbEntity
  8
0
  6
Continuous
 62
     7
370
    25
100
AcDbLine
 10
42.4896228389
 20
-45.4392017233
 30
0.0
 11
42.5191699915
 21
-45.4568012549
 31
0.0
  0
SPLINE
  5
134
330
1F
100
AcDbEntity
  8
0
  6
Continuous
 62
     7
370
    25
100
AcDbSpline
210
0.0
220
0.0
230
1.0
 70
     8
 71
     3
 72
    14
 73
    10
 74
     0
 42
0.000000001
 43
0.00000001
 40
0.0
 40
0.0
 40
0.0
 40
0.0
 40
0.1491727089896281
 40
0.2332891805152238
 40
0.3237590634114546
 40
0.4205823576877865
 40
0.5237590633519522
 40
0.6332891804103242
 40
0.6859737861529442
 40
0.6859737861529442
 40
0.6859737861529442
 40
0.6859737861529442
 10
42.51916999151604
 20
-45.4568012548896
 30
0.0
 10
42.76548772050361
 20
-45.61054943829106
 30
0.0
 10
43.15709700858694
 20
-45.84065898342204
 30
0.0
 10
43.7115115336059
 20
-46.14034100518824
 30
0.0
 10
44.1823718673276
 20
-46.37995978302362
 30
0.0
 10
44.69250482857911
 20
-46.62382757238178
 30
0.0
 10
45.24239227280577
 20
-46.8701306687146
 30
0.0
 10
45.71896080068008
 20
-47.06954797783332
 30
0.0
 10
46.01236541882383
 20
-47.18620830196042
 30
0.0
 10
46.10786972016086
 20
-47.22355714967938
 30
0.0
  0
ARC
  5
135
330
1F
100
AcDbEntity
  8
0
  6
Continuous
 62
     7
370
    25
100
AcDbCircle
 10
0.0
 20
0.0
 30
0.0
 40
66.0
100
AcDbArc
 50
314.3151166925
 51
315.6848833075
  0
SPLINE
  5
136
330
1F
100
AcDbEntity
  8
0
  6
Continuous
 62
     7
370
    25
100
AcDbSpline
210
0.0
220
0.0
230
1.0
 70
     8
 71
     3
 72
    14
 73
    10
 74
     0
 42
0.000000001
 43
0.00000001
 40
0.3140262138470544
 40
0.3140262138470544
 40
0.3140262138470544
 40
0.3140262138470544
 40
0.3667108195896758
 40
0.4762409366480478
 40
0.5794176423122134
 40
0.6762409365885453
 40
0.7667108194847762
 40
0.8508272910103719
 40
1.0
 40
1.0
 40
1.0
 40
1.0
 10
47.22355714967891
 20
-46.10786972016135
 30
0.0
 10
47.18620830195996
 20
-46.01236541882433
 30
0.0
 10
47.06954797783288
 20
-45.71896080068058
 30
0.0
 10
46.87013066871413
 20
-45.24239227280626
 30
0.0
 10
46.62382757238133
 20
-44.69250482857959
 30
0.0
 10
46.37995978302318
 20
-44.18237186732808
 30
0.0
 10
46.14034100518778
 20
-43.71151153360636
 30
0.0
 10
45.84065898342162
 20
-43.15709700858743
 30
0.0
 10
45.6105494382906
 20
-42.76548772050405
 30
0.0
 10
45.45680125488917
 20
-42.51916999151651
 30
0.0
  0
LINE
  5
137
330
1F
100
AcDbEntity
  8
0
  6
Continuous
 62
     7
370
    25
100
AcDbLine
 10
45.4568012549
 20
-42.5191699915
 30
0.0
 11
45.4392017233
 21
-42.4896228389
 31
0.0
  0
SPLINE
  5
138
330
1F
100
AcDbEntity
  8
0
  6
Continuous
 62
     7
370
    25
100
AcDbSpline
210
0.0
220
0.0
230
1.0
 70
     8
 71
     3
 72
    15
 73
    11
 74
     0
 42
0.000000001
 43
0.00000001
 40
0.0
 40
0.0
 40
0.0
 40
0.0
 40
0.089398154854713
 40
0.153239276293117
 40
0.2229388537733802
 40
0.3017481308857564
 40
0.3942398025453073
 40
0.5064297554373132
 40
0.6447484245704628
 40
1.0
 40
1.0
 40
1.0
 40
1.0
 10
45.43920172331069
 20
-42.48962283888716
 30
0.0
 10
45.42068515469462
 20
-42.4597140985319
 30
0.0
 10
45.39176707951656
 20
-42.40674937156101
 30
0.0
 10
45.35454245738364
 20
-42.32728576675702
 30
0.0
 10
45.32428003871724
 20
-42.24933437566548
 30
0.0
 10
45.29726946927178
 20
-42.15831569849747
 30
0.0
 10
45.27676451601917
 20
-42.04843108712083
 30
0.0
 10
45.2698838525033
 20
-41.91315917645353
 30
0.0
 10
45.29899511133667
 20
-41.67510624915825
 30
0.0
 10
45.39040432500489
 20
-41.49596123335343
 30
0.0
 10
45.48534023338068
 20
-41.39243679530841
 30
0.0
  0
ARC
  5
139
330
1F
100
AcDbEntity
  8
0
  6
Continuous
 62
     7
370
    25
100
AcDbCircle
 10
0.0
 20
0.0
 30
0.0
 40
61.50000000000001
100
AcDbArc
 50
317.6972701194
 51
317.9277298806
  0
SPLINE
  5
13A
330
1F
100
AcDbEntity
  8
0
  6
Continuous
 62
     7
370
    25
100
AcDbSpline
210
0.0
220
0.0
230
1.0
 70
     8
 71
     3
 72
    15
 73
    11
 74
     0
 42
0.000000001
 43
0.00000001
 40
0.0
 40
0.0
 40
0.0
 40
0.0
 40
0.3552515754295372
 40
0.4935702445626868
 40
0.6057601974546927
 40
0.6982518691142436
 40
0.7770611462266198
 40
0.846760723706883
 40
0.910601845145287
 40
1.0
 40
1.0
 40
1.0
 40
1.0
 10
45.65146387502786
 20
-41.2091476018011
 30
0.0
 10
45.74518446835401
 20
-41.10452166640136
 30
0.0
 10
45.9145071822189
 20
-40.99599333092816
 30
0.0
 10
46.1485604172605
 20
-40.94368898358241
 30
0.0
 10
46.28385537966576
 20
-40.93727754897226
 30
0.0
 10
46.39522070348451
 20
-40.94691318989702
 30
0.0
 10
46.48844859961975
 20
-40.96487230561527
 30
0.0
 10
46.56899086919404
 20
-40.98734843002473
 30
0.0
 10
46.65172048603258
 20
-41.01660501012438
 30
0.0
 10
46.70726464039918
 20
-41.04019238579033
 30
0.0
 10
46.7388443030992
 20
-41.05568822286694
 30
0.0
  0
LINE
  5
13B
330
1F
100
AcDbEntity
  8
0
  6
Continuous
 62
     7
370
    25
100
AcDbLine
 10
46.7388443031
 20
-41.0556882229
 30
0.0
 11
46.7699742339
 21
-41.0703068805
 31
0.0
  0
SPLINE
  5
13C
330
1F
100
AcDbEntity
  8
0
  6
Continuous
 62
     7
370
    25
100
AcDbSpline
210
0.0
220
0.0
230
1.0
 70
     8
 71
     3
 72
    14
 73
    10
 74
     0
 42
0.000000001
 43
0.00000001
 40
0.0
 40
0.0
 40
0.0
 40
0.0
 40
0.1491727089896281
 40
0.2332891805152238
 40
0.3237590634114546
 40
0.4205823576877865
 40
0.5237590633519522
 40
0.6332891804103242
 40
0.6859737861529424
 40
0.6859737861529424
 40
0.6859737861529424
 40
0.6859737861529424
 10
46.76997423386905
 20
-41.07030688048482
 30
0.0
 10
47.03017583293393
 20
-41.19917136495171
 30
0.0
 10
47.44245409483371
 20
-41.38978844718313
 30
0.0
 10
48.0235729371595
 20
-41.63368529180357
 30
0.0
 10
48.5156526970478
 20
-41.82599785632317
 30
0.0
 10
49.04723245198874
 20
-42.01868958157002
 30
0.0
 10
49.61861396302878
 20
-42.20990826638626
 30
0.0
 10
50.11243399755398
 20
-42.36165344238198
 30
0.0
 10
50.41586050362658
 20
-42.44899333353195
 30
0.0
 10
50.51456575289669
 20
-42.47680127783443
 30
0.0
  0
ARC
  5
13D
330
1F
100
AcDbEntity
  8
0
  6
Continuous
 62
     7
370
    25
100
AcDbCircle
 10
0.0
 20
0.0
 30
0.0
 40
66.0
100
AcDbArc
 50
319.9401166925
 51
321.3098833075
  0
SPLINE
  5
13E
330
1F
100
AcDbEntity
  8
0
  6
Continuous
 62
     7
370
    25
100
AcDbSpline
210
0.0
220
0.0
230
1.0
 70
     8
 71
     3
 72
    14
 73
    10
 74
     0
 42
0.000000001
 43
0.00000001
 40
0.3140262138470596
 40
0.3140262138470596
 40
0.3140262138470596
 40
0.3140262138470596
 40
0.3667108195896758
 40
0.4762409366480478
 40
0.5794176423122134
 40
0.6762409365885453
 40
0.7667108194847762
 40
0.8508272910103719
 40
1.0
 40
1.0
 40
1.0
 40
1.0
 10
51.51552435115022
 20
-41.2571296968949
 30
0.0
 10
51.46899428983529
 20
-41.16574610212081
 30
0.0
 10
51.32413703542546
 20
-40.88518901876994
 30
0.0
 10
51.07896809088312
 20
-40.43046161298881
 30
0.0
 10
50.77995261649442
 20
-39.90736395226249
 30
0.0
 10
50.48725734314816
 20
-39.4235906439843
 30
0.0
 10
50.20264001181647
 20
-38.97848437884136
 30
0.0
 10
49.85005891459703
 20
-38.456113486079
 30
0.0
 10
49.58267298727672
 20
-38.08894458333174
 30
0.0
 10
49.40552178399419
 20
-37.85888289880262
 30
0.0
  0
LINE
  5
13F
330
1F
100
AcDbEntity
  8
0
  6
Continuous
 62
     7
370
    25
100
AcDbLine
 10
49.405521784
 20
-37.8588828988
 30
0.0
 11
49.3851108716
 21
-37.8312030795
 31
0.0
  0
SPLINE
  5
140
330
1F
100
AcDbEntity
  8
0
  6
Continuous
 62
     7
370
    25
100
AcDbSpline
210
0.0
220
0.0
230
1.0
 70
     8
 71
     3
 72
    15
 73
    11
 74
     0
 42
0.000000001
 43
0.00000001
 40
0.0
 40
0.0
 40
0.0
 40
0.0
 40
0.089398154854713
 40
0.153239276293117
 40
0.2229388537733802
 40
0.3017481308857564
 40
0.3942398025453073
 40
0.5064297554373132
 40
0.6447484245704628
 40
1.0
 40
1.0
 40
1.0
 40
1.0
 10
49.38511087156509
 20
-37.83120307954569
 30
0.0
 10
49.36375189608751
 20
-37.80325329905461
 30
0.0
 10
49.32978161826953
 20
-37.7533780787536
 30
0.0
 10
49.28494744756355
 20
-37.67794576393766
 30
0.0
 10
49.24719017827507
 20
-37.60333596583766
 30
0.0
 10
49.21138828165165
 20
-37.51540306725386
 30
0.0
 10
49.18021148998015
 20
-37.40805741719592
 30
0.0
 10
49.16010499288927
 20
-37.27411130071346
 30
0.0
 10
49.16574280587388
 20
-37.03435126098736
 30
0.0
 10
49.23915257704012
 20
-36.84710920767542
 30
0.0
 10
49.32348417369707
 20
-36.7347779218421
 30
0.0
  0
ARC
  5
141
330
1F
100
AcDbEntity
  8
0
  6
Continuous
 62
     7
370
    25
100
AcDbCircle
 10
0.0
 20
0.0
 30
0.0
 40
61.50000000000001
100
AcDbArc
 50
323.3222701194
 51
323.5527298806
  0
SPLINE
  5
142
330
1F
100
AcDbEntity
  8
0
  6
Continuous
 62
     7
370
    25
100
AcDbSpline
210
0.0
220
0.0
230
1.0
 70
     8
 71
     3
 72
    15
 73
    11
 74
     0
 42
0.000000001
 43
0.00000001
 40
0.0
 40
0.0
 40
0.0
 40
0.0
 40
0.3552515754295372
 40
0.4935702445626868
 40
0.6057601974546927
 40
0.6982518691142436
 40
0.7770611462266198
 40
0.846760723706883
 40
0.910601845145287
 40
1.0
 40
1.0
 40
1.0
 40
1.0
 10
49.47084240200257
 20
-36.53608835160416
 30
0.0
 10
49.55385657006322
 20
-36.42277999413273
 30
0.0
 10
49.71172631169244
 20
-36.29817772405277
 30
0.0
 10
49.93952579388043
 20
-36.22318400765205
 30
0.0
 10
50.07354084357593
 20
-36.20354222053602
 30
0.0
 10
50.18531437088996
 20
-36.20221575264345
 30
0.0
 10
50.27985365038908
 20
-36.21095045853268
 30
0.0
 10
50.36221113236122
 20
-36.22542383132043
 30
0.0
 10
50.44741002979958
 20
-36.24643061252718
 30
0.0
 10
50.50499869099178
 20
-36.26446012935918
 30
0.0
 10
50.53794514662157
 20
-36.2767860015144
 30
0.0
  0
LINE
  5
143
330
1F
100
AcDbEntity
  8
0
  6
Continuous
 62
     7
370
    25
100
AcDbLine
 10
50.5379451466
 20
-36.2767860015
 30
0.0
 11
50.5703580573
 21
-36.2882829995
 31
0.0
  0
SPLINE
  5
144
330
1F
100
AcDbEntity
  8
0
  6
Continuous
 62
     7
370
    25
100
AcDbSpline
210
0.0
220
0.0
230
1.0
 70
     8
 71
     3
 72
    14
 73
    10
 74
     0
 42
0.000000001
 43
0.00000001
 40
0.0
 40
0.0
 40
0.0
 40
0.0
 40
0.1491727089896281
 40
0.2332891805152238
 40
0.3237590634114546
 40
0.4205823576877865
 40
0.5237590633519522
 40
0.6332891804103242
 40
0.6859737861529441
 40
0.6859737861529441
 40
0.6859737861529441
 40
0.6859737861529441
 10
50.57035805728126
 20
-36.28828299950744
 30
0.0
 10
50.8419376427838
 20
-36.39102274960985
 30
0.0
 10
51.2709144134637
 20
-36.54031162223793
 30
0.0
 10
51.87314108097285
 20
-36.72607442977134
 30
0.0
 10
52.38170126994187
 20
-36.8692287058501
 30
0.0
 10
52.92960841494111
 20
-37.00888864033546
 30
0.0
 10
53.51698127649431
 20
-37.14318137316961
 30
0.0
 10
54.02329706078843
 20
-37.24579302704513
 30
0.0
 10
54.33382329166661
 20
-37.30297135432137
 30
0.0
 10
54.43477890336157
 20
-37.32097058950237
 30
0.0
  0
ARC
  5
145
330
1F
100
AcDbEntity
  8
0
  6
Continuous
 62
     7
370
    25
100
AcDbCircle
 10
0.0
 20
0.0
 30
0.0
 40
66.0
100
AcDbArc
 50
325.5651166925
 51
326.9348833075
  0
SPLINE
  5
146
330
1F
100
AcDbEntity
  8
0
  6
Continuous
 62
     7
370
    25
100
AcDbSpline
210
0.0
220
0.0
230
1.0
 70
     8
 71
     3
 72
    14
 73
    10
 74
     0
 42
0.000000001
 43
0.00000001
 40
0.3140262138470573
 40
0.3140262138470573
 40
0.3140262138470573
 40
0.3140262138470573
 40
0.3667108195896758
 40
0.4762409366480478
 40
0.5794176423122134
 40
0.6762409365885453
 40
0.7667108194847762
 40
0.8508272910103719
 40
1.0
 40
1.0
 40
1.0
 40
1.0
 10
55.31136889186977
 20
-36.00906096120614
 30
0.0
 10
55.25610572688524
 20
-35.92267814696802
 30
0.0
 10
55.08444659673965
 20
-35.65767051649077
 30
0.0
 10
54.79588712773263
 20
-35.22916350629977
 30
0.0
 10
54.44703895776485
 20
-34.73789334550084
 30
0.0
 10
54.10833501591631
 20
-34.28513869161209
 30
0.0
 10
53.78146015157674
 20
-33.8700731117011
 30
0.0
 10
53.37937552761065
 20
-33.38477656844958
 30
0.0
 10
53.07728829074917
 20
-33.04558408828682
 30
0.0
 10
52.87844013051387
 20
-32.83399406800266
 30
0.0
  0
LINE
  5
147
330
1F
100
AcDbEntity
  8
0
  6
Continuous
 62
     7
370
    25
100
AcDbLine
 10
52.8784401305
 20
-32.833994068
 30
0.0
 11
52.8554144055
 21
-32.8084481539
 31
0.0
  0
SPLINE
  5
148
330
1F
100
AcDbEntity
  8
0
  6
Continuous
 62
     7
370
    25
100
AcDbSpline
210
0.0
220
0.0
230
1.0
 70
     8
 71
     3
 72
    15
 73
    11
 74
     0
 42
0.000000001
 43
0.00000001
 40
0.0
 40
0.0
 40
0.0
 40
0.0
 40
0.089398154854713
 40
0.153239276293117
 40
0.2229388537733802
 40
0.3017481308857564
 40
0.3942398025453073
 40
0.5064297554373132
 40
0.6447484245704628
 40
1.0
 40
1.0
 40
1.0
 40
1.0
 10
52.85541440547857
 20
-32.80844815390894
 30
0.0
 10
52.83141872174934
 20
-32.78272650494705
 30
0.0
 10
52.79272339363687
 20
-32.736421116952
 30
0.0
 10
52.74071145193056
 20
-32.6657465465513
 30
0.0
 10
52.69582295516349
 20
-32.59519687458437
 30
0.0
 10
52.65157452319789
 20
-32.51119659646717
 30
0.0
 10
52.61002614265429
 20
-32.4074237050191
 30
0.0
 10
52.57688744854669
 20
-32.2760933570456
 30
0.0
 10
52.55899752046155
 20
-32.03693522513739
 30
0.0
 10
52.61370087289963
 20
-31.84339937764865
 30
0.0
 10
52.68661599846158
 20
-31.72334305571614
 30
0.0
  0
ARC
  5
149
330
1F
100
AcDbEntity
  8
0
  6
Continuous
 62
     7
370
    25
100
AcDbCircle
 10
0.0
 20
0.0
 30
0.0
 40
61.50000000000001
100
AcDbArc
 50
328.9472701194
 51
329.1777298806
  0
SPLINE
  5
14A
330
1F
100
AcDbEntity
  8
0
  6
Continuous
 62
     7
370
    25
100
AcDbSpline
210
0.0
220
0.0
230
1.0
 70
     8
 71
     3
 72
    15
 73
    11
 74
     0
 42
0.000000001
 43
0.00000001
 40
0.0
 40
0.0
 40
0.0
 40
0.0
 40
0.3552515754295372
 40
0.4935702445626868
 40
0.6057601974546927
 40
0.6982518691142436
 40
0.7770611462266198
 40
0.846760723706883
 40
0.910601845145287
 40
1.0
 40
1.0
 40
1.0
 40
1.0
 10
52.81378967313269
 20
-31.51116659792373
 30
0.0
 10
52.88529794410926
 20
-31.3902670398037
 30
0.0
 10
53.03019434159053
 20
-31.25079082309238
 30
0.0
 10
53.24954623738357
 20
-31.15382996812139
 30
0.0
 10
53.38099073618068
 20
-31.12114698964669
 30
0.0
 10
53.49209602682029
 20
-31.10887118754771
 30
0.0
 10
53.58703622474129
 20
-31.10829736361532
 30
0.0
 10
53.67041577153874
 20
-31.11462859828947
 30
0.0
 10
53.75726343762011
 20
-31.12718327381684
 30
0.0
 10
53.8163419953495
 20
-31.13948129771185
 30
0.0
 10
53.85033795153096
 20
-31.14851850005881
 30
0.0
  0
LINE
  5
14B
330
1F
100
AcDbEntity
  8
0
  6
Continuous
 62
     7
370
    25
100
AcDbLine
 10
53.8503379515
 20
-31.1485185001
 30
0.0
 11
53.883721688
 21
-31.1567831161
 31
0.0
  0
SPLINE
  5
14C
330
1F
100
AcDbEntity
  8
0
  6
Continuous
 62
     7
370
    25
100
AcDbSpline
210
0.0
220
0.0
230
1.0
 70
     8
 71
     3
 72
    14
 73
    10
 74
     0
 42
0.000000001
 43
0.00000001
 40
0.0
 40
0.0
 40
0.0
 40
0.0
 40
0.1491727089896281
 40
0.2332891805152238
 40
0.3237590634114546
 40
0.4205823576877865
 40
0.5237590633519522
 40
0.6332891804103242
 40
0.6859737861529446
 40
0.6859737861529446
 40
0.6859737861529446
 40
0.6859737861529446
 10
53.88372168803212
 20
-31.15678311605146
 30
0.0
 10
54.16406380010343
 20
-31.23240869183265
 30
0.0
 10
54.60560779875926
 20
-31.33893162140436
 30
0.0
 10
55.22314251943308
 20
-31.4647713944659
 30
0.0
 10
55.74328542485576
 20
-31.5573887281691
 30
0.0
 10
56.30224331459044
 20
-31.64267187037802
 30
0.0
 10
56.89995080490937
 20
-31.718745338801
 30
0.0
 10
57.4138862411893
 20
-31.77123526423625
 30
0.0
 10
57.72852165951879
 20
-31.79770136909024
 30
0.0
 10
57.83075537591004
 20
-31.8057185526756
 30
0.0
  0
ARC
  5
14D
330
1F
100
AcDbEntity
  8
0
  6
Continuous
 62
     7
370
    25
100
AcDbCircle
 10
0.0
 20
0.0
 30
0.0
 40
66.0
100
AcDbArc
 50
331.1901166925
 51
332.5598833075
  0
SPLINE
  5
14E
330
1F
100
AcDbEntity
  8
0
  6
Continuous
 62
     7
370
    25
100
AcDbSpline
210
0.0
220
0.0
230
1.0
 70
     8
 71
     3
 72
    14
 73
    10
 74
     0
 42
0.000000001
 43
0.00000001
 40
0.3140262138470568
 40
0.3140262138470568
 40
0.3140262138470568
 40
0.3140262138470568
 40
0.3667108195896758
 40
0.4762409366480478
 40
0.5794176423122134
 40
0.6762409365885453
 40
0.7667108194847762
 40
0.8508272910103719
 40
1.0
 40
1.0
 40
1.0
 40
1.0
 10
58.57453471389073
 20
-30.41420528390589
 30
0.0
 10
58.51107065972532
 20
-30.33365516392649
 30
0.0
 10
58.3142628251057
 20
-30.08674915467227
 30
0.0
 10
57.98509181706318
 20
-29.6885892968253
 30
0.0
 10
57.58977055009296
 20
-29.23387783615785
 30
0.0
 10
57.20831984385654
 20
-28.81650211147637
 30
0.0
 10
56.84233543014064
 20
-28.43547452522977
 30
0.0
 10
56.39461957415853
 20
-27.99192600249071
 30
0.0
 10
56.06074029298454
 20
-27.68397655391788
 30
0.0
 10
55.84211019228096
 20
-27.49289592544089
 30
0.0
  0
LINE
  5
14F
330
1F
100
AcDbEntity
  8
0
  6
Continuous
 62
     7
370
    25
100
AcDbLine
 10
55.8421101923
 20
-27.4928959254
 30
0.0
 11
55.816691405
 21
-27.4697299376
 31
0.0
  0
SPLINE
  5
150
330
1F
100
AcDbEntity
  8
0
  6
Continuous
 62
     7
370
    25
100
AcDbSpline
210
0.0
220
0.0
230
1.0
 70
     8
 71
     3
 72
    15
 73
    11
 74
     0
 42
0.000000001
 43
0.00000001
 40
0.0
 40
0.0
 40
0.0
 40
0.0
 40
0.089398154854713
 40
0.153239276293117
 40
0.2229388537733802
 40
0.3017481308857564
 40
0.3942398025453073
 40
0.5064297554373132
 40
0.6447484245704628
 40
1.0
 40
1.0
 40
1.0
 40
1.0
 10
55.8166914049587
 20
-27.46972993762791
 30
0.0
 10
55.79029010452953
 20
-27.4464841337356
 30
0.0
 10
55.74724238328529
 20
-27.40419452424599
 30
0.0
 10
55.68855357400991
 20
-27.33895833300814
 30
0.0
 10
55.63696615052666
 20
-27.27314821908173
 30
0.0
 10
55.58469731980737
 20
-27.1938895300286
 30
0.0
 10
55.53317748400893
 20
-27.09468878686308
 30
0.0
 10
55.48732573662435
 20
-26.96723899044199
 30
0.0
 10
55.44608035725656
 20
-26.7309859898991
 30
0.0
 10
55.48155046777859
 20
-26.53302020424232
 30
0.0
 10
55.54234690972692
 20
-26.40639505422029
 30
0.0
  0
ARC
  5
151
330
1F
100
AcDbEntity
  8
0
  6
Continuous
 62
     7
370
    25
100
AcDbCircle
 10
0.0
 20
0.0
 30
0.0
 40
61.50000000000001
100
AcDbArc
 50
334.5722701194
 51
334.8027298806
  0
SPLINE
  5
152
330
1F
100
AcDbEntity
  8
0
  6
Continuous
 62
     7
370
    25
100
AcDbSpline
210
0.0
220
0.0
230
1.0
 70
     8
 71
     3
 72
    15
 73
    11
 74
     0
 42
0.000000001
 43
0.00000001
 40
0.0
 40
0.0
 40
0.0
 40
0.0
 40
0.3552515754295372
 40
0.4935702445626868
 40
0.6057601974546927
 40
0.6982518691142436
 40
0.7770611462266198
 40
0.846760723706883
 40
0.910601845145287
 40
1.0
 40
1.0
 40
1.0
 40
1.0
 10
55.64811127875632
 20
-26.18277508414944
 30
0.0
 10
55.7074249889089
 20
-26.05544865421594
 30
0.0
 10
55.83795261072606
 20
-25.90244172308564
 30
0.0
 10
56.04674444145771
 20
-25.78444751558193
 30
0.0
 10
56.17435250697814
 20
-25.73903810069761
 30
0.0
 10
56.28371955625816
 20
-25.71593118707708
 30
0.0
 10
56.37814634659548
 20
-25.70605435956122
 30
0.0
 10
56.46174496760266
 20
-25.70418248287086
 30
0.0
 10
56.54940501182693
 20
-25.70816414433042
 30
0.0
 10
56.60940450728693
 20
-25.71461223859556
 30
0.0
 10
56.64412256437797
 20
-25.72027373793543
 30
0.0
  0
LINE
  5
153
330
1F
100
AcDbEntity
  8
0
  6
Continuous
 62
     7
370
    25
100
AcDbLine
 10
56.6441225644
 20
-25.7202737379
 30
0.0
 11
56.6781556231
 21
-25.7252263792
 31
0.0
  0
SPLINE
  5
154
330
1F
100
AcDbEntity
  8
0
  6
Continuous
 62
     7
370
    25
100
AcDbSpline
210
0.0
220
0.0
230
1.0
 70
     8
 71
     3
 72
    14
 73
    10
 74
     0
 42
0.000000001
 43
0.00000001
 40
0.0
 40
0.0
 40
0.0
 40
0.0
 40
0.1491727089896281
 40
0.2332891805152238
 40
0.3237590634114546
 40
0.4205823576877865
 40
0.5237590633519522
 40
0.6332891804103242
 40
0.68597378615294
 40
0.68597378615294
 40
0.68597378615294
 40
0.68597378615294
 10
56.67815562308868
 20
-25.72522637915775
 30
0.0
 10
56.96456041393893
 20
-25.77300946498181
 30
0.0
 10
57.41441933049113
 20
-25.83574057745403
 30
0.0
 10
58.04131490739071
 20
-25.90044541023811
 30
0.0
 10
58.5680312687488
 20
-25.94163384601239
 30
0.0
 10
59.1326568331833
 20
-25.97171887266488
 30
0.0
 10
59.73494270239605
 20
-25.98884044758979
 30
0.0
 10
60.25154831146472
 20
-25.99070313790894
 30
0.0
 10
60.56726280616978
 20
-25.98620213728307
 30
0.0
 10
60.66979006068181
 20
-25.98416005941222
 30
0.0
  0
ARC
  5
155
330
1F
100
AcDbEntity
  8
0
  6
Continuous
 62
     7
370
    25
100
AcDbCircle
 10
0.0
 20
0.0
 30
0.0
 40
66.0
100
AcDbArc
 50
336.8151166925
 51
338.1848833075
  0
SPLINE
  5
156
330
1F
100
AcDbEntity
  8
0
  6
Continuous
 62
     7
370
    25
100
AcDbSpline
210
0.0
220
0.0
230
1.0
 70
     8
 71
     3
 72
    14
 73
    10
 74
     0
 42
0.000000001
 43
0.00000001
 40
0.3140262138470585
 40
0.3140262138470585
 40
0.3140262138470585
 40
0.3140262138470585
 40
0.3667108195896758
 40
0.4762409366480478
 40
0.5794176423122134
 40
0.6762409365885453
 40
0.7667108194847762
 40
0.8508272910103719
 40
1.0
 40
1.0
 40
1.0
 40
1.0
 10
61.27359574651913
 20
-24.52644418362581
 30
0.0
 10
61.20254199670744
 20
-24.45250249959372
 30
0.0
 10
60.98248082464728
 20
-24.22607595140421
 30
0.0
 10
60.61586837431989
 20
-23.86209774298866
 30
0.0
 10
60.17788117025272
 20
-23.44832410238949
 30
0.0
 10
59.75735727845167
 20
-23.07034686330472
 30
0.0
 10
59.35578794533096
 20
-22.72702677466895
 30
0.0
 10
58.86675260577231
 20
-22.32949788718459
 30
0.0
 10
58.50429672028048
 20
-22.05575719173376
 30
0.0
 10
58.26799020649378
 20
-21.88702616597145
 30
0.0
  0
LINE
  5
157
330
1F
100
AcDbEntity
  8
0
  6
Continuous
 62
     7
370
    25
100
AcDbLine
 10
58.2679902065
 20
-21.887026166
 30
0.0
 11
58.2404231537
 21
-21.8664632056
 31
0.0
  0
SPLINE
  5
158
330
1F
100
AcDbEntity
  8
0
  6
Continuous
 62
     7
370
    25
100
AcDbSpline
210
0.0
220
0.0
230
1.0
 70
     8
 71
     3
 72
    15
 73
    11
 74
     0
 42
0.000000001
 43
0.00000001
 40
0.0
 40
0.0
 40
0.0
 40
0.0
 40
0.089398154854713
 40
0.153239276293117
 40
0.2229388537733802
 40
0.3017481308857564
 40
0.3942398025453073
 40
0.5064297554373132
 40
0.6447484245704628
 40
1.0
 40
1.0
 40
1.0
 40
1.0
 10
58.2404231537018
 20
-21.86646320556568
 30
0.0
 10
58.21187049552822
 20
-21.84591711654188
 30
0.0
 10
58.16488495424009
 20
-21.80805055761496
 30
0.0
 10
58.10008448271153
 20
-21.74888100572331
 30
0.0
 10
58.04229494760079
 20
-21.68844423720998
 30
0.0
 10
57.98250909554068
 20
-21.61469044172372
 30
0.0
 10
57.92151396866978
 20
-21.52101720422607
 30
0.0
 10
57.86339074540061
 20
-21.39867537056807
 30
0.0
 10
57.7991871303005
 20
-21.16760274693475
 30
0.0
 10
57.81508240235223
 20
-20.96711354184491
 30
0.0
 10
57.86317465771626
 20
-20.83513903314843
 30
0.0
  0
ARC
  5
159
330
1F
100
AcDbEntity
  8
0
  6
Continuous
 62
     7
370
    25
100
AcDbCircle
 10
0.0
 20
0.0
 30
0.0
 40
61.50000000000002
100
AcDbArc
 50
340.1972701194
 51
340.4277298806
  0
SPLINE
  5
15A
330
1F
100
AcDbEntity
  8
0
  6
Continuous
 62
     7
370
    25
100
AcDbSpline
210
0.0
220
0.0
230
1.0
 70
     8
 71
     3
 72
    15
 73
    11
 74
     0
 42
0.000000001
 43
0.00000001
 40
0.0
 40
0.0
 40
0.0
 40
0.0
 40
0.3552515754295372
 40
0.4935702445626868
 40
0.6057601974546927
 40
0.6982518691142436
 40
0.7770611462266198
 40
0.846760723706883
 40
0.910601845145287
 40
1.0
 40
1.0
 40
1.0
 40
1.0
 10
57.94651115241349
 20
-20.60222913335399
 30
0.0
 10
57.99305907828914
 20
-20.46970205473098
 30
0.0
 10
58.10796087209044
 20
-20.30463794957059
 30
0.0
 10
58.30418185829354
 20
-20.16674673825462
 30
0.0
 10
58.42672455510865
 20
-20.10904820444932
 30
0.0
 10
58.53330009855841
 20
-20.07533271151692
 30
0.0
 10
58.62630409970215
 20
-20.0562479996658
 30
0.0
 10
58.70931669449912
 20
-20.04619103880672
 30
0.0
 10
58.79694490272054
 20
-20.04156134062204
 30
0.0
 10
58.85728750797081
 20
-20.04209740658463
 30
0.0
 10
58.89239331210282
 20
-20.04432867958387
 30
0.0
  0
LINE
  5
15B
330
1F
100
AcDbEntity
  8
0
  6
Continuous
 62
     7
370
    25
100
AcDbLine
 10
58.8923933121
 20
-20.0443286796
 30
0.0
 11
58.9267479361
 21
-20.0459216494
 31
0.0
  0
SPLINE
  5
15C
330
1F
100
AcDbEntity
  8
0
  6
Continuous
 62
     7
370
    25
100
AcDbSpline
210
0.0
220
0.0
230
1.0
 70
     8
 71
     3
 72
    14
 73
    10
 74
     0
 42
0.000000001
 43
0.00000001
 40
0.0
 40
0.0
 40
0.0
 40
0.0
 40
0.1491727089896281
 40
0.2332891805152238
 40
0.3237590634114546
 40
0.4205823576877865
 40
0.5237590633519522
 40
0.6332891804103242
 40
0.6859737861529459
 40
0.6859737861529459
 40
0.6859737861529459
 40
0.6859737861529459
 10
58.92674793606336
 20
-20.04592164939353
 30
0.0
 10
59.21645717099187
 20
-20.06540206802307
 30
0.0
 10
59.67029861815612
 20
-20.08373722849038
 30
0.0
 10
60.30051770417995
 20
-20.08668397808602
 30
0.0
 10
60.82873495498111
 20
-20.076046848779
 30
0.0
 10
61.39359054127422
 20
-20.05064402462225
 30
0.0
 10
61.99465444721731
 20
-20.00864881592295
 30
0.0
 10
62.50895503465405
 20
-19.95986633239997
 30
0.0
 10
62.8227081025636
 20
-19.92444157339078
 30
0.0
 10
62.92454150168839
 20
-19.91235990038991
 30
0.0
  0
ARC
  5
15D
330
1F
100
AcDbEntity
  8
0
  6
Continuous
 62
     7
370
    25
100
AcDbCircle
 10
0.0
 20
0.0
 30
0.0
 40
66.0
100
AcDbArc
 50
342.4401166925
 51
343.8098833075
  0
SPLINE
  5
15E
330
1F
100
AcDbEntity
  8
0
  6
Continuous
 62
     7
370
    25
100
AcDbSpline
210
0.0
220
0.0
230
1.0
 70
     8
 71
     3
 72
    14
 73
    10
 74
     0
 42
0.000000001
 43
0.00000001
 40
0.314026213847056
 40
0.314026213847056
 40
0.314026213847056
 40
0.314026213847056
 40
0.3667108195896758
 40
0.4762409366480478
 40
0.5794176423122134
 40
0.6762409365885453
 40
0.7667108194847762
 40
0.8508272910103719
 40
1.0
 40
1.0
 40
1.0
 40
1.0
 10
63.38255855655392
 20
-18.40248001833922
 30
0.0
 10
63.30459939754854
 20
-18.33585886909228
 30
0.0
 10
63.06340419743246
 20
-18.13209239340388
 30
0.0
 10
62.6628809831276
 20
-17.80580114353752
 30
0.0
 10
62.18644589816682
 20
-17.43695018935728
 30
0.0
 10
61.7308986957609
 20
-17.10201156330499
 30
0.0
 10
61.29761177543346
 20
-16.79970533241147
 30
0.0
 10
60.77196662995213
 20
-16.45202450067967
 30
0.0
 10
60.3844247884583
 20
-16.21512883088991
 30
0.0
 10
60.13271762249453
 20
-16.07037237985815
 30
0.0
  0
LINE
  5
15F
330
1F
100
AcDbEntity
  8
0
  6
Continuous
 62
     7
370
    25
100
AcDbLine
 10
60.1327176225
 20
-16.0703723799
 30
0.0
 11
60.10326779
 21
-16.0526104794
 31
0.0
  0
SPLINE
  5
160
330
1F
100
AcDbEntity
  8
0
  6
Continuous
 62
     7
370
    25
100
AcDbSpline
210
0.0
220
0.0
230
1.0
 70
     8
 71
     3
 72
    15
 73
    11
 74
     0
 42
0.000000001
 43
0.00000001
 40
0.0
 40
0.0
 40
0.0
 40
0.0
 40
0.089398154854713
 40
0.153239276293117
 40
0.2229388537733802
 40
0.3017481308857564
 40
0.3942398025453073
 40
0.5064297554373132
 40
0.6447484245704628
 40
1.0
 40
1.0
 40
1.0
 40
1.0
 10
60.10326779002092
 20
-16.05261047940914
 30
0.0
 10
60.0728387518096
 20
-16.03496197532279
 30
0.0
 10
60.02236788692508
 20
-16.00188314262099
 30
0.0
 10
59.95207981710771
 20
-15.94935006520561
 30
0.0
 10
59.88864471518358
 20
-15.89486868122426
 30
0.0
 10
59.82191761222026
 20
-15.82733006867332
 30
0.0
 10
59.75203461069197
 20
-15.74008646132765
 30
0.0
 10
59.68219966995171
 20
-15.62403080916972
 30
0.0
 10
59.59565613502995
 20
-15.40036391812869
 30
0.0
 10
59.59182348845227
 20
-15.19928211424937
 30
0.0
 10
59.62674840252295
 20
-15.06322923354179
 30
0.0
  0
ARC
  5
161
330
1F
100
AcDbEntity
  8
0
  6
Continuous
 62
     7
370
    25
100
AcDbCircle
 10
0.0
 20
0.0
 30
0.0
 40
61.50000000000001
100
AcDbArc
 50
345.8222701194
 51
346.0527298806
  0
SPLINE
  5
162
330
1F
100
AcDbEntity
  8
0
  6
Continuous
 62
     7
370
    25
100
AcDbSpline
210
0.0
220
0.0
230
1.0
 70
     8
 71
     3
 72
    15
 73
    11
 74
     0
 42
0.000000001
 43
0.00000001
 40
0.0
 40
0.0
 40
0.0
 40
0.0
 40
0.3552515754295372
 40
0.4935702445626868
 40
0.6057601974546927
 40
0.6982518691142436
 40
0.7770611462266198
 40
0.846760723706883
 40
0.910601845145287
 40
1.0
 40
1.0
 40
1.0
 40
1.0
 10
59.68685444688774
 20
-14.82327245368029
 30
0.0
 10
59.72018830651462
 20
-14.68682103458158
 30
0.0
 10
59.81835770521402
 20
-14.511289412957
 30
0.0
 10
60.00011813152613
 20
-14.35482916557274
 30
0.0
 10
60.11641530647694
 20
-14.28539718126824
 30
0.0
 10
60.2191729633529
 20
-14.24139780765167
 30
0.0
 10
60.3098584959309
 20
-14.21328900767319
 30
0.0
 10
60.39148560785045
 20
-14.19514381667616
 30
0.0
 10
60.47823807252141
 20
-14.18194734537158
 30
0.0
 10
60.53834265528678
 20
-14.17656622042339
 30
0.0
 10
60.57349811837518
 20
-14.17534577870328
 30
0.0
  0
LINE
  5
163
330
1F
100
AcDbEntity
  8
0
  6
Continuous
 62
     7
370
    25
100
AcDbLine
 10
60.5734981184
 20
-14.1753457787
 30
0.0
 11
60.6078434538
 21
-14.1735637359
 31
0.0
  0
SPLINE
  5
164
330
1F
100
AcDbEntity
  8
0
  6
Continuous
 62
     7
370
    25
100
AcDbSpline
210
0.0
220
0.0
230
1.0
 70
     8
 71
     3
 72
    14
 73
    10
 74
     0
 42
0.000000001
 43
0.00000001
 40
0.0
 40
0.0
 40
0.0
 40
0.0
 40
0.1491727089896281
 40
0.2332891805152238
 40
0.3237590634114546
 40
0.4205823576877865
 40
0.5237590633519522
 40
0.6332891804103242
 40
0.6859737861529439
 40
0.6859737861529439
 40
0.6859737861529439
 40
0.6859737861529439
 10
60.60784345377665
 20
-14.17356373593019
 30
0.0
 10
60.89806707447986
 20
-14.16455388028473
 30
0.0
 10
61.35152031102505
 20
-14.13831651112881
 30
0.0
 10
61.97899355186188
 20
-14.07947679872656
 30
0.0
 10
62.503624671228
 20
-14.0171165457083
 30
0.0
 10
63.06327041130223
 20
-13.93647051382553
 30
0.0
 10
63.65732377998648
 20
-13.83576295831873
 30
0.0
 10
64.16436634998895
 20
-13.73680510293715
 30
0.0
 10
64.47313637754415
 20
-13.67079774533904
 30
0.0
 10
64.5732952099803
 20
-13.64879283032368
 30
0.0
  0
ARC
  5
165
330
1F
100
AcDbEntity
  8
0
  6
Continuous
 62
     7
370
    25
100
AcDbCircle
 10
0.0
 20
0.0
 30
0.0
 40
66.0
100
AcDbArc
 50
348.0651166925
 51
349.4348833075
  0
SPLINE
  5
166
330
1F
100
AcDbEntity
  8
0
  6
Continuous
 62
     7
370
    25
100
AcDbSpline
210
0.0
220
0.0
230
1.0
 70
     8
 71
     3
 72
    14
 73
    10
 74
     0
 42
0.000000001
 43
0.00000001
 40
0.3140262138470548
 40
0.3140262138470548
 40
0.3140262138470548
 40
0.3140262138470548
 40
0.3667108195896758
 40
0.4762409366480478
 40
0.5794176423122134
 40
0.6762409365885453
 40
0.7667108194847762
 40
0.8508272910103719
 40
1.0
 40
1.0
 40
1.0
 40
1.0
 10
64.88111267925811
 20
-12.10128991065712
 30
0.0
 10
64.79699890037712
 20
-12.04263089428143
 30
0.0
 10
64.53699251383293
 20
-11.8634868736451
 30
0.0
 10
64.10641579305262
 20
-11.57802494543309
 30
0.0
 10
63.5961211575123
 20
-11.25764891399497
 30
0.0
 10
63.10993781308812
 20
-10.96897454304012
 30
0.0
 10
62.64910609545543
 20
-10.71059354414975
 30
0.0
 10
62.09191339414927
 20
-10.41610912464177
 30
0.0
 10
61.68301783643895
 20
-10.21833991531349
 30
0.0
 10
61.41833409590347
 20
-10.09895212276765
 30
0.0
  0
LINE
  5
167
330
1F
100
AcDbEntity
  8
0
  6
Continuous
 62
     7
370
    25
100
AcDbLine
 10
61.4183340959
 20
-10.0989521228
 30
0.0
 11
61.3872851017
 21
-10.0841623391
 31
0.0
  0
SPLINE
  5
168
330
1F
100
AcDbEntity
  8
0
  6
Continuous
 62
     7
370
    25
100
AcDbSpline
210
0.0
220
0.0
230
1.0
 70
     8
 71
     3
 72
    15
 73
    11
 74
     0
 42
0.000000001
 43
0.00000001
 40
0.0
 40
0.0
 40
0.0
 40
0.0
 40
0.089398154854713
 40
0.153239276293117
 40
0.2229388537733802
 40
0.3017481308857564
 40
0.3942398025453073
 40
0.5064297554373132
 40
0.6447484245704628
 40
1.0
 40
1.0
 40
1.0
 40
1.0
 10
61.38728510173384
 20
-10.08416233908637
 30
0.0
 10
61.35527273175698
 20
-10.06958138467948
 30
0.0
 10
61.3018026052951
 20
-10.04160884544443
 30
0.0
 10
61.22670384972461
 20
-9.996218164758346
 30
0.0
 10
61.15823409569578
 20
-9.948216850819255
 30
0.0
 10
61.08520836030753
 20
-9.887543854962876
 30
0.0
 10
61.00711049562851
 20
-9.807570081400128
 30
0.0
 10
60.92623638607215
 20
-9.698918290115015
 30
0.0
 10
60.81818639287954
 20
-9.484811166095778
 30
0.0
 10
60.79466273815414
 20
-9.285073291120819
 30
0.0
 10
60.81608396491706
 20
-9.146252302017414
 30
0.0
  0
ARC
  5
169
330
1F
100
AcDbEntity
  8
0
  6
Continuous
 62
     7
370
    25
100
AcDbCircle
 10
0.0
 20
0.0
 30
0.0
 40
61.50000000000001
100
AcDbArc
 50
351.4472701194
 51
351.6777298806
  0
SPLINE
  5
16A
330
1F
100
AcDbEntity
  8
0
  6
Continuous
 62
     7
370
    25
100
AcDbSpline
210
0.0
220
0.0
230
1.0
 70
     8
 71
     3
 72
    15
 73
    11
 74
     0
 42
0.000000001
 43
0.00000001
 40
0.0
 40
0.0
 40
0.0
 40
0.0
 40
0.3552515754295372
 40
0.4935702445626868
 40
0.6057601974546927
 40
0.6982518691142436
 40
0.7770611462266198
 40
0.846760723706883
 40
0.910601845145287
 40
1.0
 40
1.0
 40
1.0
 40
1.0
 10
60.85238070488489
 20
-8.901559557052646
 30
0.0
 10
60.87217947497263
 20
-8.762497899236093
 30
0.0
 10
60.9526710535958
 20
-8.578189226618925
 30
0.0
 10
61.11822046775118
 20
-8.404666740878557
 30
0.0
 10
61.22715211546842
 20
-8.32416997403909
 30
0.0
 10
61.32510227336181
 20
-8.270310457758795
 30
0.0
 10
61.41259598612158
 20
-8.233448272762564
 30
0.0
 10
61.49205150145401
 20
-8.207389599736052
 30
0.0
 10
61.57709274891602
 20
-8.185753444544183
 30
0.0
 10
61.63638046920794
 20
-8.17450695186006
 30
0.0
 10
61.67124702492526
 20
-8.169846548941525
 30
0.0
  0
LINE
  5
16B
330
1F
100
AcDbEntity
  8
0
  6
Continuous
 62
     7
370
    25
100
AcDbLine
 10
61.6712470249
 20
-8.1698465489
 30
0.0
 11
61.7052523074
 21
-8.1647066556
 31
0.0
  0
SPLINE
  5
16C
330
1F
100
AcDbEntity
  8
0
  6
Continuous
 62
     7
370
    25
100
AcDbSpline
210
0.0
220
0.0
230
1.0
 70
     8
 71
     3
 72
    14
 73
    10
 74
     0
 42
0.000000001
 43
0.00000001
 40
0.0
 40
0.0
 40
0.0
 40
0.0
 40
0.1491727089896281
 40
0.2332891805152238
 40
0.3237590634114546
 40
0.4205823576877865
 40
0.5237590633519522
 40
0.6332891804103242
 40
0.685973786152944
 40
0.685973786152944
 40
0.685973786152944
 40
0.685973786152944
 10
61.70525230741266
 20
-8.164706655631758
 30
0.0
 10
61.99319530177087
 20
-8.127293295546457
 30
0.0
 10
62.44189332514626
 20
-8.056736076975081
 30
0.0
 10
63.06057781047512
 20
-7.936676561170428
 30
0.0
 10
63.57657031393411
 20
-7.82319374776708
 30
0.0
 10
64.12561651337909
 20
-7.688081173530934
 30
0.0
 10
64.70693828612147
 20
-7.529631140028497
 30
0.0
 10
65.2018397415629
 20
-7.381450931031524
 30
0.0
 10
65.5026531046075
 20
-7.285496661781458
 30
0.0
 10
65.60017278604627
 20
-7.253780424112312
 30
0.0
  0
ARC
  5
16D
330
1F
100
AcDbEntity
  8
0
  6
Continuous
 62
     7
370
    25
100
AcDbCircle
 10
0.0
 20
0.0
 30
0.0
 40
66.00000000000001
100
AcDbArc
 50
353.6901166925
 51
355.0598833075
  0
SPLINE
  5
16E
330
1F
100
AcDbEntity
  8
0
  6
Continuous
 62
     7
370
    25
100
AcDbSpline
210
0.0
220
0.0
230
1.0
 70
     8
 71
     3
 72
    14
 73
    10
 74
     0
 42
0.000000001
 43
0.00000001
 40
0.3140262138470571
 40
0.3140262138470571
 40
0.3140262138470571
 40
0.3140262138470571
 40
0.3667108195896758
 40
0.4762409366480478
 40
0.5794176423122134
 40
0.6762409365885453
 40
0.7667108194847762
 40
0.8508272910103719
 40
1.0
 40
1.0
 40
1.0
 40
1.0
 10
65.75482621923707
 20
-5.683557765897419
 30
0.0
 10
65.66536788215232
 20
-5.63342580078695
 30
0.0
 10
65.38905431281643
 20
-5.480629490051512
 30
0.0
 10
64.93257077475896
 20
-5.238746037911882
 30
0.0
 10
64.39333100493478
 20
-4.969930325533993
 30
0.0
 10
63.881193729874
 20
-4.730300301674341
 30
0.0
 10
63.39725527629312
 20
-4.518332885051858
 30
0.0
 10
62.81388108946821
 20
-4.279880923709127
 30
0.0
 10
62.38756970328719
 20
-4.123142800439814
 30
0.0
 10
62.11245843729221
 20
-4.030273436086095
 30
0.0
  0
LINE
  5
16F
330
1F
100
AcDbEntity
  8
0
  6
Continuous
 62
     7
370
    25
100
AcDbLine
 10
62.1124584373
 20
-4.0302734361
 30
0.0
 11
62.0801093002
 21
-4.0185982029
 31
0.0
  0
SPLINE
  5
170
330
1F
100
AcDbEntity
  8
0
  6
Continuous
 62
     7
370
    25
100
AcDbSpline
210
0.0
220
0.0
230
1.0
 70
     8
 71
     3
 72
    15
 73
    11
 74
     0
 42
0.000000001
 43
0.00000001
 40
0.0
 40
0.0
 40
0.0
 40
0.0
 40
0.089398154854713
 40
0.153239276293117
 40
0.2229388537733802
 40
0.3017481308857564
 40
0.3942398025453073
 40
0.5064297554373132
 40
0.6447484245704628
 40
1.0
 40
1.0
 40
1.0
 40
1.0
 10
62.08010930021354
 20
-4.018598202874315
 30
0.0
 10
62.04682189509374
 20
-4.007225220708582
 30
0.0
 10
61.99086745360207
 20
-3.984628365784481
 30
0.0
 10
61.91168125434777
 20
-3.94681721889576
 30
0.0
 10
61.83883624937491
 20
-3.905758253892353
 30
0.0
 10
61.76021515931345
 20
-3.85253518884786
 30
0.0
 10
61.67465455661318
 20
-3.780601440225554
 30
0.0
 10
61.58352014012603
 20
-3.680399885958448
 30
0.0
 10
61.45500426916315
 20
-3.47791449760816
 30
0.0
 10
61.41201615194439
 20
-3.281444136461403
 30
0.0
 10
61.41972739327578
 20
-3.141191960974515
 30
0.0
  0
ARC
  5
171
330
1F
100
AcDbEntity
  8
0
  6
Continuous
 62
     7
370
    25
100
AcDbCircle
 10
0.0
 20
0.0
 30
0.0
 40
61.50000000000001
100
AcDbArc
 50
357.0722701194
 51
357.3027298806
  0
SPLINE
  5
172
330
1F
100
AcDbEntity
  8
0
  6
Continuous
 62
     7
370
    25
100
AcDbSpline
210
0.0
220
0.0
230
1.0
 70
     8
 71
     3
 72
    15
 73
    11
 74
     0
 42
0.000000001
 43
0.00000001
 40
0.0
 40
0.0
 40
0.0
 40
0.0
 40
0.3552515754295372
 40
0.4935702445626868
 40
0.6057601974546927
 40
0.6982518691142436
 40
0.7770611462266198
 40
0.846760723706883
 40
0.910601845145287
 40
1.0
 40
1.0
 40
1.0
 40
1.0
 10
61.4318652713989
 20
-2.894119775803166
 30
0.0
 10
61.43793827896844
 20
-2.753787119052372
 30
0.0
 10
61.49997685961209
 20
-2.562476388713285
 30
0.0
 10
61.6477209302539
 20
-2.373562781011533
 30
0.0
 10
61.74823797942196
 20
-2.28277645950577
 30
0.0
 10
61.84043732476726
 20
-2.219575497146129
 30
0.0
 10
61.92389660542599
 20
-2.174314930124586
 30
0.0
 10
62.00041532412386
 20
-2.140593734334959
 30
0.0
 10
62.08292636067556
 20
-2.110726263257821
 30
0.0
 10
62.14082624533766
 20
-2.093722712710278
 30
0.0
 10
62.17506810969234
 20
-2.08566723082106
 30
0.0
  0
LINE
  5
173
330
1F
100
AcDbEntity
  8
0
  6
Continuous
 62
     7
370
    25
100
AcDbLine
 10
62.1750681097
 20
-2.0856672308
 30
0.0
 11
62.2084058498
 21
-2.077218987
 31
0.0
  0
SPLINE
  5
174
330
1F
100
AcDbEntity
  8
0
  6
Continuous
 62
     7
370
    25
100
AcDbSpline
210
0.0
220
0.0
230
1.0
 70
     8
 71
     3
 72
    14
 73
    10
 74
     0
 42
0.000000001
 43
0.00000001
 40
0.0
 40
0.0
 40
0.0
 40
0.0
 40
0.1491727089896281
 40
0.2332891805152238
 40
0.3237590634114546
 40
0.4205823576877865
 40
0.5237590633519522
 40
0.6332891804103242
 40
0.6859737861529415
 40
0.6859737861529415
 40
0.6859737861529415
 40
0.6859737861529415
 10
62.20840584980616
 20
-2.077218986956941
 30
0.0
 10
62.49129516937802
 20
-2.011762433541638
 30
0.0
 10
62.93091677233525
 20
-1.897564870140152
 30
0.0
 10
63.53485423235505
 20
-1.717441789701501
 30
0.0
 10
64.03723883002846
 20
-1.553929317442155
 30
0.0
 10
64.57039787380431
 20
-1.365651408802571
 30
0.0
 10
65.1333896041505
 20
-1.150984857744729
 30
0.0
 10
65.61138377347433
 20
-0.9550093515485426
 30
0.0
 10
65.90134347488092
 20
-0.8300322627133377
 30
0.0
 10
65.99528483748038
 20
-0.7889101470970221
 30
0.0
  0
ARC
  5
175
330
1F
100
AcDbEntity
  8
0
  6
Continuous
 62
     7
370
    25
100
AcDbCircle
 10
0.0
 20
0.0
 30
0.0
 40
66.0
100
AcDbArc
 50
359.3151166925
 51
0.6848833075
  0
SPLINE
  5
176
330
1F
100
AcDbEntity
  8
0
  6
Continuous
 62
     7
370
    25
100
AcDbSpline
210
0.0
220
0.0
230
1.0
 70
     8
 71
     3
 72
    14
 73
    10
 74
     0
 42
0.000000001
 43
0.00000001
 40
0.3140262138470538
 40
0.3140262138470538
 40
0.3140262138470538
 40
0.3140262138470538
 40
0.3667108195896758
 40
0.4762409366480478
 40
0.5794176423122134
 40
0.6762409365885453
 40
0.7667108194847762
 40
0.8508272910103719
 40
1.0
 40
1.0
 40
1.0
 40
1.0
 10
65.99528483748038
 20
0.7889101470965664
 30
0.0
 10
65.90134347488092
 20
0.8300322627128863
 30
0.0
 10
65.61138377347434
 20
0.9550093515480972
 30
0.0
 10
65.1333896041505
 20
1.150984857744291
 30
0.0
 10
64.57039787380431
 20
1.365651408802136
 30
0.0
 10
64.03723883002847
 20
1.553929317441724
 30
0.0
 10
63.53485423235502
 20
1.717441789701073
 30
0.0
 10
62.93091677233528
 20
1.897564870139727
 30
0.0
 10
62.49129516937801
 20
2.011762433541218
 30
0.0
 10
62.20840584980618
 20
2.077218986956521
 30
0.0
  0
LINE
  5
177
330
1F
100
AcDbEntity
  8
0
  6
Continuous
 62
     7
370
    25
100
AcDbLine
 10
62.2084058498
 20
2.077218987
 30
0.0
 11
62.1750681097
 21
2.0856672308
 31
0.0
  0
SPLINE
  5
178
330
1F
100
AcDbEntity
  8
0
  6
Continuous
 62
     7
370
    25
100
AcDbSpline
210
0.0
220
0.0
230
1.0
 70
     8
 71
     3
 72
    15
 73
    11
 74
     0
 42
0.000000001
 43
0.00000001
 40
0.0
 40
0.0
 40
0.0
 40
0.0
 40
0.089398154854713
 40
0.153239276293117
 40
0.2229388537733802
 40
0.3017481308857564
 40
0.3942398025453073
 40
0.5064297554373132
 40
0.6447484245704628
 40
1.0
 40
1.0
 40
1.0
 40
1.0
 10
62.17506810969235
 20
2.085667230820641
 30
0.0
 10
62.14082624533768
 20
2.093722712709859
 30
0.0
 10
62.0829263606756
 20
2.110726263257401
 30
0.0
 10
62.00041532412388
 20
2.140593734334542
 30
0.0
 10
61.923896605426
 20
2.174314930124168
 30
0.0
 10
61.84043732476728
 20
2.219575497145712
 30
0.0
 10
61.74823797942197
 20
2.282776459505354
 30
0.0
 10
61.64772093025393
 20
2.373562781011118
 30
0.0
 10
61.49997685961208
 20
2.562476388712869
 30
0.0
 10
61.43793827896845
 20
2.753787119051958
 30
0.0
 10
61.43186527139891
 20
2.894119775802751
 30
0.0
  0
ARC
  5
179
330
1F
100
AcDbEntity
  8
0
  6
Continuous
 62
     7
370
    25
100
AcDbCircle
 10
0.0
 20
0.0
 30
0.0
 40
61.50000000000001
100
AcDbArc
 50
2.6972701194
 51
2.9277298806
  0
SPLINE
  5
17A
330
1F
100
AcDbEntity
  8
0
  6
Continuous
 62
     7
370
    25
100
AcDbSpline
210
0.0
220
0.0
230
1.0
 70
     8
 71
     3
 72
    15
 73
    11
 74
     0
 42
0.000000001
 43
0.00000001
 40
0.0
 40
0.0
 40
0.0
 40
0.0
 40
0.3552515754295372
 40
0.4935702445626868
 40
0.6057601974546927
 40
0.6982518691142436
 40
0.7770611462266198
 40
0.846760723706883
 40
0.910601845145287
 40
1.0
 40
1.0
 40
1.0
 40
1.0
 10
61.41972739327579
 20
3.141191960974099
 30
0.0
 10
61.4120161519444
 20
3.281444136460987
 30
0.0
 10
61.45500426916318
 20
3.477914497607745
 30
0.0
 10
61.58352014012603
 20
3.680399885958031
 30
0.0
 10
61.67465455661321
 20
3.780601440225137
 30
0.0
 10
61.76021515931345
 20
3.85253518884744
 30
0.0
 10
61.83883624937493
 20
3.905758253891935
 30
0.0
 10
61.91168125434779
 20
3.946817218895341
 30
0.0
 10
61.99086745360207
 20
3.984628365784059
 30
0.0
 10
62.04682189509375
 20
4.007225220708159
 30
0.0
 10
62.08010930021355
 20
4.018598202873894
 30
0.0
  0
LINE
  5
17B
330
1F
100
AcDbEntity
  8
0
  6
Continuous
 62
     7
370
    25
100
AcDbLine
 10
62.0801093002
 20
4.0185982029
 30
0.0
 11
62.1124584373
 21
4.0302734361
 31
0.0
  0
SPLINE
  5
17C
330
1F
100
AcDbEntity
  8
0
  6
Continuous
 62
     7
370
    25
100
AcDbSpline
210
0.0
220
0.0
230
1.0
 70
     8
 71
     3
 72
    14
 73
    10
 74
     0
 42
0.000000001
 43
0.00000001
 40
0.0
 40
0.0
 40
0.0
 40
0.0
 40
0.1491727089896281
 40
0.2332891805152238
 40
0.3237590634114546
 40
0.4205823576877865
 40
0.5237590633519522
 40
0.6332891804103242
 40
0.6859737861529436
 40
0.6859737861529436
 40
0.6859737861529436
 40
0.6859737861529436
 10
62.11245843729223
 20
4.030273436085675
 30
0.0
 10
62.38756970328724
 20
4.123142800439395
 30
0.0
 10
62.81388108946818
 20
4.279880923708699
 30
0.0
 10
63.39725527629315
 20
4.518332885051431
 30
0.0
 10
63.88119372987401
 20
4.730300301673908
 30
0.0
 10
64.39333100493481
 20
4.969930325533557
 30
0.0
 10
64.93257077475897
 20
5.238746037911442
 30
0.0
 10
65.38905431281643
 20
5.480629490051069
 30
0.0
 10
65.66536788215235
 20
5.633425800786506
 30
0.0
 10
65.75482621923712
 20
5.683557765896976
 30
0.0
  0
ARC
  5
17D
330
1F
100
AcDbEntity
  8
0
  6
Continuous
 62
     7
370
    25
100
AcDbCircle
 10
0.0
 20
0.0
 30
0.0
 40
66.0
100
AcDbArc
 50
4.9401166925
 51
6.3098833075
  0
SPLINE
  5
17E
330
1F
100
AcDbEntity
  8
0
  6
Continuous
 62
     7
370
    25
100
AcDbSpline
210
0.0
220
0.0
230
1.0
 70
     8
 71
     3
 72
    14
 73
    10
 74
     0
 42
0.000000001
 43
0.00000001
 40
0.3140262138470532
 40
0.3140262138470532
 40
0.3140262138470532
 40
0.3140262138470532
 40
0.3667108195896758
 40
0.4762409366480478
 40
0.5794176423122134
 40
0.6762409365885453
 40
0.7667108194847762
 40
0.8508272910103719
 40
1.0
 40
1.0
 40
1.0
 40
1.0
 10
65.60017278604633
 20
7.253780424111864
 30
0.0
 10
65.50265310460753
 20
7.285496661781012
 30
0.0
 10
65.20183974156295
 20
7.381450931031083
 30
0.0
 10
64.70693828612151
 20
7.529631140028059
 30
0.0
 10
64.12561651337913
 20
7.6880811735305
 30
0.0
 10
63.57657031393418
 20
7.823193747766651
 30
0.0
 10
63.06057781047512
 20
7.936676561169998
 30
0.0
 10
62.44189332514633
 20
8.05673607697466
 30
0.0
 10
61.99319530177089
 20
8.127293295546032
 30
0.0
 10
61.70525230741271
 20
8.164706655631342
 30
0.0
  0
LINE
  5
17F
330
1F
100
AcDbEntity
  8
0
  6
Continuous
 62
     7
370
    25
100
AcDbLine
 10
61.7052523074
 20
8.1647066556
 30
0.0
 11
61.6712470249
 21
8.1698465489
 31
0.0
  0
SPLINE
  5
180
330
1F
100
AcDbEntity
  8
0
  6
Continuous
 62
     7
370
    25
100
AcDbSpline
210
0.0
220
0.0
230
1.0
 70
     8
 71
     3
 72
    15
 73
    11
 74
     0
 42
0.000000001
 43
0.00000001
 40
0.0
 40
0.0
 40
0.0
 40
0.0
 40
0.089398154854713
 40
0.153239276293117
 40
0.2229388537733802
 40
0.3017481308857564
 40
0.3942398025453073
 40
0.5064297554373132
 40
0.6447484245704628
 40
1.0
 40
1.0
 40
1.0
 40
1.0
 10
61.67124702492529
 20
8.169846548941107
 30
0.0
 10
61.63638046920799
 20
8.174506951859643
 30
0.0
 10
61.57709274891608
 20
8.185753444543769
 30
0.0
 10
61.49205150145406
 20
8.207389599735635
 30
0.0
 10
61.41259598612162
 20
8.233448272762145
 30
0.0
 10
61.32510227336186
 20
8.270310457758379
 30
0.0
 10
61.22715211546846
 20
8.324169974038673
 30
0.0
 10
61.11822046775124
 20
8.404666740878145
 30
0.0
 10
60.95267105359583
 20
8.578189226618509
 30
0.0
 10
60.87217947497267
 20
8.76249789923568
 30
0.0
 10
60.85238070488494
 20
8.901559557052236
 30
0.0
  0
ARC
  5
181
330
1F
100
AcDbEntity
  8
0
  6
Continuous
 62
     7
370
    25
100
AcDbCircle
 10
0.0
 20
0.0
 30
0.0
 40
61.50000000000001
100
AcDbArc
 50
8.3222701194
 51
8.5527298806
  0
SPLINE
  5
182
330
1F
100
AcDbEntity
  8
0
  6
Continuous
 62
     7
370
    25
100
AcDbSpline
210
0.0
220
0.0
230
1.0
 70
     8
 71
     3
 72
    15
 73
    11
 74
     0
 42
0.000000001
 43
0.00000001
 40
0.0
 40
0.0
 40
0.0
 40
0.0
 40
0.3552515754295372
 40
0.4935702445626868
 40
0.6057601974546927
 40
0.6982518691142436
 40
0.7770611462266198
 40
0.846760723706883
 40
0.910601845145287
 40
1.0
 40
1.0
 40
1.0
 40
1.0
 10
60.81608396491713
 20
9.146252302017002
 30
0.0
 10
60.79466273815421
 20
9.285073291120407
 30
0.0
 10
60.81818639287962
 20
9.48481116609537
 30
0.0
 10
60.9262363860722
 20
9.698918290114603
 30
0.0
 10
61.00711049562858
 20
9.807570081399719
 30
0.0
 10
61.0852083603076
 20
9.887543854962464
 30
0.0
 10
61.15823409569586
 20
9.948216850818845
 30
0.0
 10
61.22670384972468
 20
9.996218164757934
 30
0.0
 10
61.30180260529516
 20
10.04160884544402
 30
0.0
 10
61.35527273175704
 20
10.06958138467906
 30
0.0
 10
61.38728510173392
 20
10.08416233908595
 30
0.0
  0
LINE
  5
183
330
1F
100
AcDbEntity
  8
0
  6
Continuous
 62
     7
370
    25
100
AcDbLine
 10
61.3872851017
 20
10.0841623391
 30
0.0
 11
61.4183340959
 21
10.0989521228
 31
0.0
  0
SPLINE
  5
184
330
1F
100
AcDbEntity
  8
0
  6
Continuous
 62
     7
370
    25
100
AcDbSpline
210
0.0
220
0.0
230
1.0
 70
     8
 71
     3
 72
    14
 73
    10
 74
     0
 42
0.000000001
 43
0.00000001
 40
0.0
 40
0.0
 40
0.0
 40
0.0
 40
0.1491727089896281
 40
0.2332891805152238
 40
0.3237590634114546
 40
0.4205823576877865
 40
0.5237590633519522
 40
0.6332891804103242
 40
0.6859737861529397
 40
0.6859737861529397
 40
0.6859737861529397
 40
0.6859737861529397
 10
61.41833409590355
 20
10.09895212276723
 30
0.0
 10
61.68301783643905
 20
10.21833991531309
 30
0.0
 10
62.09191339414932
 20
10.41610912464135
 30
0.0
 10
62.64910609545554
 20
10.71059354414933
 30
0.0
 10
63.10993781308819
 20
10.96897454303969
 30
0.0
 10
63.59612115751237
 20
11.25764891399454
 30
0.0
 10
64.10641579305269
 20
11.57802494543265
 30
0.0
 10
64.53699251383298
 20
11.86348687364466
 30
0.0
 10
64.79699890037719
 20
12.04263089428098
 30
0.0
 10
64.8811126792582
 20
12.10128991065667
 30
0.0
  0
ARC
  5
185
330
1F
100
AcDbEntity
  8
0
  6
Continuous
 62
     7
370
    25
100
AcDbCircle
 10
0.0
 20
0.0
 30
0.0
 40
66.0
100
AcDbArc
 50
10.5651166925
 51
11.9348833075
  0
SPLINE
  5
186
330
1F
100
AcDbEntity
  8
0
  6
Continuous
 62
     7
370
    25
100
AcDbSpline
210
0.0
220
0.0
230
1.0
 70
     8
 71
     3
 72
    14
 73
    10
 74
     0
 42
0.000000001
 43
0.00000001
 40
0.3140262138470564
 40
0.3140262138470564
 40
0.3140262138470564
 40
0.3140262138470564
 40
0.3667108195896758
 40
0.4762409366480478
 40
0.5794176423122134
 40
0.6762409365885453
 40
0.7667108194847762
 40
0.8508272910103719
 40
1.0
 40
1.0
 40
1.0
 40
1.0
 10
64.5732952099804
 20
13.64879283032325
 30
0.0
 10
64.47313637754425
 20
13.67079774533861
 30
0.0
 10
64.16436634998907
 20
13.73680510293672
 30
0.0
 10
63.65732377998658
 20
13.8357629583183
 30
0.0
 10
63.06327041130232
 20
13.93647051382511
 30
0.0
 10
62.50362467122811
 20
14.01711654570788
 30
0.0
 10
61.97899355186196
 20
14.07947679872613
 30
0.0
 10
61.35152031102517
 20
14.1383165111284
 30
0.0
 10
60.89806707447994
 20
14.16455388028431
 30
0.0
 10
60.60784345377675
 20
14.17356373592978
 30
0.0
  0
LINE
  5
187
330
1F
100
AcDbEntity
  8
0
  6
Continuous
 62
     7
370
    25
100
AcDbLine
 10
60.6078434538
 20
14.1735637359
 30
0.0
 11
60.5734981184
 21
14.1753457787
 31
0.0
  0
SPLINE
  5
188
330
1F
100
AcDbEntity
  8
0
  6
Continuous
 62
     7
370
    25
100
AcDbSpline
210
0.0
220
0.0
230
1.0
 70
     8
 71
     3
 72
    15
 73
    11
 74
     0
 42
0.000000001
 43
0.00000001
 40
0.0
 40
0.0
 40
0.0
 40
0.0
 40
0.089398154854713
 40
0.153239276293117
 40
0.2229388537733802
 40
0.3017481308857564
 40
0.3942398025453073
 40
0.5064297554373132
 40
0.6447484245704628
 40
1.0
 40
1.0
 40
1.0
 40
1.0
 10
60.57349811837528
 20
14.17534577870287
 30
0.0
 10
60.53834265528688
 20
14.17656622042298
 30
0.0
 10
60.47823807252153
 20
14.18194734537118
 30
0.0
 10
60.39148560785055
 20
14.19514381667575
 30
0.0
 10
60.30985849593098
 20
14.21328900767278
 30
0.0
 10
60.21917296335301
 20
14.24139780765127
 30
0.0
 10
60.11641530647704
 20
14.28539718126783
 30
0.0
 10
60.00011813152624
 20
14.35482916557234
 30
0.0
 10
59.8183577052141
 20
14.51128941295659
 30
0.0
 10
59.72018830651472
 20
14.68682103458117
 30
0.0
 10
59.68685444688786
 20
14.82327245367988
 30
0.0
  0
ARC
  5
189
330
1F
100
AcDbEntity
  8
0
  6
Continuous
 62
     7
370
    25
100
AcDbCircle
 10
0.0
 20
0.0
 30
0.0
 40
61.50000000000001
100
AcDbArc
 50
13.9472701194
 51
14.1777298806
  0
SPLINE
  5
18A
330
1F
100
AcDbEntity
  8
0
  6
Continuous
 62
     7
370
    25
100
AcDbSpline
210
0.0
220
0.0
230
1.0
 70
     8
 71
     3
 72
    15
 73
    11
 74
     0
 42
0.000000001
 43
0.00000001
 40
0.0
 40
0.0
 40
0.0
 40
0.0
 40
0.3552515754295372
 40
0.4935702445626868
 40
0.6057601974546927
 40
0.6982518691142436
 40
0.7770611462266198
 40
0.846760723706883
 40
0.910601845145287
 40
1.0
 40
1.0
 40
1.0
 40
1.0
 10
59.62674840252305
 20
15.06322923354139
 30
0.0
 10
59.59182348845238
 20
15.19928211424897
 30
0.0
 10
59.59565613503008
 20
15.4003639181283
 30
0.0
 10
59.68219966995182
 20
15.62403080916932
 30
0.0
 10
59.75203461069209
 20
15.74008646132725
 30
0.0
 10
59.82191761222037
 20
15.82733006867292
 30
0.0
 10
59.88864471518371
 20
15.89486868122385
 30
0.0
 10
59.95207981710782
 20
15.94935006520521
 30
0.0
 10
60.02236788692517
 20
16.00188314262058
 30
0.0
 10
60.07283875180971
 20
16.03496197532239
 30
0.0
 10
60.10326779002103
 20
16.05261047940873
 30
0.0
  0
LINE
  5
18B
330
1F
100
AcDbEntity
  8
0
  6
Continuous
 62
     7
370
    25
100
AcDbLine
 10
60.10326779
 20
16.0526104794
 30
0.0
 11
60.1327176225
 21
16.0703723799
 31
0.0
  0
SPLINE
  5
18C
330
1F
100
AcDbEntity
  8
0
  6
Continuous
 62
     7
370
    25
100
AcDbSpline
210
0.0
220
0.0
230
1.0
 70
     8
 71
     3
 72
    14
 73
    10
 74
     0
 42
0.000000001
 43
0.00000001
 40
0.0
 40
0.0
 40
0.0
 40
0.0
 40
0.1491727089896281
 40
0.2332891805152238
 40
0.3237590634114546
 40
0.4205823576877865
 40
0.5237590633519522
 40
0.6332891804103242
 40
0.685973786152944
 40
0.685973786152944
 40
0.685973786152944
 40
0.685973786152944
 10
60.13271762249464
 20
16.07037237985774
 30
0.0
 10
60.38442478845845
 20
16.21512883088951
 30
0.0
 10
60.77196662995221
 20
16.45202450067925
 30
0.0
 10
61.29761177543361
 20
16.79970533241107
 30
0.0
 10
61.73089869576101
 20
17.10201156330456
 30
0.0
 10
62.18644589816694
 20
17.43695018935686
 30
0.0
 10
62.66288098312772
 20
17.8058011435371
 30
0.0
 10
63.06340419743258
 20
18.13209239340345
 30
0.0
 10
63.30459939754868
 20
18.33585886909186
 30
0.0
 10
63.38255855655406
 20
18.40248001833879
 30
0.0
  0
ARC
  5
18D
330
1F
100
AcDbEntity
  8
0
  6
Continuous
 62
     7
370
    25
100
AcDbCircle
 10
0.0
 20
0.0
 30
0.0
 40
66.0
100
AcDbArc
 50
16.1901166925
 51
17.5598833075
  0
SPLINE
  5
18E
330
1F
100
AcDbEntity
  8
0
  6
Continuous
 62
     7
370
    25
100
AcDbSpline
210
0.0
220
0.0
230
1.0
 70
     8
 71
     3
 72
    14
 73
    10
 74
     0
 42
0.000000001
 43
0.00000001
 40
0.3140262138470588
 40
0.3140262138470588
 40
0.3140262138470588
 40
0.3140262138470588
 40
0.3667108195896758
 40
0.4762409366480478
 40
0.5794176423122134
 40
0.6762409365885453
 40
0.7667108194847762
 40
0.8508272910103719
 40
1.0
 40
1.0
 40
1.0
 40
1.0
 10
62.92454150168851
 20
19.9123599003895
 30
0.0
 10
62.82270810256374
 20
19.92444157339036
 30
0.0
 10
62.5089550346542
 20
19.95986633239955
 30
0.0
 10
61.99465444721745
 20
20.00864881592254
 30
0.0
 10
61.39359054127436
 20
20.05064402462184
 30
0.0
 10
60.82873495498126
 20
20.0760468487786
 30
0.0
 10
60.30051770418007
 20
20.08668397808561
 30
0.0
 10
59.67029861815629
 20
20.08373722848998
 30
0.0
 10
59.21645717099198
 20
20.06540206802266
 30
0.0
 10
58.9267479360635
 20
20.04592164939313
 30
0.0
  0
LINE
  5
18F
330
1F
100
AcDbEntity
  8
0
  6
Continuous
 62
     7
370
    25
100
AcDbLine
 10
58.9267479361
 20
20.0459216494
 30
0.0
 11
58.8923933121
 21
20.0443286796
 31
0.0
  0
SPLINE
  5
190
330
1F
100
AcDbEntity
  8
0
  6
Continuous
 62
     7
370
    25
100
AcDbSpline
210
0.0
220
0.0
230
1.0
 70
     8
 71
     3
 72
    15
 73
    11
 74
     0
 42
0.000000001
 43
0.00000001
 40
0.0
 40
0.0
 40
0.0
 40
0.0
 40
0.089398154854713
 40
0.153239276293117
 40
0.2229388537733802
 40
0.3017481308857564
 40
0.3942398025453073
 40
0.5064297554373132
 40
0.6447484245704628
 40
1.0
 40
1.0
 40
1.0
 40
1.0
 10
58.89239331210296
 20
20.04432867958348
 30
0.0
 10
58.85728750797097
 20
20.04209740658424
 30
0.0
 10
58.7969449027207
 20
20.04156134062164
 30
0.0
 10
58.70931669449926
 20
20.04619103880633
 30
0.0
 10
58.62630409970229
 20
20.05624799966541
 30
0.0
 10
58.53330009855856
 20
20.07533271151652
 30
0.0
 10
58.42672455510878
 20
20.10904820444892
 30
0.0
 10
58.30418185829369
 20
20.16674673825423
 30
0.0
 10
58.10796087209055
 20
20.30463794957019
 30
0.0
 10
57.99305907828929
 20
20.46970205473059
 30
0.0
 10
57.94651115241363
 20
20.60222913335361
 30
0.0
  0
ARC
  5
191
330
1F
100
AcDbEntity
  8
0
  6
Continuous
 62
     7
370
    25
100
AcDbCircle
 10
0.0
 20
0.0
 30
0.0
 40
61.50000000000001
100
AcDbArc
 50
19.5722701194
 51
19.8027298806
  0
SPLINE
  5
192
330
1F
100
AcDbEntity
  8
0
  6
Continuous
 62
     7
370
    25
100
AcDbSpline
210
0.0
220
0.0
230
1.0
 70
     8
 71
     3
 72
    15
 73
    11
 74
     0
 42
0.000000001
 43
0.00000001
 40
0.0
 40
0.0
 40
0.0
 40
0.0
 40
0.3552515754295372
 40
0.4935702445626868
 40
0.6057601974546927
 40
0.6982518691142436
 40
0.7770611462266198
 40
0.846760723706883
 40
0.910601845145287
 40
1.0
 40
1.0
 40
1.0
 40
1.0
 10
57.86317465771638
 20
20.83513903314804
 30
0.0
 10
57.81508240235237
 20
20.96711354184452
 30
0.0
 10
57.79918713030064
 20
21.16760274693436
 30
0.0
 10
57.86339074540074
 20
21.39867537056767
 30
0.0
 10
57.92151396866991
 20
21.52101720422568
 30
0.0
 10
57.98250909554081
 20
21.61469044172332
 30
0.0
 10
58.04229494760094
 20
21.68844423720959
 30
0.0
 10
58.10008448271166
 20
21.74888100572291
 30
0.0
 10
58.1648849542402
 20
21.80805055761455
 30
0.0
 10
58.21187049552834
 20
21.84591711654149
 30
0.0
 10
58.24042315370195
 20
21.86646320556527
 30
0.0
  0
LINE
  5
193
330
1F
100
AcDbEntity
  8
0
  6
Continuous
 62
     7
370
    25
100
AcDbLine
 10
58.2404231537
 20
21.8664632056
 30
0.0
 11
58.2679902065
 21
21.887026166
 31
0.0
  0
SPLINE
  5
194
330
1F
100
AcDbEntity
  8
0
  6
Continuous
 62
     7
370
    25
100
AcDbSpline
210
0.0
220
0.0
230
1.0
 70
     8
 71
     3
 72
    14
 73
    10
 74
     0
 42
0.000000001
 43
0.00000001
 40
0.0
 40
0.0
 40
0.0
 40
0.0
 40
0.1491727089896281
 40
0.2332891805152238
 40
0.3237590634114546
 40
0.4205823576877865
 40
0.5237590633519522
 40
0.6332891804103242
 40
0.685973786152944
 40
0.685973786152944
 40
0.685973786152944
 40
0.685973786152944
 10
58.26799020649391
 20
21.88702616597106
 30
0.0
 10
58.50429672028064
 20
22.05575719173337
 30
0.0
 10
58.86675260577241
 20
22.32949788718418
 30
0.0
 10
59.35578794533112
 20
22.72702677466856
 30
0.0
 10
59.75735727845179
 20
23.07034686330431
 30
0.0
 10
60.17788117025287
 20
23.44832410238908
 30
0.0
 10
60.61586837432003
 20
23.86209774298825
 30
0.0
 10
60.98248082464742
 20
24.22607595140379
 30
0.0
 10
61.20254199670759
 20
24.45250249959331
 30
0.0
 10
61.27359574651929
 20
24.52644418362541
 30
0.0
  0
ARC
  5
195
330
1F
100
AcDbEntity
  8
0
  6
Continuous
 62
     7
370
    25
100
AcDbCircle
 10
0.0
 20
0.0
 30
0.0
 40
66.0
100
AcDbArc
 50
21.8151166925
 51
23.1848833075
  0
SPLINE
  5
196
330
1F
100
AcDbEntity
  8
0
  6
Continuous
 62
     7
370
    25
100
AcDbSpline
210
0.0
220
0.0
230
1.0
 70
     8
 71
     3
 72
    14
 73
    10
 74
     0
 42
0.000000001
 43
0.00000001
 40
0.314026213847057
 40
0.314026213847057
 40
0.314026213847057
 40
0.314026213847057
 40
0.3667108195896758
 40
0.4762409366480478
 40
0.5794176423122134
 40
0.6762409365885453
 40
0.7667108194847762
 40
0.8508272910103719
 40
1.0
 40
1.0
 40
1.0
 40
1.0
 10
60.66979006068199
 20
25.9841600594118
 30
0.0
 10
60.56726280616996
 20
25.98620213728266
 30
0.0
 10
60.25154831146488
 20
25.99070313790853
 30
0.0
 10
59.73494270239621
 20
25.98884044758939
 30
0.0
 10
59.13265683318347
 20
25.97171887266447
 30
0.0
 10
58.56803126874897
 20
25.941633846012
 30
0.0
 10
58.04131490739084
 20
25.9004454102377
 30
0.0
 10
57.41441933049131
 20
25.83574057745365
 30
0.0
 10
56.96456041393907
 20
25.77300946498141
 30
0.0
 10
56.67815562308885
 20
25.72522637915737
 30
0.0
  0
LINE
  5
197
330
1F
100
AcDbEntity
  8
0
  6
Continuous
 62
     7
370
    25
100
AcDbLine
 10
56.6781556231
 20
25.7252263792
 30
0.0
 11
56.6441225644
 21
25.7202737379
 31
0.0
  0
SPLINE
  5
198
330
1F
100
AcDbEntity
  8
0
  6
Continuous
 62
     7
370
    25
100
AcDbSpline
210
0.0
220
0.0
230
1.0
 70
     8
 71
     3
 72
    15
 73
    11
 74
     0
 42
0.000000001
 43
0.00000001
 40
0.0
 40
0.0
 40
0.0
 40
0.0
 40
0.089398154854713
 40
0.153239276293117
 40
0.2229388537733802
 40
0.3017481308857564
 40
0.3942398025453073
 40
0.5064297554373132
 40
0.6447484245704628
 40
1.0
 40
1.0
 40
1.0
 40
1.0
 10
56.64412256437812
 20
25.72027373793503
 30
0.0
 10
56.6094045072871
 20
25.71461223859517
 30
0.0
 10
56.5494050118271
 20
25.70816414433004
 30
0.0
 10
56.46174496760282
 20
25.70418248287047
 30
0.0
 10
56.37814634659563
 20
25.70605435956083
 30
0.0
 10
56.28371955625833
 20
25.71593118707669
 30
0.0
 10
56.17435250697829
 20
25.73903810069722
 30
0.0
 10
56.04674444145788
 20
25.78444751558155
 30
0.0
 10
55.83795261072621
 20
25.90244172308525
 30
0.0
 10
55.70742498890906
 20
26.05544865421556
 30
0.0
 10
55.64811127875647
 20
26.18277508414906
 30
0.0
  0
ARC
  5
199
330
1F
100
AcDbEntity
  8
0
  6
Continuous
 62
     7
370
    25
100
AcDbCircle
 10
0.0
 20
0.0
 30
0.0
 40
61.50000000000001
100
AcDbArc
 50
25.1972701194
 51
25.4277298806
  0
SPLINE
  5
19A
330
1F
100
AcDbEntity
  8
0
  6
Continuous
 62
     7
370
    25
100
AcDbSpline
210
0.0
220
0.0
230
1.0
 70
     8
 71
     3
 72
    15
 73
    11
 74
     0
 42
0.000000001
 43
0.00000001
 40
0.0
 40
0.0
 40
0.0
 40
0.0
 40
0.3552515754295372
 40
0.4935702445626868
 40
0.6057601974546927
 40
0.6982518691142436
 40
0.7770611462266198
 40
0.846760723706883
 40
0.910601845145287
 40
1.0
 40
1.0
 40
1.0
 40
1.0
 10
55.54234690972709
 20
26.40639505421992
 30
0.0
 10
55.48155046777877
 20
26.53302020424194
 30
0.0
 10
55.44608035725675
 20
26.73098598989873
 30
0.0
 10
55.48732573662453
 20
26.96723899044161
 30
0.0
 10
55.53317748400913
 20
27.09468878686271
 30
0.0
 10
55.58469731980755
 20
27.19388953002822
 30
0.0
 10
55.63696615052686
 20
27.27314821908136
 30
0.0
 10
55.68855357401009
 20
27.33895833300777
 30
0.0
 10
55.74724238328545
 20
27.40419452424561
 30
0.0
 10
55.7902901045297
 20
27.44648413373522
 30
0.0
 10
55.8166914049589
 20
27.46972993762753
 30
0.0
  0
LINE
  5
19B
330
1F
100
AcDbEntity
  8
0
  6
Continuous
 62
     7
370
    25
100
AcDbLine
 10
55.816691405
 20
27.4697299376
 30
0.0
 11
55.8421101923
 21
27.4928959254
 31
0.0
  0
SPLINE
  5
19C
330
1F
100
AcDbEntity
  8
0
  6
Continuous
 62
     7
370
    25
100
AcDbSpline
210
0.0
220
0.0
230
1.0
 70
     8
 71
     3
 72
    14
 73
    10
 74
     0
 42
0.000000001
 43
0.00000001
 40
0.0
 40
0.0
 40
0.0
 40
0.0
 40
0.1491727089896281
 40
0.2332891805152238
 40
0.3237590634114546
 40
0.4205823576877865
 40
0.5237590633519522
 40
0.6332891804103242
 40
0.6859737861529438
 40
0.6859737861529438
 40
0.6859737861529438
 40
0.6859737861529438
 10
55.84211019228114
 20
27.4928959254405
 30
0.0
 10
56.06074029298475
 20
27.68397655391751
 30
0.0
 10
56.3946195741587
 20
27.99192600249031
 30
0.0
 10
56.84233543014086
 20
28.4354745252294
 30
0.0
 10
57.20831984385672
 20
28.81650211147597
 30
0.0
 10
57.58977055009316
 20
29.23387783615746
 30
0.0
 10
57.98509181706338
 20
29.68858929682491
 30
0.0
 10
58.3142628251059
 20
30.08674915467187
 30
0.0
 10
58.51107065972553
 20
30.3336551639261
 30
0.0
 10
58.57453471389094
 20
30.4142052839055
 30
0.0
  0
ARC
  5
19D
330
1F
100
AcDbEntity
  8
0
  6
Continuous
 62
     7
370
    25
100
AcDbCircle
 10
0.0
 20
0.0
 30
0.0
 40
66.0
100
AcDbArc
 50
27.4401166925
 51
28.8098833075
  0
SPLINE
  5
19E
330
1F
100
AcDbEntity
  8
0
  6
Continuous
 62
     7
370
    25
100
AcDbSpline
210
0.0
220
0.0
230
1.0
 70
     8
 71
     3
 72
    14
 73
    10
 74
     0
 42
0.000000001
 43
0.00000001
 40
0.3140262138470552
 40
0.3140262138470552
 40
0.3140262138470552
 40
0.3140262138470552
 40
0.3667108195896758
 40
0.4762409366480478
 40
0.5794176423122134
 40
0.6762409365885453
 40
0.7667108194847762
 40
0.8508272910103719
 40
1.0
 40
1.0
 40
1.0
 40
1.0
 10
57.83075537591026
 20
31.8057185526752
 30
0.0
 10
57.72852165951901
 20
31.79770136908985
 30
0.0
 10
57.41388624118953
 20
31.77123526423588
 30
0.0
 10
56.89995080490959
 20
31.71874533880061
 30
0.0
 10
56.30224331459065
 20
31.64267187037764
 30
0.0
 10
55.74328542485599
 20
31.55738872816872
 30
0.0
 10
55.22314251943327
 20
31.46477139446551
 30
0.0
 10
54.6056077987595
 20
31.338931621404
 30
0.0
 10
54.16406380010362
 20
31.23240869183227
 30
0.0
 10
53.88372168803234
 20
31.15678311605109
 30
0.0
  0
LINE
  5
19F
330
1F
100
AcDbEntity
  8
0
  6
Continuous
 62
     7
370
    25
100
AcDbLine
 10
53.883721688
 20
31.1567831161
 30
0.0
 11
53.8503379515
 21
31.1485185001
 31
0.0
  0
SPLINE
  5
1A0
330
1F
100
AcDbEntity
  8
0
  6
Continuous
 62
     7
370
    25
100
AcDbSpline
210
0.0
220
0.0
230
1.0
 70
     8
 71
     3
 72
    15
 73
    11
 74
     0
 42
0.000000001
 43
0.00000001
 40
0.0
 40
0.0
 40
0.0
 40
0.0
 40
0.089398154854713
 40
0.153239276293117
 40
0.2229388537733802
 40
0.3017481308857564
 40
0.3942398025453073
 40
0.5064297554373132
 40
0.6447484245704628
 40
1.0
 40
1.0
 40
1.0
 40
1.0
 10
53.85033795153117
 20
31.14851850005845
 30
0.0
 10
53.81634199534972
 20
31.13948129771149
 30
0.0
 10
53.75726343762035
 20
31.12718327381648
 30
0.0
 10
53.67041577153895
 20
31.11462859828912
 30
0.0
 10
53.5870362247415
 20
31.10829736361496
 30
0.0
 10
53.49209602682051
 20
31.10887118754735
 30
0.0
 10
53.38099073618088
 20
31.12114698964633
 30
0.0
 10
53.24954623738378
 20
31.15382996812103
 30
0.0
 10
53.03019434159072
 20
31.25079082309201
 30
0.0
 10
52.88529794410947
 20
31.39026703980335
 30
0.0
 10
52.8137896731329
 20
31.51116659792337
 30
0.0
  0
ARC
  5
1A1
330
1F
100
AcDbEntity
  8
0
  6
Continuous
 62
     7
370
    25
100
AcDbCircle
 10
0.0
 20
0.0
 30
0.0
 40
61.50000000000001
100
AcDbArc
 50
30.8222701194
 51
31.0527298806
  0
SPLINE
  5
1A2
330
1F
100
AcDbEntity
  8
0
  6
Continuous
 62
     7
370
    25
100
AcDbSpline
210
0.0
220
0.0
230
1.0
 70
     8
 71
     3
 72
    15
 73
    11
 74
     0
 42
0.000000001
 43
0.00000001
 40
0.0
 40
0.0
 40
0.0
 40
0.0
 40
0.3552515754295372
 40
0.4935702445626868
 40
0.6057601974546927
 40
0.6982518691142436
 40
0.7770611462266198
 40
0.846760723706883
 40
0.910601845145287
 40
1.0
 40
1.0
 40
1.0
 40
1.0
 10
52.68661599846179
 20
31.72334305571577
 30
0.0
 10
52.61370087289985
 20
31.84339937764828
 30
0.0
 10
52.55899752046179
 20
32.03693522513704
 30
0.0
 10
52.57688744854691
 20
32.27609335704523
 30
0.0
 10
52.61002614265452
 20
32.40742370501874
 30
0.0
 10
52.65157452319811
 20
32.5111965964668
 30
0.0
 10
52.69582295516372
 20
32.59519687458402
 30
0.0
 10
52.74071145193078
 20
32.66574654655093
 30
0.0
 10
52.79272339363708
 20
32.73642111695162
 30
0.0
 10
52.83141872174957
 20
32.78272650494667
 30
0.0
 10
52.8554144054788
 20
32.80844815390857
 30
0.0
  0
LINE
  5
1A3
330
1F
100
AcDbEntity
  8
0
  6
Continuous
 62
     7
370
    25
100
AcDbLine
 10
52.8554144055
 20
32.8084481539
 30
0.0
 11
52.8784401305
 21
32.833994068
 31
0.0
  0
SPLINE
  5
1A4
330
1F
100
AcDbEntity
  8
0
  6
Continuous
 62
     7
370
    25
100
AcDbSpline
210
0.0
220
0.0
230
1.0
 70
     8
 71
     3
 72
    14
 73
    10
 74
     0
 42
0.000000001
 43
0.00000001
 40
0.0
 40
0.0
 40
0.0
 40
0.0
 40
0.1491727089896281
 40
0.2332891805152238
 40
0.3237590634114546
 40
0.4205823576877865
 40
0.5237590633519522
 40
0.6332891804103242
 40
0.6859737861529464
 40
0.6859737861529464
 40
0.6859737861529464
 40
0.6859737861529464
 10
52.87844013051409
 20
32.83399406800229
 30
0.0
 10
53.07728829074943
 20
33.04558408828647
 30
0.0
 10
53.37937552761086
 20
33.3847765684492
 30
0.0
 10
53.78146015157699
 20
33.87007311170073
 30
0.0
 10
54.10833501591653
 20
34.28513869161171
 30
0.0
 10
54.44703895776511
 20
34.73789334550045
 30
0.0
 10
54.79588712773286
 20
35.22916350629939
 30
0.0
 10
55.08444659673989
 20
35.65767051649038
 30
0.0
 10
55.25610572688549
 20
35.92267814696765
 30
0.0
 10
55.31136889187004
 20
36.00906096120578
 30
0.0
  0
ARC
  5
1A5
330
1F
100
AcDbEntity
  8
0
  6
Continuous
 62
     7
370
    25
100
AcDbCircle
 10
0.0
 20
0.0
 30
0.0
 40
66.0
100
AcDbArc
 50
33.0651166925
 51
34.4348833075
  0
SPLINE
  5
1A6
330
1F
100
AcDbEntity
  8
0
  6
Continuous
 62
     7
370
    25
100
AcDbSpline
210
0.0
220
0.0
230
1.0
 70
     8
 71
     3
 72
    14
 73
    10
 74
     0
 42
0.000000001
 43
0.00000001
 40
0.3140262138470571
 40
0.3140262138470571
 40
0.3140262138470571
 40
0.3140262138470571
 40
0.3667108195896758
 40
0.4762409366480478
 40
0.5794176423122134
 40
0.6762409365885453
 40
0.7667108194847762
 40
0.8508272910103719
 40
1.0
 40
1.0
 40
1.0
 40
1.0
 10
54.43477890336183
 20
37.320970589502
 30
0.0
 10
54.33382329166686
 20
37.302971354321
 30
0.0
 10
54.0232970607887
 20
37.24579302704477
 30
0.0
 10
53.51698127649456
 20
37.14318137316924
 30
0.0
 10
52.92960841494137
 20
37.00888864033509
 30
0.0
 10
52.38170126994213
 20
36.86922870584974
 30
0.0
 10
51.87314108097309
 20
36.72607442977095
 30
0.0
 10
51.27091441346397
 20
36.54031162223759
 30
0.0
 10
50.84193764278402
 20
36.39102274960949
 30
0.0
 10
50.57035805728151
 20
36.2882829995071
 30
0.0
  0
LINE
  5
1A7
330
1F
100
AcDbEntity
  8
0
  6
Continuous
 62
     7
370
    25
100
AcDbLine
 10
50.5703580573
 20
36.2882829995
 30
0.0
 11
50.5379451466
 21
36.2767860015
 31
0.0
  0
SPLINE
  5
1A8
330
1F
100
AcDbEntity
  8
0
  6
Continuous
 62
     7
370
    25
100
AcDbSpline
210
0.0
220
0.0
230
1.0
 70
     8
 71
     3
 72
    15
 73
    11
 74
     0
 42
0.000000001
 43
0.00000001
 40
0.0
 40
0.0
 40
0.0
 40
0.0
 40
0.089398154854713
 40
0.153239276293117
 40
0.2229388537733802
 40
0.3017481308857564
 40
0.3942398025453073
 40
0.5064297554373132
 40
0.6447484245704628
 40
1.0
 40
1.0
 40
1.0
 40
1.0
 10
50.53794514662183
 20
36.27678600151405
 30
0.0
 10
50.50499869099205
 20
36.26446012935883
 30
0.0
 10
50.44741002979985
 20
36.24643061252684
 30
0.0
 10
50.36221113236147
 20
36.22542383132008
 30
0.0
 10
50.27985365038932
 20
36.21095045853232
 30
0.0
 10
50.18531437089021
 20
36.20221575264311
 30
0.0
 10
50.07354084357618
 20
36.20354222053567
 30
0.0
 10
49.93952579388069
 20
36.22318400765172
 30
0.0
 10
49.71172631169269
 20
36.29817772405241
 30
0.0
 10
49.55385657006348
 20
36.42277999413238
 30
0.0
 10
49.47084240200283
 20
36.53608835160381
 30
0.0
  0
ARC
  5
1A9
330
1F
100
AcDbEntity
  8
0
  6
Continuous
 62
     7
370
    25
100
AcDbCircle
 10
0.0
 20
0.0
 30
0.0
 40
61.50000000000001
100
AcDbArc
 50
36.4472701194
 51
36.6777298806
  0
SPLINE
  5
1AA
330
1F
100
AcDbEntity
  8
0
  6
Continuous
 62
     7
370
    25
100
AcDbSpline
210
0.0
220
0.0
230
1.0
 70
     8
 71
     3
 72
    15
 73
    11
 74
     0
 42
0.000000001
 43
0.00000001
 40
0.0
 40
0.0
 40
0.0
 40
0.0
 40
0.3552515754295372
 40
0.4935702445626868
 40
0.6057601974546927
 40
0.6982518691142436
 40
0.7770611462266198
 40
0.846760723706883
 40
0.910601845145287
 40
1.0
 40
1.0
 40
1.0
 40
1.0
 10
49.32348417369731
 20
36.73477792184175
 30
0.0
 10
49.23915257704036
 20
36.84710920767507
 30
0.0
 10
49.16574280587413
 20
37.03435126098702
 30
0.0
 10
49.16010499288951
 20
37.27411130071311
 30
0.0
 10
49.18021148998042
 20
37.40805741719557
 30
0.0
 10
49.21138828165189
 20
37.5154030672535
 30
0.0
 10
49.24719017827532
 20
37.60333596583732
 30
0.0
 10
49.28494744756379
 20
37.67794576393732
 30
0.0
 10
49.32978161826976
 20
37.75337807875324
 30
0.0
 10
49.36375189608776
 20
37.80325329905425
 30
0.0
 10
49.38511087156533
 20
37.83120307954535
 30
0.0
  0
LINE
  5
1AB
330
1F
100
AcDbEntity
  8
0
  6
Continuous
 62
     7
370
    25
100
AcDbLine
 10
49.3851108716
 20
37.8312030795
 30
0.0
 11
49.405521784
 21
37.8588828988
 31
0.0
  0
SPLINE
  5
1AC
330
1F
100
AcDbEntity
  8
0
  6
Continuous
 62
     7
370
    25
100
AcDbSpline
210
0.0
220
0.0
230
1.0
 70
     8
 71
     3
 72
    14
 73
    10
 74
     0
 42
0.000000001
 43
0.00000001
 40
0.0
 40
0.0
 40
0.0
 40
0.0
 40
0.1491727089896281
 40
0.2332891805152238
 40
0.3237590634114546
 40
0.4205823576877865
 40
0.5237590633519522
 40
0.6332891804103242
 40
0.6859737861529427
 40
0.6859737861529427
 40
0.6859737861529427
 40
0.6859737861529427
 10
49.40552178399443
 20
37.85888289880227
 30
0.0
 10
49.58267298727699
 20
38.0889445833314
 30
0.0
 10
49.85005891459726
 20
38.45611348607863
 30
0.0
 10
50.20264001181675
 20
38.97848437884102
 30
0.0
 10
50.4872573431484
 20
39.42359064398394
 30
0.0
 10
50.77995261649468
 20
39.90736395226212
 30
0.0
 10
51.07896809088339
 20
40.43046161298845
 30
0.0
 10
51.32413703542572
 20
40.88518901876958
 30
0.0
 10
51.46899428983556
 20
41.16574610212046
 30
0.0
 10
51.51552435115049
 20
41.25712969689454
 30
0.0
  0
ARC
  5
1AD
330
1F
100
AcDbEntity
  8
0
  6
Continuous
 62
     7
370
    25
100
AcDbCircle
 10
0.0
 20
0.0
 30
0.0
 40
66.0
100
AcDbArc
 50
38.6901166925
 51
40.0598833075
  0
SPLINE
  5
1AE
330
1F
100
AcDbEntity
  8
0
  6
Continuous
 62
     7
370
    25
100
AcDbSpline
210
0.0
220
0.0
230
1.0
 70
     8
 71
     3
 72
    14
 73
    10
 74
     0
 42
0.000000001
 43
0.00000001
 40
0.3140262138470557
 40
0.3140262138470557
 40
0.3140262138470557
 40
0.3140262138470557
 40
0.3667108195896758
 40
0.4762409366480478
 40
0.5794176423122134
 40
0.6762409365885453
 40
0.7667108194847762
 40
0.8508272910103719
 40
1.0
 40
1.0
 40
1.0
 40
1.0
 10
50.51456575289698
 20
42.47680127783407
 30
0.0
 10
50.41586050362687
 20
42.4489933335316
 30
0.0
 10
50.11243399755428
 20
42.36165344238164
 30
0.0
 10
49.61861396302906
 20
42.20990826638592
 30
0.0
 10
49.04723245198902
 20
42.01868958156966
 30
0.0
 10
48.51565269704809
 20
41.82599785632284
 30
0.0
 10
48.02357293715976
 20
41.6336852918032
 30
0.0
 10
47.44245409483401
 20
41.38978844718281
 30
0.0
 10
47.03017583293419
 20
41.19917136495136
 30
0.0
 10
46.76997423386932
 20
41.07030688048449
 30
0.0
  0
LINE
  5
1AF
330
1F
100
AcDbEntity
  8
0
  6
Continuous
 62
     7
370
    25
100
AcDbLine
 10
46.7699742339
 20
41.0703068805
 30
0.0
 11
46.7388443031
 21
41.0556882229
 31
0.0
  0
SPLINE
  5
1B0
330
1F
100
AcDbEntity
  8
0
  6
Continuous
 62
     7
370
    25
100
AcDbSpline
210
0.0
220
0.0
230
1.0
 70
     8
 71
     3
 72
    15
 73
    11
 74
     0
 42
0.000000001
 43
0.00000001
 40
0.0
 40
0.0
 40
0.0
 40
0.0
 40
0.089398154854713
 40
0.153239276293117
 40
0.2229388537733802
 40
0.3017481308857564
 40
0.3942398025453073
 40
0.5064297554373132
 40
0.6447484245704628
 40
1.0
 40
1.0
 40
1.0
 40
1.0
 10
46.73884430309946
 20
41.05568822286661
 30
0.0
 10
46.70726464039945
 20
41.04019238579
 30
0.0
 10
46.65172048603287
 20
41.01660501012406
 30
0.0
 10
46.5689908691943
 20
40.9873484300244
 30
0.0
 10
46.48844859962002
 20
40.96487230561494
 30
0.0
 10
46.39522070348478
 20
40.9469131898967
 30
0.0
 10
46.28385537966603
 20
40.93727754897193
 30
0.0
 10
46.14856041726078
 20
40.94368898358209
 30
0.0
 10
45.91450718221915
 20
40.99599333092782
 30
0.0
 10
45.74518446835428
 20
41.10452166640103
 30
0.0
 10
45.65146387502813
 20
41.20914760180078
 30
0.0
  0
ARC
  5
1B1
330
1F
100
AcDbEntity
  8
0
  6
Continuous
 62
     7
370
    25
100
AcDbCircle
 10
0.0
 20
0.0
 30
0.0
 40
61.50000000000001
100
AcDbArc
 50
42.0722701194
 51
42.3027298806
  0
SPLINE
  5
1B2
330
1F
100
AcDbEntity
  8
0
  6
Continuous
 62
     7
370
    25
100
AcDbSpline
210
0.0
220
0.0
230
1.0
 70
     8
 71
     3
 72
    15
 73
    11
 74
     0
 42
0.000000001
 43
0.00000001
 40
0.0
 40
0.0
 40
0.0
 40
0.0
 40
0.3552515754295372
 40
0.4935702445626868
 40
0.6057601974546927
 40
0.6982518691142436
 40
0.7770611462266198
 40
0.846760723706883
 40
0.910601845145287
 40
1.0
 40
1.0
 40
1.0
 40
1.0
 10
45.48534023338097
 20
41.3924367953081
 30
0.0
 10
45.39040432500518
 20
41.49596123335313
 30
0.0
 10
45.29899511133697
 20
41.67510624915796
 30
0.0
 10
45.26988385250358
 20
41.91315917645323
 30
0.0
 10
45.27676451601947
 20
42.04843108712053
 30
0.0
 10
45.29726946927207
 20
42.15831569849716
 30
0.0
 10
45.32428003871753
 20
42.24933437566519
 30
0.0
 10
45.35454245738394
 20
42.32728576675671
 30
0.0
 10
45.39176707951683
 20
42.40674937156069
 30
0.0
 10
45.42068515469491
 20
42.45971409853159
 30
0.0
 10
45.43920172331098
 20
42.48962283888685
 30
0.0
  0
LINE
  5
1B3
330
1F
100
AcDbEntity
  8
0
  6
Continuous
 62
     7
370
    25
100
AcDbLine
 10
45.4392017233
 20
42.4896228389
 30
0.0
 11
45.4568012549
 21
42.5191699915
 31
0.0
  0
SPLINE
  5
1B4
330
1F
100
AcDbEntity
  8
0
  6
Continuous
 62
     7
370
    25
100
AcDbSpline
210
0.0
220
0.0
230
1.0
 70
     8
 71
     3
 72
    14
 73
    10
 74
     0
 42
0.000000001
 43
0.00000001
 40
0.0
 40
0.0
 40
0.0
 40
0.0
 40
0.1491727089896281
 40
0.2332891805152238
 40
0.3237590634114546
 40
0.4205823576877865
 40
0.5237590633519522
 40
0.6332891804103242
 40
0.6859737861529426
 40
0.6859737861529426
 40
0.6859737861529426
 40
0.6859737861529426
 10
45.45680125488946
 20
42.51916999151621
 30
0.0
 10
45.61054943829091
 20
42.76548772050378
 30
0.0
 10
45.84065898342189
 20
43.15709700858711
 30
0.0
 10
46.14034100518808
 20
43.71151153360606
 30
0.0
 10
46.37995978302347
 20
44.18237186732777
 30
0.0
 10
46.62382757238164
 20
44.69250482857928
 30
0.0
 10
46.87013066871444
 20
45.24239227280594
 30
0.0
 10
47.06954797783317
 20
45.71896080068026
 30
0.0
 10
47.18620830196026
 20
46.012365418824
 30
0.0
 10
47.22355714967922
 20
46.10786972016102
 30
0.0
  0
ARC
  5
1B5
330
1F
100
AcDbEntity
  8
0
  6
Continuous
 62
     7
370
    25
100
AcDbCircle
 10
0.0
 20
0.0
 30
0.0
 40
66.0
100
AcDbArc
 50
44.3151166925
 51
45.6848833075
  0
SPLINE
  5
1B6
330
1F
100
AcDbEntity
  8
0
  6
Continuous
 62
     7
370
    25
100
AcDbSpline
210
0.0
220
0.0
230
1.0
 70
     8
 71
     3
 72
    14
 73
    10
 74
     0
 42
0.000000001
 43
0.00000001
 40
0.3140262138470558
 40
0.3140262138470558
 40
0.3140262138470558
 40
0.3140262138470558
 40
0.3667108195896758
 40
0.4762409366480478
 40
0.5794176423122134
 40
0.6762409365885453
 40
0.7667108194847762
 40
0.8508272910103719
 40
1.0
 40
1.0
 40
1.0
 40
1.0
 10
46.10786972016118
 20
47.22355714967907
 30
0.0
 10
46.01236541882416
 20
47.18620830196011
 30
0.0
 10
45.71896080068041
 20
47.06954797783303
 30
0.0
 10
45.24239227280609
 20
46.8701306687143
 30
0.0
 10
44.69250482857944
 20
46.62382757238149
 30
0.0
 10
44.18237186732793
 20
46.37995978302334
 30
0.0
 10
43.7115115336062
 20
46.14034100518793
 30
0.0
 10
43.15709700858727
 20
45.84065898342178
 30
0.0
 10
42.76548772050391
 20
45.61054943829075
 30
0.0
 10
42.51916999151636
 20
45.45680125488932
 30
0.0
  0
LINE
  5
1B7
330
1F
100
AcDbEntity
  8
0
  6
Continuous
 62
     7
370
    25
100
AcDbLine
 10
42.5191699915
 20
45.4568012549
 30
0.0
 11
42.4896228389
 21
45.4392017233
 31
0.0
  0
SPLINE
  5
1B8
330
1F
100
AcDbEntity
  8
0
  6
Continuous
 62
     7
370
    25
100
AcDbSpline
210
0.0
220
0.0
230
1.0
 70
     8
 71
     3
 72
    15
 73
    11
 74
     0
 42
0.000000001
 43
0.00000001
 40
0.0
 40
0.0
 40
0.0
 40
0.0
 40
0.089398154854713
 40
0.153239276293117
 40
0.2229388537733802
 40
0.3017481308857564
 40
0.3942398025453073
 40
0.5064297554373132
 40
0.6447484245704628
 40
1.0
 40
1.0
 40
1.0
 40
1.0
 10
42.489622838887
 20
45.43920172331084
 30
0.0
 10
42.45971409853175
 20
45.42068515469477
 30
0.0
 10
42.40674937156085
 20
45.39176707951671
 30
0.0
 10
42.32728576675687
 20
45.35454245738379
 30
0.0
 10
42.24933437566533
 20
45.32428003871738
 30
0.0
 10
42.15831569849732
 20
45.29726946927193
 30
0.0
 10
42.04843108712066
 20
45.27676451601932
 30
0.0
 10
41.91315917645337
 20
45.26988385250345
 30
0.0
 10
41.6751062491581
 20
45.29899511133682
 30
0.0
 10
41.49596123335328
 20
45.39040432500504
 30
0.0
 10
41.39243679530825
 20
45.48534023338083
 30
0.0
  0
ARC
  5
1B9
330
1F
100
AcDbEntity
  8
0
  6
Continuous
 62
     7
370
    25
100
AcDbCircle
 10
0.0
 20
0.0
 30
0.0
 40
61.50000000000001
100
AcDbArc
 50
47.6972701194
 51
47.9277298806
  0
SPLINE
  5
1BA
330
1F
100
AcDbEntity
  8
0
  6
Continuous
 62
     7
370
    25
100
AcDbSpline
210
0.0
220
0.0
230
1.0
 70
     8
 71
     3
 72
    15
 73
    11
 74
     0
 42
0.000000001
 43
0.00000001
 40
0.0
 40
0.0
 40
0.0
 40
0.0
 40
0.3552515754295372
 40
0.4935702445626868
 40
0.6057601974546927
 40
0.6982518691142436
 40
0.7770611462266198
 40
0.846760723706883
 40
0.910601845145287
 40
1.0
 40
1.0
 40
1.0
 40
1.0
 10
41.20914760180092
 20
45.65146387502799
 30
0.0
 10
41.10452166640119
 20
45.74518446835414
 30
0.0
 10
40.99599333092799
 20
45.91450718221903
 30
0.0
 10
40.94368898358223
 20
46.14856041726063
 30
0.0
 10
40.93727754897209
 20
46.28385537966589
 30
0.0
 10
40.94691318989684
 20
46.39522070348465
 30
0.0
 10
40.9648723056151
 20
46.48844859961989
 30
0.0
 10
40.98734843002457
 20
46.56899086919417
 30
0.0
 10
41.0166050101242
 20
46.65172048603272
 30
0.0
 10
41.04019238579015
 20
46.70726464039932
 30
0.0
 10
41.05568822286676
 20
46.73884430309934
 30
0.0
  0
LINE
  5
1BB
330
1F
100
AcDbEntity
  8
0
  6
Continuous
 62
     7
370
    25
100
AcDbLine
 10
41.0556882229
 20
46.7388443031
 30
0.0
 11
41.0703068805
 21
46.7699742339
 31
0.0
  0
SPLINE
  5
1BC
330
1F
100
AcDbEntity
  8
0
  6
Continuous
 62
     7
370
    25
100
AcDbSpline
210
0.0
220
0.0
230
1.0
 70
     8
 71
     3
 72
    14
 73
    10
 74
     0
 42
0.000000001
 43
0.00000001
 40
0.0
 40
0.0
 40
0.0
 40
0.0
 40
0.1491727089896281
 40
0.2332891805152238
 40
0.3237590634114546
 40
0.4205823576877865
 40
0.5237590633519522
 40
0.6332891804103242
 40
0.685973786152944
 40
0.685973786152944
 40
0.685973786152944
 40
0.685973786152944
 10
41.07030688048465
 20
46.76997423386918
 30
0.0
 10
41.19917136495152
 20
47.03017583293407
 30
0.0
 10
41.38978844718294
 20
47.44245409483385
 30
0.0
 10
41.63368529180338
 20
48.02357293715964
 30
0.0
 10
41.82599785632299
 20
48.51565269704794
 30
0.0
 10
42.01868958156982
 20
49.04723245198888
 30
0.0
 10
42.20990826638608
 20
49.61861396302893
 30
0.0
 10
42.36165344238179
 20
50.11243399755413
 30
0.0
 10
42.44899333353176
 20
50.41586050362673
 30
0.0
 10
42.47680127783424
 20
50.51456575289685
 30
0.0
  0
ARC
  5
1BD
330
1F
100
AcDbEntity
  8
0
  6
Continuous
 62
     7
370
    25
100
AcDbCircle
 10
0.0
 20
0.0
 30
0.0
 40
66.0
100
AcDbArc
 50
49.9401166925
 51
51.3098833075
  0
SPLINE
  5
1BE
330
1F
100
AcDbEntity
  8
0
  6
Continuous
 62
     7
370
    25
100
AcDbSpline
210
0.0
220
0.0
230
1.0
 70
     8
 71
     3
 72
    14
 73
    10
 74
     0
 42
0.000000001
 43
0.00000001
 40
0.3140262138470545
 40
0.3140262138470545
 40
0.3140262138470545
 40
0.3140262138470545
 40
0.3667108195896758
 40
0.4762409366480478
 40
0.5794176423122134
 40
0.6762409365885453
 40
0.7667108194847762
 40
0.8508272910103719
 40
1.0
 40
1.0
 40
1.0
 40
1.0
 10
41.25712969689474
 20
51.51552435115038
 30
0.0
 10
41.16574610212065
 20
51.46899428983544
 30
0.0
 10
40.88518901876976
 20
51.3241370354256
 30
0.0
 10
40.43046161298862
 20
51.07896809088327
 30
0.0
 10
39.90736395226229
 20
50.77995261649455
 30
0.0
 10
39.42359064398412
 20
50.48725734314828
 30
0.0
 10
38.97848437884117
 20
50.20264001181661
 30
0.0
 10
38.45611348607881
 20
49.85005891459715
 30
0.0
 10
38.08894458333155
 20
49.58267298727684
 30
0.0
 10
37.85888289880244
 20
49.40552178399432
 30
0.0
  0
LINE
  5
1BF
330
1F
100
AcDbEntity
  8
0
  6
Continuous
 62
     7
370
    25
100
AcDbLine
 10
37.8588828988
 20
49.405521784
 30
0.0
 11
37.8312030795
 21
49.3851108716
 31
0.0
  0
SPLINE
  5
1C0
330
1F
100
AcDbEntity
  8
0
  6
Continuous
 62
     7
370
    25
100
AcDbSpline
210
0.0
220
0.0
230
1.0
 70
     8
 71
     3
 72
    15
 73
    11
 74
     0
 42
0.000000001
 43
0.00000001
 40
0.0
 40
0.0
 40
0.0
 40
0.0
 40
0.089398154854713
 40
0.153239276293117
 40
0.2229388537733802
 40
0.3017481308857564
 40
0.3942398025453073
 40
0.5064297554373132
 40
0.6447484245704628
 40
1.0
 40
1.0
 40
1.0
 40
1.0
 10
37.83120307954551
 20
49.38511087156521
 30
0.0
 10
37.80325329905443
 20
49.36375189608764
 30
0.0
 10
37.75337807875341
 20
49.32978161826966
 30
0.0
 10
37.67794576393749
 20
49.28494744756366
 30
0.0
 10
37.60333596583747
 20
49.24719017827519
 30
0.0
 10
37.51540306725368
 20
49.21138828165178
 30
0.0
 10
37.40805741719573
 20
49.18021148998028
 30
0.0
 10
37.27411130071328
 20
49.16010499288939
 30
0.0
 10
37.03435126098717
 20
49.165742805874
 30
0.0
 10
36.84710920767523
 20
49.23915257704024
 30
0.0
 10
36.73477792184191
 20
49.32348417369718
 30
0.0
  0
ARC
  5
1C1
330
1F
100
AcDbEntity
  8
0
  6
Continuous
 62
     7
370
    25
100
AcDbCircle
 10
0.0
 20
0.0
 30
0.0
 40
61.50000000000001
100
AcDbArc
 50
53.3222701194
 51
53.5527298806
  0
SPLINE
  5
1C2
330
1F
100
AcDbEntity
  8
0
  6
Continuous
 62
     7
370
    25
100
AcDbSpline
210
0.0
220
0.0
230
1.0
 70
     8
 71
     3
 72
    15
 73
    11
 74
     0
 42
0.000000001
 43
0.00000001
 40
0.0
 40
0.0
 40
0.0
 40
0.0
 40
0.3552515754295372
 40
0.4935702445626868
 40
0.6057601974546927
 40
0.6982518691142436
 40
0.7770611462266198
 40
0.846760723706883
 40
0.910601845145287
 40
1.0
 40
1.0
 40
1.0
 40
1.0
 10
36.53608835160398
 20
49.47084240200272
 30
0.0
 10
36.42277999413255
 20
49.55385657006337
 30
0.0
 10
36.29817772405259
 20
49.71172631169259
 30
0.0
 10
36.22318400765188
 20
49.93952579388058
 30
0.0
 10
36.20354222053584
 20
50.07354084357608
 30
0.0
 10
36.20221575264327
 20
50.1853143708901
 30
0.0
 10
36.21095045853249
 20
50.27985365038922
 30
0.0
 10
36.22542383132026
 20
50.36221113236137
 30
0.0
 10
36.24643061252701
 20
50.44741002979973
 30
0.0
 10
36.264460129359
 20
50.50499869099193
 30
0.0
 10
36.27678600151422
 20
50.53794514662172
 30
0.0
  0
LINE
  5
1C3
330
1F
100
AcDbEntity
  8
0
  6
Continuous
 62
     7
370
    25
100
AcDbLine
 10
36.2767860015
 20
50.5379451466
 30
0.0
 11
36.2882829995
 21
50.5703580573
 31
0.0
  0
SPLINE
  5
1C4
330
1F
100
AcDbEntity
  8
0
  6
Continuous
 62
     7
370
    25
100
AcDbSpline
210
0.0
220
0.0
230
1.0
 70
     8
 71
     3
 72
    14
 73
    10
 74
     0
 42
0.000000001
 43
0.00000001
 40
0.0
 40
0.0
 40
0.0
 40
0.0
 40
0.1491727089896281
 40
0.2332891805152238
 40
0.3237590634114546
 40
0.4205823576877865
 40
0.5237590633519522
 40
0.6332891804103242
 40
0.6859737861529436
 40
0.6859737861529436
 40
0.6859737861529436
 40
0.6859737861529436
 10
36.28828299950727
 20
50.5703580572814
 30
0.0
 10
36.39102274960968
 20
50.84193764278394
 30
0.0
 10
36.54031162223774
 20
51.27091441346385
 30
0.0
 10
36.72607442977114
 20
51.87314108097301
 30
0.0
 10
36.86922870584991
 20
52.38170126994201
 30
0.0
 10
37.00888864033527
 20
52.92960841494125
 30
0.0
 10
37.14318137316943
 20
53.51698127649446
 30
0.0
 10
37.24579302704493
 20
54.02329706078858
 30
0.0
 10
37.30297135432117
 20
54.33382329166676
 30
0.0
 10
37.32097058950219
 20
54.43477890336174
 30
0.0
  0
ARC
  5
1C5
330
1F
100
AcDbEntity
  8
0
  6
Continuous
 62
     7
370
    25
100
AcDbCircle
 10
0.0
 20
0.0
 30
0.0
 40
66.0
100
AcDbArc
 50
55.5651166925
 51
56.9348833075
  0
SPLINE
  5
1C6
330
1F
100
AcDbEntity
  8
0
  6
Continuous
 62
     7
370
    25
100
AcDbSpline
210
0.0
220
0.0
230
1.0
 70
     8
 71
     3
 72
    14
 73
    10
 74
     0
 42
0.000000001
 43
0.00000001
 40
0.3140262138470578
 40
0.3140262138470578
 40
0.3140262138470578
 40
0.3140262138470578
 40
0.3667108195896758
 40
0.4762409366480478
 40
0.5794176423122134
 40
0.6762409365885453
 40
0.7667108194847762
 40
0.8508272910103719
 40
1.0
 40
1.0
 40
1.0
 40
1.0
 10
36.00906096120595
 20
55.31136889186991
 30
0.0
 10
35.92267814696783
 20
55.25610572688537
 30
0.0
 10
35.65767051649058
 20
55.08444659673979
 30
0.0
 10
35.22916350629956
 20
54.79588712773276
 30
0.0
 10
34.73789334550064
 20
54.447038957765
 30
0.0
 10
34.2851386916119
 20
54.10833501591645
 30
0.0
 10
33.87007311170089
 20
53.78146015157687
 30
0.0
 10
33.38477656844939
 20
53.37937552761079
 30
0.0
 10
33.04558408828663
 20
53.07728829074931
 30
0.0
 10
32.83399406800247
 20
52.87844013051399
 30
0.0
  0
LINE
  5
1C7
330
1F
100
AcDbEntity
  8
0
  6
Continuous
 62
     7
370
    25
100
AcDbLine
 10
32.833994068
 20
52.8784401305
 30
0.0
 11
32.8084481539
 21
52.8554144055
 31
0.0
  0
SPLINE
  5
1C8
330
1F
100
AcDbEntity
  8
0
  6
Continuous
 62
     7
370
    25
100
AcDbSpline
210
0.0
220
0.0
230
1.0
 70
     8
 71
     3
 72
    15
 73
    11
 74
     0
 42
0.000000001
 43
0.00000001
 40
0.0
 40
0.0
 40
0.0
 40
0.0
 40
0.089398154854713
 40
0.153239276293117
 40
0.2229388537733802
 40
0.3017481308857564
 40
0.3942398025453073
 40
0.5064297554373132
 40
0.6447484245704628
 40
1.0
 40
1.0
 40
1.0
 40
1.0
 10
32.80844815390874
 20
52.8554144054787
 30
0.0
 10
32.78272650494685
 20
52.83141872174948
 30
0.0
 10
32.73642111695181
 20
52.792723393637
 30
0.0
 10
32.66574654655111
 20
52.74071145193069
 30
0.0
 10
32.59519687458419
 20
52.69582295516363
 30
0.0
 10
32.51119659646699
 20
52.65157452319802
 30
0.0
 10
32.40742370501891
 20
52.61002614265441
 30
0.0
 10
32.2760933570454
 20
52.57688744854681
 30
0.0
 10
32.03693522513721
 20
52.55899752046168
 30
0.0
 10
31.84339937764846
 20
52.61370087289976
 30
0.0
 10
31.72334305571595
 20
52.68661599846171
 30
0.0
  0
ARC
  5
1C9
330
1F
100
AcDbEntity
  8
0
  6
Continuous
 62
     7
370
    25
100
AcDbCircle
 10
0.0
 20
0.0
 30
0.0
 40
61.50000000000001
100
AcDbArc
 50
58.9472701194
 51
59.1777298806
  0
SPLINE
  5
1CA
330
1F
100
AcDbEntity
  8
0
  6
Continuous
 62
     7
370
    25
100
AcDbSpline
210
0.0
220
0.0
230
1.0
 70
     8
 71
     3
 72
    15
 73
    11
 74
     0
 42
0.000000001
 43
0.00000001
 40
0.0
 40
0.0
 40
0.0
 40
0.0
 40
0.3552515754295372
 40
0.4935702445626868
 40
0.6057601974546927
 40
0.6982518691142436
 40
0.7770611462266198
 40
0.846760723706883
 40
0.910601845145287
 40
1.0
 40
1.0
 40
1.0
 40
1.0
 10
31.51116659792354
 20
52.81378967313279
 30
0.0
 10
31.39026703980352
 20
52.88529794410936
 30
0.0
 10
31.2507908230922
 20
53.03019434159064
 30
0.0
 10
31.15382996812121
 20
53.24954623738367
 30
0.0
 10
31.1211469896465
 20
53.38099073618078
 30
0.0
 10
31.10887118754752
 20
53.4920960268204
 30
0.0
 10
31.10829736361513
 20
53.5870362247414
 30
0.0
 10
31.11462859828929
 20
53.67041577153884
 30
0.0
 10
31.12718327381666
 20
53.75726343762022
 30
0.0
 10
31.13948129771167
 20
53.8163419953496
 30
0.0
 10
31.14851850005862
 20
53.85033795153106
 30
0.0
  0
LINE
  5
1CB
330
1F
100
AcDbEntity
  8
0
  6
Continuous
 62
     7
370
    25
100
AcDbLine
 10
31.1485185001
 20
53.8503379515
 30
0.0
 11
31.1567831161
 21
53.883721688
 31
0.0
  0
SPLINE
  5
1CC
330
1F
100
AcDbEntity
  8
0
  6
Continuous
 62
     7
370
    25
100
AcDbSpline
210
0.0
220
0.0
230
1.0
 70
     8
 71
     3
 72
    14
 73
    10
 74
     0
 42
0.000000001
 43
0.00000001
 40
0.0
 40
0.0
 40
0.0
 40
0.0
 40
0.1491727089896281
 40
0.2332891805152238
 40
0.3237590634114546
 40
0.4205823576877865
 40
0.5237590633519522
 40
0.6332891804103242
 40
0.6859737861529455
 40
0.6859737861529455
 40
0.6859737861529455
 40
0.6859737861529455
 10
31.15678311605127
 20
53.88372168803222
 30
0.0
 10
31.23240869183246
 20
54.16406380010353
 30
0.0
 10
31.33893162140417
 20
54.60560779875937
 30
0.0
 10
31.46477139446571
 20
55.22314251943319
 30
0.0
 10
31.55738872816891
 20
55.74328542485586
 30
0.0
 10
31.64267187037782
 20
56.30224331459054
 30
0.0
 10
31.71874533880081
 20
56.89995080490948
 30
0.0
 10
31.77123526423606
 20
57.41388624118941
 30
0.0
 10
31.79770136909005
 20
57.7285216595189
 30
0.0
 10
31.8057185526754
 20
57.83075537591015
 30
0.0
  0
ARC
  5
1CD
330
1F
100
AcDbEntity
  8
0
  6
Continuous
 62
     7
370
    25
100
AcDbCircle
 10
0.0
 20
0.0
 30
0.0
 40
66.0
100
AcDbArc
 50
61.1901166925
 51
62.5598833075
  0
SPLINE
  5
1CE
330
1F
100
AcDbEntity
  8
0
  6
Continuous
 62
     7
370
    25
100
AcDbSpline
210
0.0
220
0.0
230
1.0
 70
     8
 71
     3
 72
    14
 73
    10
 74
     0
 42
0.000000001
 43
0.00000001
 40
0.3140262138470535
 40
0.3140262138470535
 40
0.3140262138470535
 40
0.3140262138470535
 40
0.3667108195896758
 40
0.4762409366480478
 40
0.5794176423122134
 40
0.6762409365885453
 40
0.7667108194847762
 40
0.8508272910103719
 40
1.0
 40
1.0
 40
1.0
 40
1.0
 10
30.41420528390571
 20
58.57453471389084
 30
0.0
 10
30.3336551639263
 20
58.51107065972543
 30
0.0
 10
30.08674915467208
 20
58.31426282510579
 30
0.0
 10
29.68858929682511
 20
57.98509181706327
 30
0.0
 10
29.23387783615766
 20
57.58977055009305
 30
0.0
 10
28.81650211147617
 20
57.20831984385664
 30
0.0
 10
28.43547452522958
 20
56.84233543014074
 30
0.0
 10
27.99192600249052
 20
56.39461957415862
 30
0.0
 10
27.68397655391769
 20
56.06074029298463
 30
0.0
 10
27.4928959254407
 20
55.84211019228105
 30
0.0
  0
LINE
  5
1CF
330
1F
100
AcDbEntity
  8
0
  6
Continuous
 62
     7
370
    25
100
AcDbLine
 10
27.4928959254
 20
55.8421101923
 30
0.0
 11
27.4697299376
 21
55.816691405
 31
0.0
  0
SPLINE
  5
1D0
330
1F
100
AcDbEntity
  8
0
  6
Continuous
 62
     7
370
    25
100
AcDbSpline
210
0.0
220
0.0
230
1.0
 70
     8
 71
     3
 72
    15
 73
    11
 74
     0
 42
0.000000001
 43
0.00000001
 40
0.0
 40
0.0
 40
0.0
 40
0.0
 40
0.089398154854713
 40
0.153239276293117
 40
0.2229388537733802
 40
0.3017481308857564
 40
0.3942398025453073
 40
0.5064297554373132
 40
0.6447484245704628
 40
1.0
 40
1.0
 40
1.0
 40
1.0
 10
27.46972993762772
 20
55.8166914049588
 30
0.0
 10
27.44648413373541
 20
55.79029010452961
 30
0.0
 10
27.4041945242458
 20
55.74724238328537
 30
0.0
 10
27.33895833300795
 20
55.68855357400999
 30
0.0
 10
27.27314821908154
 20
55.63696615052675
 30
0.0
 10
27.19388953002841
 20
55.58469731980746
 30
0.0
 10
27.09468878686289
 20
55.53317748400902
 30
0.0
 10
26.9672389904418
 20
55.48732573662444
 30
0.0
 10
26.73098598989891
 20
55.44608035725663
 30
0.0
 10
26.53302020424213
 20
55.48155046777867
 30
0.0
 10
26.4063950542201
 20
55.542346909727
 30
0.0
  0
ARC
  5
1D1
330
1F
100
AcDbEntity
  8
0
  6
Continuous
 62
     7
370
    25
100
AcDbCircle
 10
0.0
 20
0.0
 30
0.0
 40
61.50000000000001
100
AcDbArc
 50
64.5722701194
 51
64.8027298806
  0
SPLINE
  5
1D2
330
1F
100
AcDbEntity
  8
0
  6
Continuous
 62
     7
370
    25
100
AcDbSpline
210
0.0
220
0.0
230
1.0
 70
     8
 71
     3
 72
    15
 73
    11
 74
     0
 42
0.000000001
 43
0.00000001
 40
0.0
 40
0.0
 40
0.0
 40
0.0
 40
0.3552515754295372
 40
0.4935702445626868
 40
0.6057601974546927
 40
0.6982518691142436
 40
0.7770611462266198
 40
0.846760723706883
 40
0.910601845145287
 40
1.0
 40
1.0
 40
1.0
 40
1.0
 10
26.18277508414925
 20
55.64811127875641
 30
0.0
 10
26.05544865421574
 20
55.707424988909
 30
0.0
 10
25.90244172308545
 20
55.83795261072615
 30
0.0
 10
25.78444751558173
 20
56.0467444414578
 30
0.0
 10
25.73903810069741
 20
56.17435250697822
 30
0.0
 10
25.71593118707688
 20
56.28371955625825
 30
0.0
 10
25.70605435956102
 20
56.37814634659557
 30
0.0
 10
25.70418248287066
 20
56.46174496760275
 30
0.0
 10
25.70816414433022
 20
56.54940501182701
 30
0.0
 10
25.71461223859536
 20
56.60940450728702
 30
0.0
 10
25.72027373793523
 20
56.64412256437805
 30
0.0
  0
LINE
  5
1D3
330
1F
100
AcDbEntity
  8
0
  6
Continuous
 62
     7
370
    25
100
AcDbLine
 10
25.7202737379
 20
56.6441225644
 30
0.0
 11
25.7252263792
 21
56.6781556231
 31
0.0
  0
SPLINE
  5
1D4
330
1F
100
AcDbEntity
  8
0
  6
Continuous
 62
     7
370
    25
100
AcDbSpline
210
0.0
220
0.0
230
1.0
 70
     8
 71
     3
 72
    14
 73
    10
 74
     0
 42
0.000000001
 43
0.00000001
 40
0.0
 40
0.0
 40
0.0
 40
0.0
 40
0.1491727089896281
 40
0.2332891805152238
 40
0.3237590634114546
 40
0.4205823576877865
 40
0.5237590633519522
 40
0.6332891804103242
 40
0.6859737861529389
 40
0.6859737861529389
 40
0.6859737861529389
 40
0.6859737861529389
 10
25.72522637915756
 20
56.67815562308878
 30
0.0
 10
25.77300946498161
 20
56.96456041393901
 30
0.0
 10
25.83574057745383
 20
57.41441933049122
 30
0.0
 10
25.9004454102379
 20
58.0413149073908
 30
0.0
 10
25.94163384601219
 20
58.56803126874888
 30
0.0
 10
25.97171887266468
 20
59.1326568331834
 30
0.0
 10
25.98884044758958
 20
59.73494270239614
 30
0.0
 10
25.99070313790873
 20
60.2515483114648
 30
0.0
 10
25.98620213728287
 20
60.56726280616986
 30
0.0
 10
25.98416005941201
 20
60.66979006068189
 30
0.0
  0
ARC
  5
1D5
330
1F
100
AcDbEntity
  8
0
  6
Continuous
 62
     7
370
    25
100
AcDbCircle
 10
0.0
 20
0.0
 30
0.0
 40
66.0
100
AcDbArc
 50
66.8151166925
 51
68.1848833075
  0
SPLINE
  5
1D6
330
1F
100
AcDbEntity
  8
0
  6
Continuous
 62
     7
370
    25
100
AcDbSpline
210
0.0
220
0.0
230
1.0
 70
     8
 71
     3
 72
    14
 73
    10
 74
     0
 42
0.000000001
 43
0.00000001
 40
0.3140262138470609
 40
0.3140262138470609
 40
0.3140262138470609
 40
0.3140262138470609
 40
0.3667108195896758
 40
0.4762409366480478
 40
0.5794176423122134
 40
0.6762409365885453
 40
0.7667108194847762
 40
0.8508272910103719
 40
1.0
 40
1.0
 40
1.0
 40
1.0
 10
24.52644418362559
 20
61.27359574651921
 30
0.0
 10
24.4525024995935
 20
61.20254199670752
 30
0.0
 10
24.22607595140399
 20
60.98248082464735
 30
0.0
 10
23.86209774298845
 20
60.61586837431997
 30
0.0
 10
23.44832410238928
 20
60.17788117025282
 30
0.0
 10
23.07034686330451
 20
59.75735727845174
 30
0.0
 10
22.72702677466875
 20
59.35578794533104
 30
0.0
 10
22.32949788718438
 20
58.86675260577238
 30
0.0
 10
22.05575719173355
 20
58.50429672028056
 30
0.0
 10
21.88702616597125
 20
58.26799020649386
 30
0.0
  0
LINE
  5
1D7
330
1F
100
AcDbEntity
  8
0
  6
Continuous
 62
     7
370
    25
100
AcDbLine
 10
21.887026166
 20
58.2679902065
 30
0.0
 11
21.8664632056
 21
58.2404231537
 31
0.0
  0
SPLINE
  5
1D8
330
1F
100
AcDbEntity
  8
0
  6
Continuous
 62
     7
370
    25
100
AcDbSpline
210
0.0
220
0.0
230
1.0
 70
     8
 71
     3
 72
    15
 73
    11
 74
     0
 42
0.000000001
 43
0.00000001
 40
0.0
 40
0.0
 40
0.0
 40
0.0
 40
0.089398154854713
 40
0.153239276293117
 40
0.2229388537733802
 40
0.3017481308857564
 40
0.3942398025453073
 40
0.5064297554373132
 40
0.6447484245704628
 40
1.0
 40
1.0
 40
1.0
 40
1.0
 10
21.86646320556547
 20
58.24042315370188
 30
0.0
 10
21.84591711654168
 20
58.2118704955283
 30
0.0
 10
21.80805055761476
 20
58.16488495424016
 30
0.0
 10
21.7488810057231
 20
58.1000844827116
 30
0.0
 10
21.68844423720978
 20
58.04229494760087
 30
0.0
 10
21.61469044172352
 20
57.98250909554076
 30
0.0
 10
21.52101720422587
 20
57.92151396866986
 30
0.0
 10
21.39867537056787
 20
57.86339074540069
 30
0.0
 10
21.16760274693454
 20
57.79918713030057
 30
0.0
 10
20.96711354184471
 20
57.81508240235231
 30
0.0
 10
20.83513903314823
 20
57.86317465771634
 30
0.0
  0
ARC
  5
1D9
330
1F
100
AcDbEntity
  8
0
  6
Continuous
 62
     7
370
    25
100
AcDbCircle
 10
0.0
 20
0.0
 30
0.0
 40
61.50000000000001
100
AcDbArc
 50
70.1972701194
 51
70.4277298806
  0
SPLINE
  5
1DA
330
1F
100
AcDbEntity
  8
0
  6
Continuous
 62
     7
370
    25
100
AcDbSpline
210
0.0
220
0.0
230
1.0
 70
     8
 71
     3
 72
    15
 73
    11
 74
     0
 42
0.000000001
 43
0.00000001
 40
0.0
 40
0.0
 40
0.0
 40
0.0
 40
0.3552515754295372
 40
0.4935702445626868
 40
0.6057601974546927
 40
0.6982518691142436
 40
0.7770611462266198
 40
0.846760723706883
 40
0.910601845145287
 40
1.0
 40
1.0
 40
1.0
 40
1.0
 10
20.60222913335378
 20
57.94651115241356
 30
0.0
 10
20.46970205473077
 20
57.99305907828923
 30
0.0
 10
20.30463794957038
 20
58.1079608720905
 30
0.0
 10
20.16674673825441
 20
58.30418185829361
 30
0.0
 10
20.10904820444911
 20
58.42672455510872
 30
0.0
 10
20.07533271151671
 20
58.53330009855848
 30
0.0
 10
20.05624799966559
 20
58.62630409970222
 30
0.0
 10
20.04619103880651
 20
58.70931669449919
 30
0.0
 10
20.04156134062182
 20
58.79694490272062
 30
0.0
 10
20.04209740658442
 20
58.85728750797089
 30
0.0
 10
20.04432867958366
 20
58.8923933121029
 30
0.0
  0
LINE
  5
1DB
330
1F
100
AcDbEntity
  8
0
  6
Continuous
 62
     7
370
    25
100
AcDbLine
 10
20.0443286796
 20
58.8923933121
 30
0.0
 11
20.0459216494
 21
58.9267479361
 31
0.0
  0
SPLINE
  5
1DC
330
1F
100
AcDbEntity
  8
0
  6
Continuous
 62
     7
370
    25
100
AcDbSpline
210
0.0
220
0.0
230
1.0
 70
     8
 71
     3
 72
    14
 73
    10
 74
     0
 42
0.000000001
 43
0.00000001
 40
0.0
 40
0.0
 40
0.0
 40
0.0
 40
0.1491727089896281
 40
0.2332891805152238
 40
0.3237590634114546
 40
0.4205823576877865
 40
0.5237590633519522
 40
0.6332891804103242
 40
0.6859737861529442
 40
0.6859737861529442
 40
0.6859737861529442
 40
0.6859737861529442
 10
20.04592164939332
 20
58.92674793606344
 30
0.0
 10
20.06540206802286
 20
59.21645717099194
 30
0.0
 10
20.08373722849016
 20
59.6702986181562
 30
0.0
 10
20.08668397808581
 20
60.30051770418002
 30
0.0
 10
20.07604684877878
 20
60.82873495498119
 30
0.0
 10
20.05064402462203
 20
61.3935905412743
 30
0.0
 10
20.00864881592274
 20
61.99465444721739
 30
0.0
 10
19.95986633239975
 20
62.50895503465411
 30
0.0
 10
19.92444157339056
 20
62.82270810256367
 30
0.0
 10
19.91235990038969
 20
62.92454150168844
 30
0.0
  0
ARC
  5
1DD
330
1F
100
AcDbEntity
  8
0
  6
Continuous
 62
     7
370
    25
100
AcDbCircle
 10
0.0
 20
0.0
 30
0.0
 40
66.0
100
AcDbArc
 50
72.4401166925
 51
73.8098833075
  0
SPLINE
  5
1DE
330
1F
100
AcDbEntity
  8
0
  6
Continuous
 62
     7
370
    25
100
AcDbSpline
210
0.0
220
0.0
230
1.0
 70
     8
 71
     3
 72
    14
 73
    10
 74
     0
 42
0.000000001
 43
0.00000001
 40
0.3140262138470574
 40
0.3140262138470574
 40
0.3140262138470574
 40
0.3140262138470574
 40
0.3667108195896758
 40
0.4762409366480478
 40
0.5794176423122134
 40
0.6762409365885453
 40
0.7667108194847762
 40
0.8508272910103719
 40
1.0
 40
1.0
 40
1.0
 40
1.0
 10
18.40248001833898
 20
63.38255855655397
 30
0.0
 10
18.33585886909206
 20
63.30459939754859
 30
0.0
 10
18.13209239340365
 20
63.06340419743252
 30
0.0
 10
17.80580114353729
 20
62.66288098312766
 30
0.0
 10
17.43695018935706
 20
62.18644589816689
 30
0.0
 10
17.10201156330476
 20
61.73089869576096
 30
0.0
 10
16.79970533241125
 20
61.29761177543352
 30
0.0
 10
16.45202450067946
 20
60.77196662995219
 30
0.0
 10
16.21512883088969
 20
60.38442478845837
 30
0.0
 10
16.07037237985793
 20
60.1327176224946
 30
0.0
  0
LINE
  5
1DF
330
1F
100
AcDbEntity
  8
0
  6
Continuous
 62
     7
370
    25
100
AcDbLine
 10
16.0703723799
 20
60.1327176225
 30
0.0
 11
16.0526104794
 21
60.10326779
 31
0.0
  0
SPLINE
  5
1E0
330
1F
100
AcDbEntity
  8
0
  6
Continuous
 62
     7
370
    25
100
AcDbSpline
210
0.0
220
0.0
230
1.0
 70
     8
 71
     3
 72
    15
 73
    11
 74
     0
 42
0.000000001
 43
0.00000001
 40
0.0
 40
0.0
 40
0.0
 40
0.0
 40
0.089398154854713
 40
0.153239276293117
 40
0.2229388537733802
 40
0.3017481308857564
 40
0.3942398025453073
 40
0.5064297554373132
 40
0.6447484245704628
 40
1.0
 40
1.0
 40
1.0
 40
1.0
 10
16.05261047940892
 20
60.10326779002097
 30
0.0
 10
16.03496197532258
 20
60.07283875180966
 30
0.0
 10
16.00188314262077
 20
60.02236788692515
 30
0.0
 10
15.94935006520539
 20
59.95207981710777
 30
0.0
 10
15.89486868122404
 20
59.88864471518364
 30
0.0
 10
15.82733006867311
 20
59.82191761222033
 30
0.0
 10
15.74008646132743
 20
59.75203461069204
 30
0.0
 10
15.6240308091695
 20
59.68219966995178
 30
0.0
 10
15.40036391812848
 20
59.59565613503
 30
0.0
 10
15.19928211424915
 20
59.59182348845233
 30
0.0
 10
15.06322923354157
 20
59.62674840252301
 30
0.0
  0
ARC
  5
1E1
330
1F
100
AcDbEntity
  8
0
  6
Continuous
 62
     7
370
    25
100
AcDbCircle
 10
0.0
 20
0.0
 30
0.0
 40
61.50000000000001
100
AcDbArc
 50
75.8222701194
 51
76.0527298806
  0
SPLINE
  5
1E2
330
1F
100
AcDbEntity
  8
0
  6
Continuous
 62
     7
370
    25
100
AcDbSpline
210
0.0
220
0.0
230
1.0
 70
     8
 71
     3
 72
    15
 73
    11
 74
     0
 42
0.000000001
 43
0.00000001
 40
0.0
 40
0.0
 40
0.0
 40
0.0
 40
0.3552515754295372
 40
0.4935702445626868
 40
0.6057601974546927
 40
0.6982518691142436
 40
0.7770611462266198
 40
0.846760723706883
 40
0.910601845145287
 40
1.0
 40
1.0
 40
1.0
 40
1.0
 10
14.82327245368008
 20
59.68685444688781
 30
0.0
 10
14.68682103458137
 20
59.72018830651468
 30
0.0
 10
14.5112894129568
 20
59.81835770521408
 30
0.0
 10
14.35482916557253
 20
60.00011813152619
 30
0.0
 10
14.28539718126803
 20
60.116415306477
 30
0.0
 10
14.24139780765147
 20
60.21917296335296
 30
0.0
 10
14.21328900767298
 20
60.30985849593095
 30
0.0
 10
14.19514381667595
 20
60.39148560785051
 30
0.0
 10
14.18194734537138
 20
60.47823807252147
 30
0.0
 10
14.17656622042318
 20
60.53834265528684
 30
0.0
 10
14.17534577870307
 20
60.57349811837523
 30
0.0
  0
LINE
  5
1E3
330
1F
100
AcDbEntity
  8
0
  6
Continuous
 62
     7
370
    25
100
AcDbLine
 10
14.1753457787
 20
60.5734981184
 30
0.0
 11
14.1735637359
 21
60.6078434538
 31
0.0
  0
SPLINE
  5
1E4
330
1F
100
AcDbEntity
  8
0
  6
Continuous
 62
     7
370
    25
100
AcDbSpline
210
0.0
220
0.0
230
1.0
 70
     8
 71
     3
 72
    14
 73
    10
 74
     0
 42
0.000000001
 43
0.00000001
 40
0.0
 40
0.0
 40
0.0
 40
0.0
 40
0.1491727089896281
 40
0.2332891805152238
 40
0.3237590634114546
 40
0.4205823576877865
 40
0.5237590633519522
 40
0.6332891804103242
 40
0.6859737861529418
 40
0.6859737861529418
 40
0.6859737861529418
 40
0.6859737861529418
 10
14.17356373592998
 20
60.60784345377671
 30
0.0
 10
14.16455388028452
 20
60.89806707447993
 30
0.0
 10
14.1383165111286
 20
61.35152031102511
 30
0.0
 10
14.07947679872634
 20
61.97899355186195
 30
0.0
 10
14.01711654570808
 20
62.50362467122805
 30
0.0
 10
13.93647051382531
 20
63.06327041130229
 30
0.0
 10
13.83576295831851
 20
63.65732377998655
 30
0.0
 10
13.73680510293693
 20
64.16436634998902
 30
0.0
 10
13.67079774533882
 20
64.47313637754421
 30
0.0
 10
13.64879283032347
 20
64.57329520998036
 30
0.0
  0
ARC
  5
1E5
330
1F
100
AcDbEntity
  8
0
  6
Continuous
 62
     7
370
    25
100
AcDbCircle
 10
0.0
 20
0.0
 30
0.0
 40
66.0
100
AcDbArc
 50
78.0651166925
 51
79.4348833075
  0
SPLINE
  5
1E6
330
1F
100
AcDbEntity
  8
0
  6
Continuous
 62
     7
370
    25
100
AcDbSpline
210
0.0
220
0.0
230
1.0
 70
     8
 71
     3
 72
    14
 73
    10
 74
     0
 42
0.000000001
 43
0.00000001
 40
0.3140262138470595
 40
0.3140262138470595
 40
0.3140262138470595
 40
0.3140262138470595
 40
0.3667108195896758
 40
0.4762409366480478
 40
0.5794176423122134
 40
0.6762409365885453
 40
0.7667108194847762
 40
0.8508272910103719
 40
1.0
 40
1.0
 40
1.0
 40
1.0
 10
12.10128991065688
 20
64.88111267925815
 30
0.0
 10
12.0426308942812
 20
64.79699890037716
 30
0.0
 10
11.86348687364488
 20
64.53699251383297
 30
0.0
 10
11.57802494543286
 20
64.10641579305268
 30
0.0
 10
11.25764891399475
 20
63.59612115751236
 30
0.0
 10
10.9689745430399
 20
63.10993781308817
 30
0.0
 10
10.71059354414953
 20
62.64910609545549
 30
0.0
 10
10.41610912464156
 20
62.09191339414932
 30
0.0
 10
10.21833991531328
 20
61.683017836439
 30
0.0
 10
10.09895212276743
 20
61.41833409590352
 30
0.0
  0
LINE
  5
1E7
330
1F
100
AcDbEntity
  8
0
  6
Continuous
 62
     7
370
    25
100
AcDbLine
 10
10.0989521228
 20
61.4183340959
 30
0.0
 11
10.0841623391
 21
61.3872851017
 31
0.0
  0
SPLINE
  5
1E8
330
1F
100
AcDbEntity
  8
0
  6
Continuous
 62
     7
370
    25
100
AcDbSpline
210
0.0
220
0.0
230
1.0
 70
     8
 71
     3
 72
    15
 73
    11
 74
     0
 42
0.000000001
 43
0.00000001
 40
0.0
 40
0.0
 40
0.0
 40
0.0
 40
0.089398154854713
 40
0.153239276293117
 40
0.2229388537733802
 40
0.3017481308857564
 40
0.3942398025453073
 40
0.5064297554373132
 40
0.6447484245704628
 40
1.0
 40
1.0
 40
1.0
 40
1.0
 10
10.08416233908615
 20
61.38728510173389
 30
0.0
 10
10.06958138467927
 20
61.35527273175703
 30
0.0
 10
10.04160884544422
 20
61.30180260529515
 30
0.0
 10
9.996218164758135
 20
61.22670384972465
 30
0.0
 10
9.948216850819042
 20
61.15823409569583
 30
0.0
 10
9.887543854962665
 20
61.08520836030758
 30
0.0
 10
9.807570081399916
 20
61.00711049562855
 30
0.0
 10
9.698918290114804
 20
60.9262363860722
 30
0.0
 10
9.484811166095565
 20
60.81818639287958
 30
0.0
 10
9.285073291120607
 20
60.79466273815419
 30
0.0
 10
9.146252302017203
 20
60.81608396491711
 30
0.0
  0
ARC
  5
1E9
330
1F
100
AcDbEntity
  8
0
  6
Continuous
 62
     7
370
    25
100
AcDbCircle
 10
0.0
 20
0.0
 30
0.0
 40
61.50000000000001
100
AcDbArc
 50
81.4472701194
 51
81.6777298806
  0
SPLINE
  5
1EA
330
1F
100
AcDbEntity
  8
0
  6
Continuous
 62
     7
370
    25
100
AcDbSpline
210
0.0
220
0.0
230
1.0
 70
     8
 71
     3
 72
    15
 73
    11
 74
     0
 42
0.000000001
 43
0.00000001
 40
0.0
 40
0.0
 40
0.0
 40
0.0
 40
0.3552515754295372
 40
0.4935702445626868
 40
0.6057601974546927
 40
0.6982518691142436
 40
0.7770611462266198
 40
0.846760723706883
 40
0.910601845145287
 40
1.0
 40
1.0
 40
1.0
 40
1.0
 10
8.901559557052442
 20
60.85238070488492
 30
0.0
 10
8.762497899235887
 20
60.87217947497265
 30
0.0
 10
8.578189226618719
 20
60.95267105359583
 30
0.0
 10
8.404666740878351
 20
61.11822046775121
 30
0.0
 10
8.324169974038883
 20
61.22715211546845
 30
0.0
 10
8.270310457758587
 20
61.32510227336184
 30
0.0
 10
8.233448272762356
 20
61.41259598612161
 30
0.0
 10
8.207389599735844
 20
61.49205150145404
 30
0.0
 10
8.185753444543975
 20
61.57709274891604
 30
0.0
 10
8.174506951859852
 20
61.63638046920796
 30
0.0
 10
8.169846548941317
 20
61.67124702492529
 30
0.0
  0
LINE
  5
1EB
330
1F
100
AcDbEntity
  8
0
  6
Continuous
 62
     7
370
    25
100
AcDbLine
 10
8.1698465489
 20
61.6712470249
 30
0.0
 11
8.1647066556
 21
61.7052523074
 31
0.0
  0
SPLINE
  5
1EC
330
1F
100
AcDbEntity
  8
0
  6
Continuous
 62
     7
370
    25
100
AcDbSpline
210
0.0
220
0.0
230
1.0
 70
     8
 71
     3
 72
    14
 73
    10
 74
     0
 42
0.000000001
 43
0.00000001
 40
0.0
 40
0.0
 40
0.0
 40
0.0
 40
0.1491727089896281
 40
0.2332891805152238
 40
0.3237590634114546
 40
0.4205823576877865
 40
0.5237590633519522
 40
0.6332891804103242
 40
0.6859737861534576
 40
0.6859737861534576
 40
0.6859737861534576
 40
0.6859737861534576
 10
8.16470665563155
 20
61.70525230741269
 30
0.0
 10
8.127293295546247
 20
61.9931953017709
 30
0.0
 10
8.056736076974872
 20
62.44189332514628
 30
0.0
 10
7.936676561170215
 20
63.06057781047514
 30
0.0
 10
7.823193747766865
 20
63.57657031393416
 30
0.0
 10
7.688081173530718
 20
64.12561651337911
 30
0.0
 10
7.529631140028278
 20
64.70693828612148
 30
0.0
 10
7.381450931031018
 20
65.20183974156387
 30
0.0
 10
7.28549666178063
 20
65.50265310460942
 30
0.0
 10
7.253780424111163
 20
65.60017278604916
 30
0.0
  0
ARC
  5
1ED
330
1F
100
AcDbEntity
  8
0
  6
Continuous
 62
     7
370
    25
100
AcDbCircle
 10
0.0
 20
0.0
 30
0.0
 40
66.00000000000274
100
AcDbArc
 50
83.6901166925
 51
85.0598833075
  0
SPLINE
  5
1EE
330
1F
100
AcDbEntity
  8
0
  6
Continuous
 62
     7
370
    25
100
AcDbSpline
210
0.0
220
0.0
230
1.0
 70
     8
 71
     3
 72
    14
 73
    10
 74
     0
 42
0.000000001
 43
0.00000001
 40
0.314026213847058
 40
0.314026213847058
 40
0.314026213847058
 40
0.314026213847058
 40
0.3667108195896758
 40
0.4762409366480478
 40
0.5794176423122134
 40
0.6762409365885453
 40
0.7667108194847762
 40
0.8508272910103719
 40
1.0
 40
1.0
 40
1.0
 40
1.0
 10
5.683557765897195
 20
65.75482621923709
 30
0.0
 10
5.633425800786727
 20
65.66536788215234
 30
0.0
 10
5.480629490051291
 20
65.38905431281644
 30
0.0
 10
5.238746037911662
 20
64.93257077475897
 30
0.0
 10
4.969930325533777
 20
64.3933310049348
 30
0.0
 10
4.730300301674125
 20
63.88119372987401
 30
0.0
 10
4.518332885051644
 20
63.39725527629312
 30
0.0
 10
4.279880923708917
 20
62.81388108946821
 30
0.0
 10
4.123142800439603
 20
62.38756970328721
 30
0.0
 10
4.030273436085885
 20
62.11245843729223
 30
0.0
  0
LINE
  5
1EF
330
1F
100
AcDbEntity
  8
0
  6
Continuous
 62
     7
370
    25
100
AcDbLine
 10
4.0302734361
 20
62.1124584373
 30
0.0
 11
4.0185982029
 21
62.0801093002
 31
0.0
  0
SPLINE
  5
1F0
330
1F
100
AcDbEntity
  8
0
  6
Continuous
 62
     7
370
    25
100
AcDbSpline
210
0.0
220
0.0
230
1.0
 70
     8
 71
     3
 72
    15
 73
    11
 74
     0
 42
0.000000001
 43
0.00000001
 40
0.0
 40
0.0
 40
0.0
 40
0.0
 40
0.089398154854713
 40
0.153239276293117
 40
0.2229388537733802
 40
0.3017481308857564
 40
0.3942398025453073
 40
0.5064297554373132
 40
0.6447484245704628
 40
1.0
 40
1.0
 40
1.0
 40
1.0
 10
4.018598202874106
 20
62.08010930021355
 30
0.0
 10
4.007225220708373
 20
62.04682189509375
 30
0.0
 10
3.984628365784272
 20
61.99086745360209
 30
0.0
 10
3.94681721889555
 20
61.91168125434778
 30
0.0
 10
3.905758253892143
 20
61.83883624937492
 30
0.0
 10
3.852535188847651
 20
61.76021515931346
 30
0.0
 10
3.780601440225345
 20
61.67465455661319
 30
0.0
 10
3.680399885958241
 20
61.58352014012604
 30
0.0
 10
3.477914497607953
 20
61.45500426916315
 30
0.0
 10
3.281444136461195
 20
61.41201615194439
 30
0.0
 10
3.141191960974308
 20
61.41972739327579
 30
0.0
  0
ARC
  5
1F1
330
1F
100
AcDbEntity
  8
0
  6
Continuous
 62
     7
370
    25
100
AcDbCircle
 10
0.0
 20
0.0
 30
0.0
 40
61.50000000000001
100
AcDbArc
 50
87.0722701194
 51
87.3027298806
  0
SPLINE
  5
1F2
330
1F
100
AcDbEntity
  8
0
  6
Continuous
 62
     7
370
    25
100
AcDbSpline
210
0.0
220
0.0
230
1.0
 70
     8
 71
     3
 72
    15
 73
    11
 74
     0
 42
0.000000001
 43
0.00000001
 40
0.0
 40
0.0
 40
0.0
 40
0.0
 40
0.3552515754295372
 40
0.4935702445626868
 40
0.6057601974546927
 40
0.6982518691142436
 40
0.7770611462266198
 40
0.846760723706883
 40
0.910601845145287
 40
1.0
 40
1.0
 40
1.0
 40
1.0
 10
2.894119775802951
 20
61.43186527139891
 30
0.0
 10
2.753787119052157
 20
61.43793827896845
 30
0.0
 10
2.56247638871307
 20
61.4999768596121
 30
0.0
 10
2.373562781011318
 20
61.64772093025391
 30
0.0
 10
2.282776459505555
 20
61.74823797942197
 30
0.0
 10
2.219575497145913
 20
61.84043732476727
 30
0.0
 10
2.174314930124369
 20
61.923896605426
 30
0.0
 10
2.140593734334743
 20
62.00041532412387
 30
0.0
 10
2.110726263257603
 20
62.08292636067557
 30
0.0
 10
2.093722712710062
 20
62.14082624533766
 30
0.0
 10
2.085667230820843
 20
62.17506810969235
 30
0.0
  0
LINE
  5
1F3
330
1F
100
AcDbEntity
  8
0
  6
Continuous
 62
     7
370
    25
100
AcDbLine
 10
2.0856672308
 20
62.1750681097
 30
0.0
 11
2.077218987
 21
62.2084058498
 31
0.0
  0
SPLINE
  5
1F4
330
1F
100
AcDbEntity
  8
0
  6
Continuous
 62
     7
370
    25
100
AcDbSpline
210
0.0
220
0.0
230
1.0
 70
     8
 71
     3
 72
    14
 73
    10
 74
     0
 42
0.000000001
 43
0.00000001
 40
0.0
 40
0.0
 40
0.0
 40
0.0
 40
0.1491727089896281
 40
0.2332891805152238
 40
0.3237590634114546
 40
0.4205823576877865
 40
0.5237590633519522
 40
0.6332891804103242
 40
0.6859737861529446
 40
0.6859737861529446
 40
0.6859737861529446
 40
0.6859737861529446
 10
2.077218986956724
 20
62.20840584980617
 30
0.0
 10
2.01176243354142
 20
62.49129516937803
 30
0.0
 10
1.897564870139932
 20
62.93091677233525
 30
0.0
 10
1.717441789701279
 20
63.53485423235505
 30
0.0
 10
1.553929317441932
 20
64.03723883002846
 30
0.0
 10
1.365651408802346
 20
64.57039787380431
 30
0.0
 10
1.150984857744502
 20
65.1333896041505
 30
0.0
 10
0.9550093515483112
 20
65.61138377347433
 30
0.0
 10
0.8300322627131027
 20
65.90134347488092
 30
0.0
 10
0.7889101470967843
 20
65.99528483748038
 30
0.0
  0
ARC
  5
1F5
330
1F
100
AcDbEntity
  8
0
  6
Continuous
 62
     7
370
    25
100
AcDbCircle
 10
0.0
 20
0.0
 30
0.0
 40
66.0
100
AcDbArc
 50
89.3151166925
 51
90.6848833075
  0
SPLINE
  5
1F6
330
1F
100
AcDbEntity
  8
0
  6
Continuous
 62
     7
370
    25
100
AcDbSpline
210
0.0
220
0.0
230
1.0
 70
     8
 71
     3
 72
    14
 73
    10
 74
     0
 42
0.000000001
 43
0.00000001
 40
0.3140262138470525
 40
0.3140262138470525
 40
0.3140262138470525
 40
0.3140262138470525
 40
0.3667108195896758
 40
0.4762409366480478
 40
0.5794176423122134
 40
0.6762409365885453
 40
0.7667108194847762
 40
0.8508272910103719
 40
1.0
 40
1.0
 40
1.0
 40
1.0
 10
-0.7889101470967936
 20
65.9952848374804
 30
0.0
 10
-0.8300322627131144
 20
65.90134347488093
 30
0.0
 10
-0.9550093515483254
 20
65.61138377347434
 30
0.0
 10
-1.150984857744518
 20
65.1333896041505
 30
0.0
 10
-1.365651408802361
 20
64.57039787380431
 30
0.0
 10
-1.553929317441948
 20
64.03723883002847
 30
0.0
 10
-1.717441789701295
 20
63.53485423235502
 30
0.0
 10
-1.897564870139947
 20
62.93091677233528
 30
0.0
 10
-2.011762433541436
 20
62.491295169378
 30
0.0
 10
-2.077218986956739
 20
62.20840584980617
 30
0.0
  0
LINE
  5
1F7
330
1F
100
AcDbEntity
  8
0
  6
Continuous
 62
     7
370
    25
100
AcDbLine
 10
-2.077218987
 20
62.2084058498
 30
0.0
 11
-2.0856672308
 21
62.1750681097
 31
0.0
  0
SPLINE
  5
1F8
330
1F
100
AcDbEntity
  8
0
  6
Continuous
 62
     7
370
    25
100
AcDbSpline
210
0.0
220
0.0
230
1.0
 70
     8
 71
     3
 72
    15
 73
    11
 74
     0
 42
0.000000001
 43
0.00000001
 40
0.0
 40
0.0
 40
0.0
 40
0.0
 40
0.089398154854713
 40
0.153239276293117
 40
0.2229388537733802
 40
0.3017481308857564
 40
0.3942398025453073
 40
0.5064297554373132
 40
0.6447484245704628
 40
1.0
 40
1.0
 40
1.0
 40
1.0
 10
-2.085667230820858
 20
62.17506810969235
 30
0.0
 10
-2.093722712710075
 20
62.14082624533767
 30
0.0
 10
-2.110726263257618
 20
62.08292636067559
 30
0.0
 10
-2.140593734334758
 20
62.00041532412387
 30
0.0
 10
-2.174314930124385
 20
61.92389660542599
 30
0.0
 10
-2.219575497145927
 20
61.84043732476727
 30
0.0
 10
-2.28277645950557
 20
61.74823797942196
 30
0.0
 10
-2.373562781011333
 20
61.64772093025392
 30
0.0
 10
-2.562476388713084
 20
61.49997685961208
 30
0.0
 10
-2.753787119052173
 20
61.43793827896845
 30
0.0
 10
-2.894119775802966
 20
61.43186527139891
 30
0.0
  0
ARC
  5
1F9
330
1F
100
AcDbEntity
  8
0
  6
Continuous
 62
     7
370
    25
100
AcDbCircle
 10
0.0
 20
0.0
 30
0.0
 40
61.50000000000001
100
AcDbArc
 50
92.6972701194
 51
92.9277298806
  0
SPLINE
  5
1FA
330
1F
100
AcDbEntity
  8
0
  6
Continuous
 62
     7
370
    25
100
AcDbSpline
210
0.0
220
0.0
230
1.0
 70
     8
 71
     3
 72
    15
 73
    11
 74
     0
 42
0.000000001
 43
0.00000001
 40
0.0
 40
0.0
 40
0.0
 40
0.0
 40
0.3552515754295372
 40
0.4935702445626868
 40
0.6057601974546927
 40
0.6982518691142436
 40
0.7770611462266198
 40
0.846760723706883
 40
0.910601845145287
 40
1.0
 40
1.0
 40
1.0
 40
1.0
 10
-3.141191960973485
 20
61.41972739327583
 30
0.0
 10
-3.281444136460373
 20
61.41201615194444
 30
0.0
 10
-3.477914497607131
 20
61.45500426916323
 30
0.0
 10
-3.680399885957415
 20
61.58352014012608
 30
0.0
 10
-3.780601440224519
 20
61.67465455661325
 30
0.0
 10
-3.852535188846823
 20
61.7602151593135
 30
0.0
 10
-3.905758253891316
 20
61.83883624937498
 30
0.0
 10
-3.946817218894722
 20
61.91168125434784
 30
0.0
 10
-3.984628365783439
 20
61.99086745360212
 30
0.0
 10
-4.007225220707539
 20
62.0468218950938
 30
0.0
 10
-4.018598202873274
 20
62.0801093002136
 30
0.0
  0
LINE
  5
1FB
330
1F
100
AcDbEntity
  8
0
  6
Continuous
 62
     7
370
    25
100
AcDbLine
 10
-4.0185982029
 20
62.0801093002
 30
0.0
 11
-4.0302734361
 21
62.1124584373
 31
0.0
  0
SPLINE
  5
1FC
330
1F
100
AcDbEntity
  8
0
  6
Continuous
 62
     7
370
    25
100
AcDbSpline
210
0.0
220
0.0
230
1.0
 70
     8
 71
     3
 72
    14
 73
    10
 74
     0
 42
0.000000001
 43
0.00000001
 40
0.0
 40
0.0
 40
0.0
 40
0.0
 40
0.1491727089896281
 40
0.2332891805152238
 40
0.3237590634114546
 40
0.4205823576877865
 40
0.5237590633519522
 40
0.6332891804103242
 40
0.6859737861529426
 40
0.6859737861529426
 40
0.6859737861529426
 40
0.6859737861529426
 10
-4.030273436085054
 20
62.11245843729228
 30
0.0
 10
-4.123142800438771
 20
62.38756970328728
 30
0.0
 10
-4.279880923708071
 20
62.81388108946825
 30
0.0
 10
-4.518332885050797
 20
63.39725527629321
 30
0.0
 10
-4.730300301673268
 20
63.88119372987407
 30
0.0
 10
-4.969930325532913
 20
64.39333100493486
 30
0.0
 10
-5.238746037910794
 20
64.93257077475904
 30
0.0
 10
-5.480629490050414
 20
65.38905431281651
 30
0.0
 10
-5.633425800785848
 20
65.66536788215242
 30
0.0
 10
-5.683557765896316
 20
65.75482621923717
 30
0.0
  0
ARC
  5
1FD
330
1F
100
AcDbEntity
  8
0
  6
Continuous
 62
     7
370
    25
100
AcDbCircle
 10
0.0
 20
0.0
 30
0.0
 40
66.0
100
AcDbArc
 50
94.9401166925
 51
96.3098833075
  0
SPLINE
  5
1FE
330
1F
100
AcDbEntity
  8
0
  6
Continuous
 62
     7
370
    25
100
AcDbSpline
210
0.0
220
0.0
230
1.0
 70
     8
 71
     3
 72
    14
 73
    10
 74
     0
 42
0.000000001
 43
0.00000001
 40
0.3140262138470588
 40
0.3140262138470588
 40
0.3140262138470588
 40
0.3140262138470588
 40
0.3667108195896758
 40
0.4762409366480478
 40
0.5794176423122134
 40
0.6762409365885453
 40
0.7667108194847762
 40
0.8508272910103719
 40
1.0
 40
1.0
 40
1.0
 40
1.0
 10
-7.253780424111218
 20
65.60017278604639
 30
0.0
 10
-7.285496661780363
 20
65.5026531046076
 30
0.0
 10
-7.381450931030432
 20
65.20183974156303
 30
0.0
 10
-7.529631140027412
 20
64.70693828612157
 30
0.0
 10
-7.688081173529858
 20
64.12561651337921
 30
0.0
 10
-7.823193747766017
 20
63.57657031393427
 30
0.0
 10
-7.936676561169368
 20
63.06057781047522
 30
0.0
 10
-8.056736076974037
 20
62.44189332514644
 30
0.0
 10
-8.127293295545414
 20
61.99319530177097
 30
0.0
 10
-8.164706655630724
 20
61.70525230741281
 30
0.0
  0
LINE
  5
1FF
330
1F
100
AcDbEntity
  8
0
  6
Continuous
 62
     7
370
    25
100
AcDbLine
 10
-8.1647066556
 20
61.7052523074
 30
0.0
 11
-8.1698465489
 21
61.6712470249
 31
0.0
  0
SPLINE
  5
200
330
1F
100
AcDbEntity
  8
0
  6
Continuous
 62
     7
370
    25
100
AcDbSpline
210
0.0
220
0.0
230
1.0
 70
     8
 71
     3
 72
    15
 73
    11
 74
     0
 42
0.000000001
 43
0.00000001
 40
0.0
 40
0.0
 40
0.0
 40
0.0
 40
0.089398154854713
 40
0.153239276293117
 40
0.2229388537733802
 40
0.3017481308857564
 40
0.3942398025453073
 40
0.5064297554373132
 40
0.6447484245704628
 40
1.0
 40
1.0
 40
1.0
 40
1.0
 10
-8.169846548940491
 20
61.67124702492539
 30
0.0
 10
-8.174506951859026
 20
61.63638046920808
 30
0.0
 10
-8.185753444543153
 20
61.57709274891617
 30
0.0
 10
-8.20738959973502
 20
61.49205150145416
 30
0.0
 10
-8.233448272761533
 20
61.41259598612172
 30
0.0
 10
-8.270310457757764
 20
61.32510227336196
 30
0.0
 10
-8.324169974038062
 20
61.22715211546855
 30
0.0
 10
-8.404666740877534
 20
61.11822046775133
 30
0.0
 10
-8.5781892266179
 20
60.95267105359593
 30
0.0
 10
-8.762497899235072
 20
60.87217947497277
 30
0.0
 10
-8.901559557051627
 20
60.85238070488504
 30
0.0
  0
ARC
  5
201
330
1F
100
AcDbEntity
  8
0
  6
Continuous
 62
     7
370
    25
100
AcDbCircle
 10
0.0
 20
0.0
 30
0.0
 40
61.50000000000001
100
AcDbArc
 50
98.3222701194
 51
98.5527298806
  0
SPLINE
  5
202
330
1F
100
AcDbEntity
  8
0
  6
Continuous
 62
     7
370
    25
100
AcDbSpline
210
0.0
220
0.0
230
1.0
 70
     8
 71
     3
 72
    15
 73
    11
 74
     0
 42
0.000000001
 43
0.00000001
 40
0.0
 40
0.0
 40
0.0
 40
0.0
 40
0.3552515754295372
 40
0.4935702445626868
 40
0.6057601974546927
 40
0.6982518691142436
 40
0.7770611462266198
 40
0.846760723706883
 40
0.910601845145287
 40
1.0
 40
1.0
 40
1.0
 40
1.0
 10
-9.146252302016352
 20
60.81608396491722
 30
0.0
 10
-9.285073291119756
 20
60.79466273815431
 30
0.0
 10
-9.484811166094717
 20
60.81818639287972
 30
0.0
 10
-9.698918290113951
 20
60.9262363860723
 30
0.0
 10
-9.807570081399064
 20
61.00711049562869
 30
0.0
 10
-9.88754385496181
 20
61.0852083603077
 30
0.0
 10
-9.94821685081819
 20
61.15823409569597
 30
0.0
 10
-9.996218164757279
 20
61.22670384972479
 30
0.0
 10
-10.04160884544336
 20
61.30180260529525
 30
0.0
 10
-10.0695813846784
 20
61.35527273175715
 30
0.0
 10
-10.08416233908529
 20
61.38728510173402
 30
0.0
  0
LINE
  5
203
330
1F
100
AcDbEntity
  8
0
  6
Continuous
 62
     7
370
    25
100
AcDbLine
 10
-10.0841623391
 20
61.3872851017
 30
0.0
 11
-10.0989521228
 21
61.4183340959
 31
0.0
  0
SPLINE
  5
204
330
1F
100
AcDbEntity
  8
0
  6
Continuous
 62
     7
370
    25
100
AcDbSpline
210
0.0
220
0.0
230
1.0
 70
     8
 71
     3
 72
    14
 73
    10
 74
     0
 42
0.000000001
 43
0.00000001
 40
0.0
 40
0.0
 40
0.0
 40
0.0
 40
0.1491727089896281
 40
0.2332891805152238
 40
0.3237590634114546
 40
0.4205823576877865
 40
0.5237590633519522
 40
0.6332891804103242
 40
0.6859737861529435
 40
0.6859737861529435
 40
0.6859737861529435
 40
0.6859737861529435
 10
-10.09895212276657
 20
61.41833409590365
 30
0.0
 10
-10.21833991531243
 20
61.68301783643915
 30
0.0
 10
-10.41610912464069
 20
62.09191339414943
 30
0.0
 10
-10.71059354414866
 20
62.64910609545565
 30
0.0
 10
-10.96897454303901
 20
63.10993781308829
 30
0.0
 10
-11.25764891399386
 20
63.59612115751249
 30
0.0
 10
-11.57802494543197
 20
64.10641579305282
 30
0.0
 10
-11.86348687364397
 20
64.53699251383311
 30
0.0
 10
-12.0426308942803
 20
64.7969989003773
 30
0.0
 10
-12.10128991065599
 20
64.88111267925832
 30
0.0
  0
ARC
  5
205
330
1F
100
AcDbEntity
  8
0
  6
Continuous
 62
     7
370
    25
100
AcDbCircle
 10
0.0
 20
0.0
 30
0.0
 40
66.0
100
AcDbArc
 50
100.5651166925
 51
101.9348833075
  0
SPLINE
  5
206
330
1F
100
AcDbEntity
  8
0
  6
Continuous
 62
     7
370
    25
100
AcDbSpline
210
0.0
220
0.0
230
1.0
 70
     8
 71
     3
 72
    14
 73
    10
 74
     0
 42
0.000000001
 43
0.00000001
 40
0.3140262138470545
 40
0.3140262138470545
 40
0.3140262138470545
 40
0.3140262138470545
 40
0.3667108195896758
 40
0.4762409366480478
 40
0.5794176423122134
 40
0.6762409365885453
 40
0.7667108194847762
 40
0.8508272910103719
 40
1.0
 40
1.0
 40
1.0
 40
1.0
 10
-13.64879283032256
 20
64.57329520998053
 30
0.0
 10
-13.67079774533792
 20
64.47313637754439
 30
0.0
 10
-13.73680510293603
 20
64.16436634998922
 30
0.0
 10
-13.83576295831762
 20
63.65732377998673
 30
0.0
 10
-13.93647051382443
 20
63.06327041130247
 30
0.0
 10
-14.01711654570721
 20
62.50362467122826
 30
0.0
 10
-14.07947679872547
 20
61.97899355186211
 30
0.0
 10
-14.13831651112774
 20
61.35152031102532
 30
0.0
 10
-14.16455388028366
 20
60.89806707448009
 30
0.0
 10
-14.17356373592913
 20
60.60784345377689
 30
0.0
  0
LINE
  5
207
330
1F
100
AcDbEntity
  8
0
  6
Continuous
 62
     7
370
    25
100
AcDbLine
 10
-14.1735637359
 20
60.6078434538
 30
0.0
 11
-14.1753457787
 21
60.5734981184
 31
0.0
  0
SPLINE
  5
208
330
1F
100
AcDbEntity
  8
0
  6
Continuous
 62
     7
370
    25
100
AcDbSpline
210
0.0
220
0.0
230
1.0
 70
     8
 71
     3
 72
    15
 73
    11
 74
     0
 42
0.000000001
 43
0.00000001
 40
0.0
 40
0.0
 40
0.0
 40
0.0
 40
0.089398154854713
 40
0.153239276293117
 40
0.2229388537733802
 40
0.3017481308857564
 40
0.3942398025453073
 40
0.5064297554373132
 40
0.6447484245704628
 40
1.0
 40
1.0
 40
1.0
 40
1.0
 10
-14.17534577870222
 20
60.57349811837543
 30
0.0
 10
-14.17656622042233
 20
60.53834265528702
 30
0.0
 10
-14.18194734537053
 20
60.47823807252168
 30
0.0
 10
-14.1951438166751
 20
60.3914856078507
 30
0.0
 10
-14.21328900767214
 20
60.30985849593114
 30
0.0
 10
-14.24139780765063
 20
60.21917296335315
 30
0.0
 10
-14.28539718126719
 20
60.11641530647719
 30
0.0
 10
-14.3548291655717
 20
60.00011813152638
 30
0.0
 10
-14.51128941295595
 20
59.81835770521425
 30
0.0
 10
-14.68682103458053
 20
59.72018830651488
 30
0.0
 10
-14.82327245367924
 20
59.68685444688801
 30
0.0
  0
ARC
  5
209
330
1F
100
AcDbEntity
  8
0
  6
Continuous
 62
     7
370
    25
100
AcDbCircle
 10
0.0
 20
0.0
 30
0.0
 40
61.50000000000001
100
AcDbArc
 50
103.9472701194
 51
104.1777298806
  0
SPLINE
  5
20A
330
1F
100
AcDbEntity
  8
0
  6
Continuous
 62
     7
370
    25
100
AcDbSpline
210
0.0
220
0.0
230
1.0
 70
     8
 71
     3
 72
    15
 73
    11
 74
     0
 42
0.000000001
 43
0.00000001
 40
0.0
 40
0.0
 40
0.0
 40
0.0
 40
0.3552515754295372
 40
0.4935702445626868
 40
0.6057601974546927
 40
0.6982518691142436
 40
0.7770611462266198
 40
0.846760723706883
 40
0.910601845145287
 40
1.0
 40
1.0
 40
1.0
 40
1.0
 10
-15.06322923354076
 20
59.62674840252321
 30
0.0
 10
-15.19928211424834
 20
59.59182348845254
 30
0.0
 10
-15.40036391812767
 20
59.59565613503023
 30
0.0
 10
-15.62403080916869
 20
59.68219966995198
 30
0.0
 10
-15.74008646132662
 20
59.75203461069225
 30
0.0
 10
-15.82733006867229
 20
59.82191761222053
 30
0.0
 10
-15.89486868122323
 20
59.88864471518386
 30
0.0
 10
-15.94935006520457
 20
59.95207981710798
 30
0.0
 10
-16.00188314261995
 20
60.02236788692534
 30
0.0
 10
-16.03496197532175
 20
60.07283875180988
 30
0.0
 10
-16.0526104794081
 20
60.1032677900212
 30
0.0
  0
LINE
  5
20B
330
1F
100
AcDbEntity
  8
0
  6
Continuous
 62
     7
370
    25
100
AcDbLine
 10
-16.0526104794
 20
60.10326779
 30
0.0
 11
-16.0703723799
 21
60.1327176225
 31
0.0
  0
SPLINE
  5
20C
330
1F
100
AcDbEntity
  8
0
  6
Continuous
 62
     7
370
    25
100
AcDbSpline
210
0.0
220
0.0
230
1.0
 70
     8
 71
     3
 72
    14
 73
    10
 74
     0
 42
0.000000001
 43
0.00000001
 40
0.0
 40
0.0
 40
0.0
 40
0.0
 40
0.1491727089896281
 40
0.2332891805152238
 40
0.3237590634114546
 40
0.4205823576877865
 40
0.5237590633519522
 40
0.6332891804103242
 40
0.6859737861529458
 40
0.6859737861529458
 40
0.6859737861529458
 40
0.6859737861529458
 10
-16.07037237985712
 20
60.13271762249481
 30
0.0
 10
-16.21512883088887
 20
60.38442478845861
 30
0.0
 10
-16.45202450067862
 20
60.77196662995239
 30
0.0
 10
-16.79970533241042
 20
61.29761177543378
 30
0.0
 10
-17.10201156330392
 20
61.73089869576118
 30
0.0
 10
-17.4369501893562
 20
62.18644589816712
 30
0.0
 10
-17.80580114353644
 20
62.66288098312792
 30
0.0
 10
-18.13209239340279
 20
63.06340419743277
 30
0.0
 10
-18.3358588690912
 20
63.30459939754886
 30
0.0
 10
-18.40248001833813
 20
63.38255855655424
 30
0.0
  0
ARC
  5
20D
330
1F
100
AcDbEntity
  8
0
  6
Continuous
 62
     7
370
    25
100
AcDbCircle
 10
0.0
 20
0.0
 30
0.0
 40
66.00000000000001
100
AcDbArc
 50
106.1901166925
 51
107.5598833075
  0
SPLINE
  5
20E
330
1F
100
AcDbEntity
  8
0
  6
Continuous
 62
     7
370
    25
100
AcDbSpline
210
0.0
220
0.0
230
1.0
 70
     8
 71
     3
 72
    14
 73
    10
 74
     0
 42
0.000000001
 43
0.00000001
 40
0.314026213847054
 40
0.314026213847054
 40
0.314026213847054
 40
0.314026213847054
 40
0.3667108195896758
 40
0.4762409366480478
 40
0.5794176423122134
 40
0.6762409365885453
 40
0.7667108194847762
 40
0.8508272910103719
 40
1.0
 40
1.0
 40
1.0
 40
1.0
 10
-19.91235990038883
 20
62.92454150168873
 30
0.0
 10
-19.9244415733897
 20
62.82270810256395
 30
0.0
 10
-19.9598663323989
 20
62.50895503465441
 30
0.0
 10
-20.00864881592189
 20
61.99465444721766
 30
0.0
 10
-20.05064402462119
 20
61.39359054127457
 30
0.0
 10
-20.07604684877796
 20
60.82873495498147
 30
0.0
 10
-20.08668397808498
 20
60.30051770418027
 30
0.0
 10
-20.08373722848936
 20
59.67029861815651
 30
0.0
 10
-20.06540206802204
 20
59.21645717099219
 30
0.0
 10
-20.04592164939252
 20
58.92674793606371
 30
0.0
  0
LINE
  5
20F
330
1F
100
AcDbEntity
  8
0
  6
Continuous
 62
     7
370
    25
100
AcDbLine
 10
-20.0459216494
 20
58.9267479361
 30
0.0
 11
-20.0443286796
 21
58.8923933121
 31
0.0
  0
SPLINE
  5
210
330
1F
100
AcDbEntity
  8
0
  6
Continuous
 62
     7
370
    25
100
AcDbSpline
210
0.0
220
0.0
230
1.0
 70
     8
 71
     3
 72
    15
 73
    11
 74
     0
 42
0.000000001
 43
0.00000001
 40
0.0
 40
0.0
 40
0.0
 40
0.0
 40
0.089398154854713
 40
0.153239276293117
 40
0.2229388537733802
 40
0.3017481308857564
 40
0.3942398025453073
 40
0.5064297554373132
 40
0.6447484245704628
 40
1.0
 40
1.0
 40
1.0
 40
1.0
 10
-20.04432867958286
 20
58.89239331210317
 30
0.0
 10
-20.04209740658362
 20
58.85728750797117
 30
0.0
 10
-20.04156134062103
 20
58.79694490272091
 30
0.0
 10
-20.04619103880571
 20
58.70931669449946
 30
0.0
 10
-20.05624799966479
 20
58.62630409970249
 30
0.0
 10
-20.07533271151591
 20
58.53330009855876
 30
0.0
 10
-20.10904820444831
 20
58.42672455510898
 30
0.0
 10
-20.16674673825361
 20
58.30418185829389
 30
0.0
 10
-20.30463794956958
 20
58.10796087209076
 30
0.0
 10
-20.46970205472998
 20
57.9930590782895
 30
0.0
 10
-20.602229133353
 20
57.94651115241385
 30
0.0
  0
ARC
  5
211
330
1F
100
AcDbEntity
  8
0
  6
Continuous
 62
     7
370
    25
100
AcDbCircle
 10
0.0
 20
0.0
 30
0.0
 40
61.50000000000001
100
AcDbArc
 50
109.5722701194
 51
109.8027298806
  0
SPLINE
  5
212
330
1F
100
AcDbEntity
  8
0
  6
Continuous
 62
     7
370
    25
100
AcDbSpline
210
0.0
220
0.0
230
1.0
 70
     8
 71
     3
 72
    15
 73
    11
 74
     0
 42
0.000000001
 43
0.00000001
 40
0.0
 40
0.0
 40
0.0
 40
0.0
 40
0.3552515754295372
 40
0.4935702445626868
 40
0.6057601974546927
 40
0.6982518691142436
 40
0.7770611462266198
 40
0.846760723706883
 40
0.910601845145287
 40
1.0
 40
1.0
 40
1.0
 40
1.0
 10
-20.8351390331474
 20
57.86317465771661
 30
0.0
 10
-20.96711354184389
 20
57.81508240235259
 30
0.0
 10
-21.16760274693373
 20
57.79918713030089
 30
0.0
 10
-21.39867537056704
 20
57.86339074540098
 30
0.0
 10
-21.52101720422505
 20
57.92151396867015
 30
0.0
 10
-21.61469044172269
 20
57.98250909554105
 30
0.0
 10
-21.68844423720895
 20
58.04229494760118
 30
0.0
 10
-21.74888100572227
 20
58.1000844827119
 30
0.0
 10
-21.80805055761392
 20
58.16488495424044
 30
0.0
 10
-21.84591711654085
 20
58.21187049552859
 30
0.0
 10
-21.86646320556464
 20
58.24042315370219
 30
0.0
  0
LINE
  5
213
330
1F
100
AcDbEntity
  8
0
  6
Continuous
 62
     7
370
    25
100
AcDbLine
 10
-21.8664632056
 20
58.2404231537
 30
0.0
 11
-21.887026166
 21
58.2679902065
 31
0.0
  0
SPLINE
  5
214
330
1F
100
AcDbEntity
  8
0
  6
Continuous
 62
     7
370
    25
100
AcDbSpline
210
0.0
220
0.0
230
1.0
 70
     8
 71
     3
 72
    14
 73
    10
 74
     0
 42
0.000000001
 43
0.00000001
 40
0.0
 40
0.0
 40
0.0
 40
0.0
 40
0.1491727089896281
 40
0.2332891805152238
 40
0.3237590634114546
 40
0.4205823576877865
 40
0.5237590633519522
 40
0.6332891804103242
 40
0.6859737861529464
 40
0.6859737861529464
 40
0.6859737861529464
 40
0.6859737861529464
 10
-21.88702616597042
 20
58.26799020649415
 30
0.0
 10
-22.05575719173273
 20
58.50429672028088
 30
0.0
 10
-22.32949788718353
 20
58.86675260577265
 30
0.0
 10
-22.72702677466791
 20
59.35578794533138
 30
0.0
 10
-23.07034686330365
 20
59.75735727845204
 30
0.0
 10
-23.44832410238842
 20
60.17788117025313
 30
0.0
 10
-23.86209774298758
 20
60.6158683743203
 30
0.0
 10
-24.22607595140312
 20
60.98248082464769
 30
0.0
 10
-24.45250249959265
 20
61.20254199670786
 30
0.0
 10
-24.52644418362474
 20
61.27359574651958
 30
0.0
  0
ARC
  5
215
330
1F
100
AcDbEntity
  8
0
  6
Continuous
 62
     7
370
    25
100
AcDbCircle
 10
0.0
 20
0.0
 30
0.0
 40
66.00000000000001
100
AcDbArc
 50
111.8151166925
 51
113.1848833075
  0
SPLINE
  5
216
330
1F
100
AcDbEntity
  8
0
  6
Continuous
 62
     7
370
    25
100
AcDbSpline
210
0.0
220
0.0
230
1.0
 70
     8
 71
     3
 72
    14
 73
    10
 74
     0
 42
0.000000001
 43
0.00000001
 40
0.3140262138470569
 40
0.3140262138470569
 40
0.3140262138470569
 40
0.3140262138470569
 40
0.3667108195896758
 40
0.4762409366480478
 40
0.5794176423122134
 40
0.6762409365885453
 40
0.7667108194847762
 40
0.8508272910103719
 40
1.0
 40
1.0
 40
1.0
 40
1.0
 10
-25.98416005941113
 20
60.66979006068228
 30
0.0
 10
-25.986202137282
 20
60.56726280617026
 30
0.0
 10
-25.99070313790788
 20
60.25154831146517
 30
0.0
 10
-25.98884044758873
 20
59.7349427023965
 30
0.0
 10
-25.97171887266383
 20
59.13265683318375
 30
0.0
 10
-25.94163384601136
 20
58.56803126874925
 30
0.0
 10
-25.90044541023707
 20
58.04131490739113
 30
0.0
 10
-25.83574057745302
 20
57.4144193304916
 30
0.0
 10
-25.77300946498078
 20
56.96456041393935
 30
0.0
 10
-25.72522637915675
 20
56.67815562308913
 30
0.0
  0
LINE
  5
217
330
1F
100
AcDbEntity
  8
0
  6
Continuous
 62
     7
370
    25
100
AcDbLine
 10
-25.7252263792
 20
56.6781556231
 30
0.0
 11
-25.7202737379
 21
56.6441225644
 31
0.0
  0
SPLINE
  5
218
330
1F
100
AcDbEntity
  8
0
  6
Continuous
 62
     7
370
    25
100
AcDbSpline
210
0.0
220
0.0
230
1.0
 70
     8
 71
     3
 72
    15
 73
    11
 74
     0
 42
0.000000001
 43
0.00000001
 40
0.0
 40
0.0
 40
0.0
 40
0.0
 40
0.089398154854713
 40
0.153239276293117
 40
0.2229388537733802
 40
0.3017481308857564
 40
0.3942398025453073
 40
0.5064297554373132
 40
0.6447484245704628
 40
1.0
 40
1.0
 40
1.0
 40
1.0
 10
-25.72027373793442
 20
56.64412256437841
 30
0.0
 10
-25.71461223859455
 20
56.60940450728737
 30
0.0
 10
-25.70816414432942
 20
56.54940501182739
 30
0.0
 10
-25.70418248286985
 20
56.4617449676031
 30
0.0
 10
-25.70605435956021
 20
56.37814634659592
 30
0.0
 10
-25.71593118707607
 20
56.28371955625861
 30
0.0
 10
-25.7390381006966
 20
56.17435250697856
 30
0.0
 10
-25.78444751558093
 20
56.04674444145817
 30
0.0
 10
-25.90244172308464
 20
55.83795261072649
 30
0.0
 10
-26.05544865421495
 20
55.70742498890935
 30
0.0
 10
-26.18277508414845
 20
55.64811127875677
 30
0.0
  0
ARC
  5
219
330
1F
100
AcDbEntity
  8
0
  6
Continuous
 62
     7
370
    25
100
AcDbCircle
 10
0.0
 20
0.0
 30
0.0
 40
61.50000000000002
100
AcDbArc
 50
115.1972701194
 51
115.4277298806
  0
SPLINE
  5
21A
330
1F
100
AcDbEntity
  8
0
  6
Continuous
 62
     7
370
    25
100
AcDbSpline
210
0.0
220
0.0
230
1.0
 70
     8
 71
     3
 72
    15
 73
    11
 74
     0
 42
0.000000001
 43
0.00000001
 40
0.0
 40
0.0
 40
0.0
 40
0.0
 40
0.3552515754295372
 40
0.4935702445626868
 40
0.6057601974546927
 40
0.6982518691142436
 40
0.7770611462266198
 40
0.846760723706883
 40
0.910601845145287
 40
1.0
 40
1.0
 40
1.0
 40
1.0
 10
-26.40639505421934
 20
55.54234690972736
 30
0.0
 10
-26.53302020424136
 20
55.48155046777904
 30
0.0
 10
-26.73098598989815
 20
55.44608035725703
 30
0.0
 10
-26.96723899044103
 20
55.4873257366248
 30
0.0
 10
-27.09468878686213
 20
55.53317748400941
 30
0.0
 10
-27.19388953002764
 20
55.58469731980783
 30
0.0
 10
-27.27314821908078
 20
55.63696615052714
 30
0.0
 10
-27.33895833300718
 20
55.68855357401038
 30
0.0
 10
-27.40419452424502
 20
55.74724238328574
 30
0.0
 10
-27.44648413373464
 20
55.79029010452999
 30
0.0
 10
-27.46972993762695
 20
55.81669140495918
 30
0.0
  0
LINE
  5
21B
330
1F
100
AcDbEntity
  8
0
  6
Continuous
 62
     7
370
    25
100
AcDbLine
 10
-27.4697299376
 20
55.816691405
 30
0.0
 11
-27.4928959254
 21
55.8421101923
 31
0.0
  0
SPLINE
  5
21C
330
1F
100
AcDbEntity
  8
0
  6
Continuous
 62
     7
370
    25
100
AcDbSpline
210
0.0
220
0.0
230
1.0
 70
     8
 71
     3
 72
    14
 73
    10
 74
     0
 42
0.000000001
 43
0.00000001
 40
0.0
 40
0.0
 40
0.0
 40
0.0
 40
0.1491727089896281
 40
0.2332891805152238
 40
0.3237590634114546
 40
0.4205823576877865
 40
0.5237590633519522
 40
0.6332891804103242
 40
0.6859737861529452
 40
0.6859737861529452
 40
0.6859737861529452
 40
0.6859737861529452
 10
-27.49289592543992
 20
55.84211019228142
 30
0.0
 10
-27.68397655391693
 20
56.06074029298503
 30
0.0
 10
-27.99192600248972
 20
56.39461957415899
 30
0.0
 10
-28.43547452522881
 20
56.84233543014116
 30
0.0
 10
-28.81650211147538
 20
57.20831984385702
 30
0.0
 10
-29.23387783615686
 20
57.58977055009346
 30
0.0
 10
-29.68858929682431
 20
57.98509181706369
 30
0.0
 10
-30.08674915467127
 20
58.3142628251062
 30
0.0
 10
-30.33365516392549
 20
58.51107065972584
 30
0.0
 10
-30.41420528390489
 20
58.57453471389126
 30
0.0
  0
ARC
  5
21D
330
1F
100
AcDbEntity
  8
0
  6
Continuous
 62
     7
370
    25
100
AcDbCircle
 10
0.0
 20
0.0
 30
0.0
 40
66.00000000000001
100
AcDbArc
 50
117.4401166925
 51
118.8098833075
  0
SPLINE
  5
21E
330
1F
100
AcDbEntity
  8
0
  6
Continuous
 62
     7
370
    25
100
AcDbSpline
210
0.0
220
0.0
230
1.0
 70
     8
 71
     3
 72
    14
 73
    10
 74
     0
 42
0.000000001
 43
0.00000001
 40
0.3140262138470581
 40
0.3140262138470581
 40
0.3140262138470581
 40
0.3140262138470581
 40
0.3667108195896758
 40
0.4762409366480478
 40
0.5794176423122134
 40
0.6762409365885453
 40
0.7667108194847762
 40
0.8508272910103719
 40
1.0
 40
1.0
 40
1.0
 40
1.0
 10
-31.80571855267461
 20
57.83075537591058
 30
0.0
 10
-31.79770136908925
 20
57.72852165951934
 30
0.0
 10
-31.77123526423528
 20
57.41388624118986
 30
0.0
 10
-31.71874533880002
 20
56.89995080490992
 30
0.0
 10
-31.64267187037705
 20
56.30224331459098
 30
0.0
 10
-31.55738872816814
 20
55.74328542485631
 30
0.0
 10
-31.46477139446494
 20
55.22314251943359
 30
0.0
 10
-31.33893162140343
 20
54.60560779875982
 30
0.0
 10
-31.23240869183171
 20
54.16406380010395
 30
0.0
 10
-31.15678311605053
 20
53.88372168803266
 30
0.0
  0
LINE
  5
21F
330
1F
100
AcDbEntity
  8
0
  6
Continuous
 62
     7
370
    25
100
AcDbLine
 10
-31.1567831161
 20
53.883721688
 30
0.0
 11
-31.1485185001
 21
53.8503379515
 31
0.0
  0
SPLINE
  5
220
330
1F
100
AcDbEntity
  8
0
  6
Continuous
 62
     7
370
    25
100
AcDbSpline
210
0.0
220
0.0
230
1.0
 70
     8
 71
     3
 72
    15
 73
    11
 74
     0
 42
0.000000001
 43
0.00000001
 40
0.0
 40
0.0
 40
0.0
 40
0.0
 40
0.089398154854713
 40
0.153239276293117
 40
0.2229388537733802
 40
0.3017481308857564
 40
0.3942398025453073
 40
0.5064297554373132
 40
0.6447484245704628
 40
1.0
 40
1.0
 40
1.0
 40
1.0
 10
-31.14851850005789
 20
53.8503379515315
 30
0.0
 10
-31.13948129771093
 20
53.81634199535004
 30
0.0
 10
-31.12718327381592
 20
53.75726343762067
 30
0.0
 10
-31.11462859828855
 20
53.67041577153927
 30
0.0
 10
-31.10829736361439
 20
53.58703622474183
 30
0.0
 10
-31.10887118754679
 20
53.49209602682083
 30
0.0
 10
-31.12114698964577
 20
53.3809907361812
 30
0.0
 10
-31.15382996812048
 20
53.24954623738411
 30
0.0
 10
-31.25079082309146
 20
53.03019434159105
 30
0.0
 10
-31.39026703980279
 20
52.88529794410979
 30
0.0
 10
-31.51116659792282
 20
52.81378967313323
 30
0.0
  0
ARC
  5
221
330
1F
100
AcDbEntity
  8
0
  6
Continuous
 62
     7
370
    25
100
AcDbCircle
 10
0.0
 20
0.0
 30
0.0
 40
61.50000000000001
100
AcDbArc
 50
120.8222701194
 51
121.0527298806
  0
SPLINE
  5
222
330
1F
100
AcDbEntity
  8
0
  6
Continuous
 62
     7
370
    25
100
AcDbSpline
210
0.0
220
0.0
230
1.0
 70
     8
 71
     3
 72
    15
 73
    11
 74
     0
 42
0.000000001
 43
0.00000001
 40
0.0
 40
0.0
 40
0.0
 40
0.0
 40
0.3552515754295372
 40
0.4935702445626868
 40
0.6057601974546927
 40
0.6982518691142436
 40
0.7770611462266198
 40
0.846760723706883
 40
0.910601845145287
 40
1.0
 40
1.0
 40
1.0
 40
1.0
 10
-31.72334305571523
 20
52.68661599846212
 30
0.0
 10
-31.84339937764774
 20
52.61370087290017
 30
0.0
 10
-32.0369352251365
 20
52.55899752046211
 30
0.0
 10
-32.27609335704469
 20
52.57688744854724
 30
0.0
 10
-32.4074237050182
 20
52.61002614265485
 30
0.0
 10
-32.51119659646626
 20
52.65157452319844
 30
0.0
 10
-32.59519687458347
 20
52.69582295516405
 30
0.0
 10
-32.66574654655039
 20
52.74071145193112
 30
0.0
 10
-32.73642111695108
 20
52.79272339363741
 30
0.0
 10
-32.78272650494613
 20
52.8314187217499
 30
0.0
 10
-32.80844815390803
 20
52.85541440547912
 30
0.0
  0
LINE
  5
223
330
1F
100
AcDbEntity
  8
0
  6
Continuous
 62
     7
370
    25
100
AcDbLine
 10
-32.8084481539
 20
52.8554144055
 30
0.0
 11
-32.833994068
 21
52.8784401305
 31
0.0
  0
SPLINE
  5
224
330
1F
100
AcDbEntity
  8
0
  6
Continuous
 62
     7
370
    25
100
AcDbSpline
210
0.0
220
0.0
230
1.0
 70
     8
 71
     3
 72
    14
 73
    10
 74
     0
 42
0.000000001
 43
0.00000001
 40
0.0
 40
0.0
 40
0.0
 40
0.0
 40
0.1491727089896281
 40
0.2332891805152238
 40
0.3237590634114546
 40
0.4205823576877865
 40
0.5237590633519522
 40
0.6332891804103242
 40
0.6859737861529446
 40
0.6859737861529446
 40
0.6859737861529446
 40
0.6859737861529446
 10
-32.83399406800175
 20
52.87844013051442
 30
0.0
 10
-33.04558408828592
 20
53.07728829074976
 30
0.0
 10
-33.38477656844865
 20
53.3793755276112
 30
0.0
 10
-33.87007311170018
 20
53.78146015157734
 30
0.0
 10
-34.28513869161116
 20
54.10833501591689
 30
0.0
 10
-34.7378933454999
 20
54.44703895776545
 30
0.0
 10
-35.22916350629882
 20
54.79588712773323
 30
0.0
 10
-35.65767051648982
 20
55.08444659674025
 30
0.0
 10
-35.92267814696708
 20
55.25610572688586
 30
0.0
 10
-36.0090609612052
 20
55.31136889187039
 30
0.0
  0
ARC
  5
225
330
1F
100
AcDbEntity
  8
0
  6
Continuous
 62
     7
370
    25
100
AcDbCircle
 10
0.0
 20
0.0
 30
0.0
 40
66.0
100
AcDbArc
 50
123.0651166925
 51
124.4348833075
  0
SPLINE
  5
226
330
1F
100
AcDbEntity
  8
0
  6
Continuous
 62
     7
370
    25
100
AcDbSpline
210
0.0
220
0.0
230
1.0
 70
     8
 71
     3
 72
    14
 73
    10
 74
     0
 42
0.000000001
 43
0.00000001
 40
0.3140262138470544
 40
0.3140262138470544
 40
0.3140262138470544
 40
0.3140262138470544
 40
0.3667108195896758
 40
0.4762409366480478
 40
0.5794176423122134
 40
0.6762409365885453
 40
0.7667108194847762
 40
0.8508272910103719
 40
1.0
 40
1.0
 40
1.0
 40
1.0
 10
-37.32097058950144
 20
54.43477890336222
 30
0.0
 10
-37.30297135432043
 20
54.33382329166726
 30
0.0
 10
-37.24579302704421
 20
54.02329706078908
 30
0.0
 10
-37.14318137316869
 20
53.51698127649495
 30
0.0
 10
-37.00888864033455
 20
52.92960841494175
 30
0.0
 10
-36.8692287058492
 20
52.38170126994251
 30
0.0
 10
-36.72607442977042
 20
51.87314108097347
 30
0.0
 10
-36.54031162223706
 20
51.27091441346435
 30
0.0
 10
-36.39102274960896
 20
50.84193764278439
 30
0.0
 10
-36.28828299950658
 20
50.57035805728188
 30
0.0
  0
LINE
  5
227
330
1F
100
AcDbEntity
  8
0
  6
Continuous
 62
     7
370
    25
100
AcDbLine
 10
-36.2882829995
 20
50.5703580573
 30
0.0
 11
-36.2767860015
 21
50.5379451466
 31
0.0
  0
SPLINE
  5
228
330
1F
100
AcDbEntity
  8
0
  6
Continuous
 62
     7
370
    25
100
AcDbSpline
210
0.0
220
0.0
230
1.0
 70
     8
 71
     3
 72
    15
 73
    11
 74
     0
 42
0.000000001
 43
0.00000001
 40
0.0
 40
0.0
 40
0.0
 40
0.0
 40
0.089398154854713
 40
0.153239276293117
 40
0.2229388537733802
 40
0.3017481308857564
 40
0.3942398025453073
 40
0.5064297554373132
 40
0.6447484245704628
 40
1.0
 40
1.0
 40
1.0
 40
1.0
 10
-36.27678600151353
 20
50.53794514662219
 30
0.0
 10
-36.26446012935831
 20
50.50499869099242
 30
0.0
 10
-36.24643061252632
 20
50.44741002980022
 30
0.0
 10
-36.22542383131957
 20
50.36221113236185
 30
0.0
 10
-36.2109504585318
 20
50.27985365038969
 30
0.0
 10
-36.20221575264259
 20
50.18531437089058
 30
0.0
 10
-36.20354222053516
 20
50.07354084357655
 30
0.0
 10
-36.22318400765121
 20
49.93952579388106
 30
0.0
 10
-36.2981777240519
 20
49.71172631169305
 30
0.0
 10
-36.42277999413188
 20
49.55385657006385
 30
0.0
 10
-36.5360883516033
 20
49.4708424020032
 30
0.0
  0
ARC
  5
229
330
1F
100
AcDbEntity
  8
0
  6
Continuous
 62
     7
370
    25
100
AcDbCircle
 10
0.0
 20
0.0
 30
0.0
 40
61.50000000000001
100
AcDbArc
 50
126.4472701194
 51
126.6777298806
  0
SPLINE
  5
22A
330
1F
100
AcDbEntity
  8
0
  6
Continuous
 62
     7
370
    25
100
AcDbSpline
210
0.0
220
0.0
230
1.0
 70
     8
 71
     3
 72
    15
 73
    11
 74
     0
 42
0.000000001
 43
0.00000001
 40
0.0
 40
0.0
 40
0.0
 40
0.0
 40
0.3552515754295372
 40
0.4935702445626868
 40
0.6057601974546927
 40
0.6982518691142436
 40
0.7770611462266198
 40
0.846760723706883
 40
0.910601845145287
 40
1.0
 40
1.0
 40
1.0
 40
1.0
 10
-36.73477792184121
 20
49.3234841736977
 30
0.0
 10
-36.84710920767454
 20
49.23915257704076
 30
0.0
 10
-37.03435126098649
 20
49.16574280587453
 30
0.0
 10
-37.27411130071258
 20
49.16010499288991
 30
0.0
 10
-37.40805741719505
 20
49.18021148998081
 30
0.0
 10
-37.51540306725298
 20
49.2113882816523
 30
0.0
 10
-37.60333596583678
 20
49.24719017827572
 30
0.0
 10
-37.67794576393678
 20
49.28494744756421
 30
0.0
 10
-37.75337807875271
 20
49.32978161827017
 30
0.0
 10
-37.80325329905372
 20
49.36375189608817
 30
0.0
 10
-37.83120307954481
 20
49.38511087156574
 30
0.0
  0
LINE
  5
22B
330
1F
100
AcDbEntity
  8
0
  6
Continuous
 62
     7
370
    25
100
AcDbLine
 10
-37.8312030795
 20
49.3851108716
 30
0.0
 11
-37.8588828988
 21
49.405521784
 31
0.0
  0
SPLINE
  5
22C
330
1F
100
AcDbEntity
  8
0
  6
Continuous
 62
     7
370
    25
100
AcDbSpline
210
0.0
220
0.0
230
1.0
 70
     8
 71
     3
 72
    14
 73
    10
 74
     0
 42
0.000000001
 43
0.00000001
 40
0.0
 40
0.0
 40
0.0
 40
0.0
 40
0.1491727089896281
 40
0.2332891805152238
 40
0.3237590634114546
 40
0.4205823576877865
 40
0.5237590633519522
 40
0.6332891804103242
 40
0.6859737861529441
 40
0.6859737861529441
 40
0.6859737861529441
 40
0.6859737861529441
 10
-37.85888289880174
 20
49.40552178399485
 30
0.0
 10
-38.08894458333087
 20
49.5826729872774
 30
0.0
 10
-38.4561134860781
 20
49.85005891459767
 30
0.0
 10
-38.97848437884048
 20
50.20264001181717
 30
0.0
 10
-39.4235906439834
 20
50.48725734314883
 30
0.0
 10
-39.90736395226158
 20
50.77995261649512
 30
0.0
 10
-40.4304616129879
 20
51.07896809088383
 30
0.0
 10
-40.88518901876903
 20
51.32413703542617
 30
0.0
 10
-41.16574610211992
 20
51.46899428983602
 30
0.0
 10
-41.257129696894
 20
51.51552435115095
 30
0.0
  0
ARC
  5
22D
330
1F
100
AcDbEntity
  8
0
  6
Continuous
 62
     7
370
    25
100
AcDbCircle
 10
0.0
 20
0.0
 30
0.0
 40
66.0
100
AcDbArc
 50
128.6901166925
 51
130.0598833075
  0
SPLINE
  5
22E
330
1F
100
AcDbEntity
  8
0
  6
Continuous
 62
     7
370
    25
100
AcDbSpline
210
0.0
220
0.0
230
1.0
 70
     8
 71
     3
 72
    14
 73
    10
 74
     0
 42
0.000000001
 43
0.00000001
 40
0.3140262138470556
 40
0.3140262138470556
 40
0.3140262138470556
 40
0.3140262138470556
 40
0.3667108195896758
 40
0.4762409366480478
 40
0.5794176423122134
 40
0.6762409365885453
 40
0.7667108194847762
 40
0.8508272910103719
 40
1.0
 40
1.0
 40
1.0
 40
1.0
 10
-42.47680127783353
 20
50.51456575289745
 30
0.0
 10
-42.44899333353106
 20
50.41586050362733
 30
0.0
 10
-42.36165344238109
 20
50.11243399755474
 30
0.0
 10
-42.20990826638538
 20
49.61861396302952
 30
0.0
 10
-42.01868958156914
 20
49.04723245198948
 30
0.0
 10
-41.82599785632232
 20
48.51565269704854
 30
0.0
 10
-41.63368529180269
 20
48.0235729371602
 30
0.0
 10
-41.3897884471823
 20
47.44245409483445
 30
0.0
 10
-41.19917136495086
 20
47.03017583293463
 30
0.0
 10
-41.07030688048399
 20
46.76997423386977
 30
0.0
  0
LINE
  5
22F
330
1F
100
AcDbEntity
  8
0
  6
Continuous
 62
     7
370
    25
100
AcDbLine
 10
-41.0703068805
 20
46.7699742339
 30
0.0
 11
-41.0556882229
 21
46.7388443031
 31
0.0
  0
SPLINE
  5
230
330
1F
100
AcDbEntity
  8
0
  6
Continuous
 62
     7
370
    25
100
AcDbSpline
210
0.0
220
0.0
230
1.0
 70
     8
 71
     3
 72
    15
 73
    11
 74
     0
 42
0.000000001
 43
0.00000001
 40
0.0
 40
0.0
 40
0.0
 40
0.0
 40
0.089398154854713
 40
0.153239276293117
 40
0.2229388537733802
 40
0.3017481308857564
 40
0.3942398025453073
 40
0.5064297554373132
 40
0.6447484245704628
 40
1.0
 40
1.0
 40
1.0
 40
1.0
 10
-41.0556882228661
 20
46.73884430309992
 30
0.0
 10
-41.0401923857895
 20
46.7072646403999
 30
0.0
 10
-41.01660501012356
 20
46.65172048603331
 30
0.0
 10
-40.9873484300239
 20
46.56899086919476
 30
0.0
 10
-40.96487230561444
 20
46.48844859962047
 30
0.0
 10
-40.9469131898962
 20
46.39522070348524
 30
0.0
 10
-40.93727754897143
 20
46.28385537966647
 30
0.0
 10
-40.94368898358159
 20
46.14856041726122
 30
0.0
 10
-40.99599333092733
 20
45.91450718221959
 30
0.0
 10
-41.10452166640054
 20
45.74518446835472
 30
0.0
 10
-41.20914760180028
 20
45.65146387502858
 30
0.0
  0
ARC
  5
231
330
1F
100
AcDbEntity
  8
0
  6
Continuous
 62
     7
370
    25
100
AcDbCircle
 10
0.0
 20
0.0
 30
0.0
 40
61.50000000000001
100
AcDbArc
 50
132.0722701194
 51
132.3027298806
  0
SPLINE
  5
232
330
1F
100
AcDbEntity
  8
0
  6
Continuous
 62
     7
370
    25
100
AcDbSpline
210
0.0
220
0.0
230
1.0
 70
     8
 71
     3
 72
    15
 73
    11
 74
     0
 42
0.000000001
 43
0.00000001
 40
0.0
 40
0.0
 40
0.0
 40
0.0
 40
0.3552515754295372
 40
0.4935702445626868
 40
0.6057601974546927
 40
0.6982518691142436
 40
0.7770611462266198
 40
0.846760723706883
 40
0.910601845145287
 40
1.0
 40
1.0
 40
1.0
 40
1.0
 10
-41.39243679530762
 20
45.48534023338139
 30
0.0
 10
-41.49596123335265
 20
45.3904043250056
 30
0.0
 10
-41.67510624915748
 20
45.2989951113374
 30
0.0
 10
-41.91315917645274
 20
45.26988385250401
 30
0.0
 10
-42.04843108712004
 20
45.2767645160199
 30
0.0
 10
-42.15831569849669
 20
45.29726946927251
 30
0.0
 10
-42.24933437566471
 20
45.32428003871796
 30
0.0
 10
-42.32728576675624
 20
45.35454245738437
 30
0.0
 10
-42.40674937156022
 20
45.39176707951727
 30
0.0
 10
-42.45971409853112
 20
45.42068515469534
 30
0.0
 10
-42.48962283888638
 20
45.43920172331141
 30
0.0
  0
LINE
  5
233
330
1F
100
AcDbEntity
  8
0
  6
Continuous
 62
     7
370
    25
100
AcDbLine
 10
-42.4896228389
 20
45.4392017233
 30
0.0
 11
-42.5191699915
 21
45.4568012549
 31
0.0
  0
SPLINE
  5
234
330
1F
100
AcDbEntity
  8
0
  6
Continuous
 62
     7
370
    25
100
AcDbSpline
210
0.0
220
0.0
230
1.0
 70
     8
 71
     3
 72
    14
 73
    10
 74
     0
 42
0.000000001
 43
0.00000001
 40
0.0
 40
0.0
 40
0.0
 40
0.0
 40
0.1491727089896281
 40
0.2332891805152238
 40
0.3237590634114546
 40
0.4205823576877865
 40
0.5237590633519522
 40
0.6332891804103242
 40
0.6859737861529467
 40
0.6859737861529467
 40
0.6859737861529467
 40
0.6859737861529467
 10
-42.51916999151573
 20
45.4568012548899
 30
0.0
 10
-42.7654877205033
 20
45.61054943829135
 30
0.0
 10
-43.15709700858663
 20
45.84065898342234
 30
0.0
 10
-43.71151153360558
 20
46.14034100518855
 30
0.0
 10
-44.18237186732728
 20
46.37995978302393
 30
0.0
 10
-44.69250482857879
 20
46.6238275723821
 30
0.0
 10
-45.24239227280545
 20
46.87013066871491
 30
0.0
 10
-45.71896080067976
 20
47.06954797783364
 30
0.0
 10
-46.01236541882351
 20
47.18620830196074
 30
0.0
 10
-46.10786972016054
 20
47.22355714967969
 30
0.0
  0
ARC
  5
235
330
1F
100
AcDbEntity
  8
0
  6
Continuous
 62
     7
370
    25
100
AcDbCircle
 10
0.0
 20
0.0
 30
0.0
 40
66.00000000000001
100
AcDbArc
 50
134.3151166925
 51
135.6848833075
  0
SPLINE
  5
236
330
1F
100
AcDbEntity
  8
0
  6
Continuous
 62
     7
370
    25
100
AcDbSpline
210
0.0
220
0.0
230
1.0
 70
     8
 71
     3
 72
    14
 73
    10
 74
     0
 42
0.000000001
 43
0.00000001
 40
0.3140262138470544
 40
0.3140262138470544
 40
0.3140262138470544
 40
0.3140262138470544
 40
0.3667108195896758
 40
0.4762409366480478
 40
0.5794176423122134
 40
0.6762409365885453
 40
0.7667108194847762
 40
0.8508272910103719
 40
1.0
 40
1.0
 40
1.0
 40
1.0
 10
-47.22355714967858
 20
46.10786972016167
 30
0.0
 10
-47.18620830195963
 20
46.01236541882466
 30
0.0
 10
-47.06954797783256
 20
45.71896080068091
 30
0.0
 10
-46.87013066871382
 20
45.24239227280658
 30
0.0
 10
-46.62382757238102
 20
44.69250482857991
 30
0.0
 10
-46.37995978302288
 20
44.1823718673284
 30
0.0
 10
-46.14034100518747
 20
43.71151153360668
 30
0.0
 10
-45.84065898342131
 20
43.15709700858775
 30
0.0
 10
-45.6105494382903
 20
42.76548772050437
 30
0.0
 10
-45.45680125488888
 20
42.51916999151683
 30
0.0
  0
LINE
  5
237
330
1F
100
AcDbEntity
  8
0
  6
Continuous
 62
     7
370
    25
100
AcDbLine
 10
-45.4568012549
 20
42.5191699915
 30
0.0
 11
-45.4392017233
 21
42.4896228389
 31
0.0
  0
SPLINE
  5
238
330
1F
100
AcDbEntity
  8
0
  6
Continuous
 62
     7
370
    25
100
AcDbSpline
210
0.0
220
0.0
230
1.0
 70
     8
 71
     3
 72
    15
 73
    11
 74
     0
 42
0.000000001
 43
0.00000001
 40
0.0
 40
0.0
 40
0.0
 40
0.0
 40
0.089398154854713
 40
0.153239276293117
 40
0.2229388537733802
 40
0.3017481308857564
 40
0.3942398025453073
 40
0.5064297554373132
 40
0.6447484245704628
 40
1.0
 40
1.0
 40
1.0
 40
1.0
 10
-45.4392017233104
 20
42.48962283888747
 30
0.0
 10
-45.42068515469433
 20
42.45971409853222
 30
0.0
 10
-45.39176707951627
 20
42.40674937156133
 30
0.0
 10
-45.35454245738335
 20
42.32728576675733
 30
0.0
 10
-45.32428003871694
 20
42.2493343756658
 30
0.0
 10
-45.2972694692715
 20
42.15831569849778
 30
0.0
 10
-45.27676451601888
 20
42.04843108712112
 30
0.0
 10
-45.269883852503
 20
41.91315917645384
 30
0.0
 10
-45.29899511133638
 20
41.67510624915857
 30
0.0
 10
-45.3904043250046
 20
41.49596123335375
 30
0.0
 10
-45.4853402333804
 20
41.39243679530872
 30
0.0
  0
ARC
  5
239
330
1F
100
AcDbEntity
  8
0
  6
Continuous
 62
     7
370
    25
100
AcDbCircle
 10
0.0
 20
0.0
 30
0.0
 40
61.50000000000001
100
AcDbArc
 50
137.6972701194
 51
137.9277298806
  0
SPLINE
  5
23A
330
1F
100
AcDbEntity
  8
0
  6
Continuous
 62
     7
370
    25
100
AcDbSpline
210
0.0
220
0.0
230
1.0
 70
     8
 71
     3
 72
    15
 73
    11
 74
     0
 42
0.000000001
 43
0.00000001
 40
0.0
 40
0.0
 40
0.0
 40
0.0
 40
0.3552515754295372
 40
0.4935702445626868
 40
0.6057601974546927
 40
0.6982518691142436
 40
0.7770611462266198
 40
0.846760723706883
 40
0.910601845145287
 40
1.0
 40
1.0
 40
1.0
 40
1.0
 10
-45.65146387502757
 20
41.20914760180138
 30
0.0
 10
-45.74518446835373
 20
41.10452166640165
 30
0.0
 10
-45.91450718221861
 20
40.99599333092845
 30
0.0
 10
-46.14856041726023
 20
40.9436889835827
 30
0.0
 10
-46.28385537966548
 20
40.93727754897255
 30
0.0
 10
-46.39522070348423
 20
40.94691318989731
 30
0.0
 10
-46.48844859961948
 20
40.96487230561556
 30
0.0
 10
-46.56899086919376
 20
40.98734843002503
 30
0.0
 10
-46.6517204860323
 20
41.01660501012468
 30
0.0
 10
-46.7072646403989
 20
41.04019238579063
 30
0.0
 10
-46.73884430309892
 20
41.05568822286724
 30
0.0
  0
LINE
  5
23B
330
1F
100
AcDbEntity
  8
0
  6
Continuous
 62
     7
370
    25
100
AcDbLine
 10
-46.7388443031
 20
41.0556882229
 30
0.0
 11
-46.7699742339
 21
41.0703068805
 31
0.0
  0
SPLINE
  5
23C
330
1F
100
AcDbEntity
  8
0
  6
Continuous
 62
     7
370
    25
100
AcDbSpline
210
0.0
220
0.0
230
1.0
 70
     8
 71
     3
 72
    14
 73
    10
 74
     0
 42
0.000000001
 43
0.00000001
 40
0.0
 40
0.0
 40
0.0
 40
0.0
 40
0.1491727089896281
 40
0.2332891805152238
 40
0.3237590634114546
 40
0.4205823576877865
 40
0.5237590633519522
 40
0.6332891804103242
 40
0.6859737861529437
 40
0.6859737861529437
 40
0.6859737861529437
 40
0.6859737861529437
 10
-46.76997423386877
 20
41.07030688048511
 30
0.0
 10
-47.03017583293365
 20
41.19917136495201
 30
0.0
 10
-47.44245409483342
 20
41.38978844718343
 30
0.0
 10
-48.02357293715922
 20
41.63368529180386
 30
0.0
 10
-48.51565269704751
 20
41.82599785632348
 30
0.0
 10
-49.04723245198846
 20
42.01868958157032
 30
0.0
 10
-49.61861396302849
 20
42.20990826638658
 30
0.0
 10
-50.11243399755369
 20
42.3616534423823
 30
0.0
 10
-50.4158605036263
 20
42.44899333353227
 30
0.0
 10
-50.51456575289642
 20
42.47680127783475
 30
0.0
  0
ARC
  5
23D
330
1F
100
AcDbEntity
  8
0
  6
Continuous
 62
     7
370
    25
100
AcDbCircle
 10
0.0
 20
0.0
 30
0.0
 40
66.0
100
AcDbArc
 50
139.9401166925
 51
141.3098833075
  0
SPLINE
  5
23E
330
1F
100
AcDbEntity
  8
0
  6
Continuous
 62
     7
370
    25
100
AcDbSpline
210
0.0
220
0.0
230
1.0
 70
     8
 71
     3
 72
    14
 73
    10
 74
     0
 42
0.000000001
 43
0.00000001
 40
0.3140262138470547
 40
0.3140262138470547
 40
0.3140262138470547
 40
0.3140262138470547
 40
0.3667108195896758
 40
0.4762409366480478
 40
0.5794176423122134
 40
0.6762409365885453
 40
0.7667108194847762
 40
0.8508272910103719
 40
1.0
 40
1.0
 40
1.0
 40
1.0
 10
-51.51552435114995
 20
41.25712969689526
 30
0.0
 10
-51.46899428983502
 20
41.16574610212116
 30
0.0
 10
-51.32413703542518
 20
40.88518901877027
 30
0.0
 10
-51.07896809088285
 20
40.43046161298914
 30
0.0
 10
-50.77995261649415
 20
39.9073639522628
 30
0.0
 10
-50.48725734314789
 20
39.42359064398462
 30
0.0
 10
-50.20264001181621
 20
38.97848437884167
 30
0.0
 10
-49.85005891459676
 20
38.45611348607932
 30
0.0
 10
-49.58267298727645
 20
38.08894458333206
 30
0.0
 10
-49.40552178399393
 20
37.85888289880293
 30
0.0
  0
LINE
  5
23F
330
1F
100
AcDbEntity
  8
0
  6
Continuous
 62
     7
370
    25
100
AcDbLine
 10
-49.405521784
 20
37.8588828988
 30
0.0
 11
-49.3851108716
 21
37.8312030795
 31
0.0
  0
SPLINE
  5
240
330
1F
100
AcDbEntity
  8
0
  6
Continuous
 62
     7
370
    25
100
AcDbSpline
210
0.0
220
0.0
230
1.0
 70
     8
 71
     3
 72
    15
 73
    11
 74
     0
 42
0.000000001
 43
0.00000001
 40
0.0
 40
0.0
 40
0.0
 40
0.0
 40
0.089398154854713
 40
0.153239276293117
 40
0.2229388537733802
 40
0.3017481308857564
 40
0.3942398025453073
 40
0.5064297554373132
 40
0.6447484245704628
 40
1.0
 40
1.0
 40
1.0
 40
1.0
 10
-49.38511087156483
 20
37.83120307954601
 30
0.0
 10
-49.36375189608726
 20
37.80325329905492
 30
0.0
 10
-49.32978161826927
 20
37.75337807875392
 30
0.0
 10
-49.28494744756329
 20
37.67794576393798
 30
0.0
 10
-49.24719017827481
 20
37.60333596583796
 30
0.0
 10
-49.2113882816514
 20
37.51540306725417
 30
0.0
 10
-49.1802114899799
 20
37.40805741719623
 30
0.0
 10
-49.16010499288901
 20
37.27411130071377
 30
0.0
 10
-49.16574280587362
 20
37.03435126098767
 30
0.0
 10
-49.23915257703987
 20
36.84710920767573
 30
0.0
 10
-49.32348417369681
 20
36.73477792184241
 30
0.0
  0
ARC
  5
241
330
1F
100
AcDbEntity
  8
0
  6
Continuous
 62
     7
370
    25
100
AcDbCircle
 10
0.0
 20
0.0
 30
0.0
 40
61.50000000000001
100
AcDbArc
 50
143.3222701194
 51
143.5527298806
  0
SPLINE
  5
242
330
1F
100
AcDbEntity
  8
0
  6
Continuous
 62
     7
370
    25
100
AcDbSpline
210
0.0
220
0.0
230
1.0
 70
     8
 71
     3
 72
    15
 73
    11
 74
     0
 42
0.000000001
 43
0.00000001
 40
0.0
 40
0.0
 40
0.0
 40
0.0
 40
0.3552515754295372
 40
0.4935702445626868
 40
0.6057601974546927
 40
0.6982518691142436
 40
0.7770611462266198
 40
0.846760723706883
 40
0.910601845145287
 40
1.0
 40
1.0
 40
1.0
 40
1.0
 10
-49.47084240200232
 20
36.5360883516045
 30
0.0
 10
-49.55385657006297
 20
36.42277999413307
 30
0.0
 10
-49.71172631169218
 20
36.29817772405311
 30
0.0
 10
-49.93952579388017
 20
36.22318400765241
 30
0.0
 10
-50.07354084357568
 20
36.20354222053637
 30
0.0
 10
-50.18531437088969
 20
36.2022157526438
 30
0.0
 10
-50.27985365038882
 20
36.21095045853302
 30
0.0
 10
-50.36221113236098
 20
36.22542383132078
 30
0.0
 10
-50.44741002979933
 20
36.24643061252754
 30
0.0
 10
-50.50499869099153
 20
36.26446012935953
 30
0.0
 10
-50.53794514662132
 20
36.27678600151475
 30
0.0
  0
LINE
  5
243
330
1F
100
AcDbEntity
  8
0
  6
Continuous
 62
     7
370
    25
100
AcDbLine
 10
-50.5379451466
 20
36.2767860015
 30
0.0
 11
-50.5703580573
 21
36.2882829995
 31
0.0
  0
SPLINE
  5
244
330
1F
100
AcDbEntity
  8
0
  6
Continuous
 62
     7
370
    25
100
AcDbSpline
210
0.0
220
0.0
230
1.0
 70
     8
 71
     3
 72
    14
 73
    10
 74
     0
 42
0.000000001
 43
0.00000001
 40
0.0
 40
0.0
 40
0.0
 40
0.0
 40
0.1491727089896281
 40
0.2332891805152238
 40
0.3237590634114546
 40
0.4205823576877865
 40
0.5237590633519522
 40
0.6332891804103242
 40
0.6859737861529438
 40
0.6859737861529438
 40
0.6859737861529438
 40
0.6859737861529438
 10
-50.57035805728101
 20
36.2882829995078
 30
0.0
 10
-50.84193764278355
 20
36.39102274961021
 30
0.0
 10
-51.27091441346344
 20
36.54031162223828
 30
0.0
 10
-51.8731410809726
 20
36.72607442977169
 30
0.0
 10
-52.38170126994162
 20
36.86922870585046
 30
0.0
 10
-52.92960841494085
 20
37.00888864033583
 30
0.0
 10
-53.51698127649405
 20
37.14318137316999
 30
0.0
 10
-54.02329706078817
 20
37.24579302704551
 30
0.0
 10
-54.33382329166635
 20
37.30297135432176
 30
0.0
 10
-54.43477890336132
 20
37.32097058950276
 30
0.0
  0
ARC
  5
245
330
1F
100
AcDbEntity
  8
0
  6
Continuous
 62
     7
370
    25
100
AcDbCircle
 10
0.0
 20
0.0
 30
0.0
 40
66.0
100
AcDbArc
 50
145.5651166925
 51
146.9348833075
  0
SPLINE
  5
246
330
1F
100
AcDbEntity
  8
0
  6
Continuous
 62
     7
370
    25
100
AcDbSpline
210
0.0
220
0.0
230
1.0
 70
     8
 71
     3
 72
    14
 73
    10
 74
     0
 42
0.000000001
 43
0.00000001
 40
0.3140262138470558
 40
0.3140262138470558
 40
0.3140262138470558
 40
0.3140262138470558
 40
0.3667108195896758
 40
0.4762409366480478
 40
0.5794176423122134
 40
0.6762409365885453
 40
0.7667108194847762
 40
0.8508272910103719
 40
1.0
 40
1.0
 40
1.0
 40
1.0
 10
-55.31136889186951
 20
36.00906096120654
 30
0.0
 10
-55.25610572688498
 20
35.92267814696841
 30
0.0
 10
-55.0844465967394
 20
35.65767051649116
 30
0.0
 10
-54.79588712773238
 20
35.22916350630015
 30
0.0
 10
-54.44703895776461
 20
34.73789334550122
 30
0.0
 10
-54.10833501591607
 20
34.28513869161247
 30
0.0
 10
-53.7814601515765
 20
33.87007311170145
 30
0.0
 10
-53.37937552761042
 20
33.38477656844995
 30
0.0
 10
-53.07728829074894
 20
33.04558408828719
 30
0.0
 10
-52.87844013051362
 20
32.83399406800302
 30
0.0
  0
LINE
  5
247
330
1F
100
AcDbEntity
  8
0
  6
Continuous
 62
     7
370
    25
100
AcDbLine
 10
-52.8784401305
 20
32.833994068
 30
0.0
 11
-52.8554144055
 21
32.8084481539
 31
0.0
  0
SPLINE
  5
248
330
1F
100
AcDbEntity
  8
0
  6
Continuous
 62
     7
370
    25
100
AcDbSpline
210
0.0
220
0.0
230
1.0
 70
     8
 71
     3
 72
    15
 73
    11
 74
     0
 42
0.000000001
 43
0.00000001
 40
0.0
 40
0.0
 40
0.0
 40
0.0
 40
0.089398154854713
 40
0.153239276293117
 40
0.2229388537733802
 40
0.3017481308857564
 40
0.3942398025453073
 40
0.5064297554373132
 40
0.6447484245704628
 40
1.0
 40
1.0
 40
1.0
 40
1.0
 10
-52.85541440547834
 20
32.8084481539093
 30
0.0
 10
-52.83141872174912
 20
32.78272650494741
 30
0.0
 10
-52.79272339363663
 20
32.73642111695236
 30
0.0
 10
-52.74071145193033
 20
32.66574654655166
 30
0.0
 10
-52.69582295516326
 20
32.59519687458474
 30
0.0
 10
-52.65157452319767
 20
32.51119659646753
 30
0.0
 10
-52.61002614265406
 20
32.40742370501946
 30
0.0
 10
-52.57688744854646
 20
32.27609335704596
 30
0.0
 10
-52.55899752046133
 20
32.03693522513776
 30
0.0
 10
-52.61370087289941
 20
31.84339937764902
 30
0.0
 10
-52.68661599846136
 20
31.72334305571651
 30
0.0
  0
ARC
  5
249
330
1F
100
AcDbEntity
  8
0
  6
Continuous
 62
     7
370
    25
100
AcDbCircle
 10
0.0
 20
0.0
 30
0.0
 40
61.50000000000001
100
AcDbArc
 50
148.9472701194
 51
149.1777298806
  0
SPLINE
  5
24A
330
1F
100
AcDbEntity
  8
0
  6
Continuous
 62
     7
370
    25
100
AcDbSpline
210
0.0
220
0.0
230
1.0
 70
     8
 71
     3
 72
    15
 73
    11
 74
     0
 42
0.000000001
 43
0.00000001
 40
0.0
 40
0.0
 40
0.0
 40
0.0
 40
0.3552515754295372
 40
0.4935702445626868
 40
0.6057601974546927
 40
0.6982518691142436
 40
0.7770611462266198
 40
0.846760723706883
 40
0.910601845145287
 40
1.0
 40
1.0
 40
1.0
 40
1.0
 10
-52.81378967313247
 20
31.51116659792409
 30
0.0
 10
-52.88529794410903
 20
31.39026703980407
 30
0.0
 10
-53.03019434159031
 20
31.25079082309275
 30
0.0
 10
-53.24954623738334
 20
31.15382996812176
 30
0.0
 10
-53.38099073618046
 20
31.12114698964706
 30
0.0
 10
-53.49209602682007
 20
31.10887118754808
 30
0.0
 10
-53.58703622474107
 20
31.10829736361569
 30
0.0
 10
-53.67041577153852
 20
31.11462859828985
 30
0.0
 10
-53.75726343761989
 20
31.12718327381721
 30
0.0
 10
-53.81634199534928
 20
31.13948129771223
 30
0.0
 10
-53.85033795153075
 20
31.14851850005919
 30
0.0
  0
LINE
  5
24B
330
1F
100
AcDbEntity
  8
0
  6
Continuous
 62
     7
370
    25
100
AcDbLine
 10
-53.8503379515
 20
31.1485185001
 30
0.0
 11
-53.883721688
 21
31.1567831161
 31
0.0
  0
SPLINE
  5
24C
330
1F
100
AcDbEntity
  8
0
  6
Continuous
 62
     7
370
    25
100
AcDbSpline
210
0.0
220
0.0
230
1.0
 70
     8
 71
     3
 72
    14
 73
    10
 74
     0
 42
0.000000001
 43
0.00000001
 40
0.0
 40
0.0
 40
0.0
 40
0.0
 40
0.1491727089896281
 40
0.2332891805152238
 40
0.3237590634114546
 40
0.4205823576877865
 40
0.5237590633519522
 40
0.6332891804103242
 40
0.685973786152945
 40
0.685973786152945
 40
0.685973786152945
 40
0.685973786152945
 10
-53.8837216880319
 20
31.15678311605183
 30
0.0
 10
-54.16406380010321
 20
31.23240869183303
 30
0.0
 10
-54.60560779875904
 20
31.33893162140474
 30
0.0
 10
-55.22314251943286
 20
31.46477139446628
 30
0.0
 10
-55.74328542485554
 20
31.55738872816949
 30
0.0
 10
-56.30224331459021
 20
31.6426718703784
 30
0.0
 10
-56.89995080490915
 20
31.7187453388014
 30
0.0
 10
-57.41388624118908
 20
31.77123526423665
 30
0.0
 10
-57.72852165951856
 20
31.79770136909063
 30
0.0
 10
-57.83075537590982
 20
31.80571855267599
 30
0.0
  0
ARC
  5
24D
330
1F
100
AcDbEntity
  8
0
  6
Continuous
 62
     7
370
    25
100
AcDbCircle
 10
0.0
 20
0.0
 30
0.0
 40
66.0
100
AcDbArc
 50
151.1901166925
 51
152.5598833075
  0
SPLINE
  5
24E
330
1F
100
AcDbEntity
  8
0
  6
Continuous
 62
     7
370
    25
100
AcDbSpline
210
0.0
220
0.0
230
1.0
 70
     8
 71
     3
 72
    14
 73
    10
 74
     0
 42
0.000000001
 43
0.00000001
 40
0.3140262138470545
 40
0.3140262138470545
 40
0.3140262138470545
 40
0.3140262138470545
 40
0.3667108195896758
 40
0.4762409366480478
 40
0.5794176423122134
 40
0.6762409365885453
 40
0.7667108194847762
 40
0.8508272910103719
 40
1.0
 40
1.0
 40
1.0
 40
1.0
 10
-58.57453471389052
 20
30.41420528390631
 30
0.0
 10
-58.51107065972511
 20
30.33365516392691
 30
0.0
 10
-58.31426282510548
 20
30.08674915467268
 30
0.0
 10
-57.98509181706297
 20
29.68858929682571
 30
0.0
 10
-57.58977055009275
 20
29.23387783615826
 30
0.0
 10
-57.20831984385634
 20
28.81650211147677
 30
0.0
 10
-56.84233543014044
 20
28.43547452523017
 30
0.0
 10
-56.39461957415833
 20
27.9919260024911
 30
0.0
 10
-56.06074029298434
 20
27.68397655391827
 30
0.0
 10
-55.84211019228076
 20
27.49289592544127
 30
0.0
  0
LINE
  5
24F
330
1F
100
AcDbEntity
  8
0
  6
Continuous
 62
     7
370
    25
100
AcDbLine
 10
-55.8421101923
 20
27.4928959254
 30
0.0
 11
-55.816691405
 21
27.4697299376
 31
0.0
  0
SPLINE
  5
250
330
1F
100
AcDbEntity
  8
0
  6
Continuous
 62
     7
370
    25
100
AcDbSpline
210
0.0
220
0.0
230
1.0
 70
     8
 71
     3
 72
    15
 73
    11
 74
     0
 42
0.000000001
 43
0.00000001
 40
0.0
 40
0.0
 40
0.0
 40
0.0
 40
0.089398154854713
 40
0.153239276293117
 40
0.2229388537733802
 40
0.3017481308857564
 40
0.3942398025453073
 40
0.5064297554373132
 40
0.6447484245704628
 40
1.0
 40
1.0
 40
1.0
 40
1.0
 10
-55.81669140495851
 20
27.4697299376283
 30
0.0
 10
-55.79029010452933
 20
27.44648413373599
 30
0.0
 10
-55.74724238328509
 20
27.40419452424638
 30
0.0
 10
-55.68855357400972
 20
27.33895833300853
 30
0.0
 10
-55.63696615052647
 20
27.27314821908212
 30
0.0
 10
-55.58469731980718
 20
27.19388953002899
 30
0.0
 10
-55.53317748400875
 20
27.09468878686347
 30
0.0
 10
-55.48732573662416
 20
26.96723899044238
 30
0.0
 10
-55.44608035725636
 20
26.73098598989948
 30
0.0
 10
-55.4815504677784
 20
26.5330202042427
 30
0.0
 10
-55.54234690972672
 20
26.40639505422068
 30
0.0
  0
ARC
  5
251
330
1F
100
AcDbEntity
  8
0
  6
Continuous
 62
     7
370
    25
100
AcDbCircle
 10
0.0
 20
0.0
 30
0.0
 40
61.50000000000001
100
AcDbArc
 50
154.5722701194
 51
154.8027298806
  0
SPLINE
  5
252
330
1F
100
AcDbEntity
  8
0
  6
Continuous
 62
     7
370
    25
100
AcDbSpline
210
0.0
220
0.0
230
1.0
 70
     8
 71
     3
 72
    15
 73
    11
 74
     0
 42
0.000000001
 43
0.00000001
 40
0.0
 40
0.0
 40
0.0
 40
0.0
 40
0.3552515754295372
 40
0.4935702445626868
 40
0.6057601974546927
 40
0.6982518691142436
 40
0.7770611462266198
 40
0.846760723706883
 40
0.910601845145287
 40
1.0
 40
1.0
 40
1.0
 40
1.0
 10
-55.64811127875613
 20
26.1827750841498
 30
0.0
 10
-55.70742498890872
 20
26.0554486542163
 30
0.0
 10
-55.83795261072588
 20
25.902441723086
 30
0.0
 10
-56.04674444145753
 20
25.78444751558229
 30
0.0
 10
-56.17435250697795
 20
25.73903810069796
 30
0.0
 10
-56.28371955625799
 20
25.71593118707743
 30
0.0
 10
-56.3781463465953
 20
25.70605435956158
 30
0.0
 10
-56.46174496760248
 20
25.70418248287122
 30
0.0
 10
-56.54940501182674
 20
25.70816414433078
 30
0.0
 10
-56.60940450728675
 20
25.71461223859592
 30
0.0
 10
-56.6441225643778
 20
25.72027373793579
 30
0.0
  0
LINE
  5
253
330
1F
100
AcDbEntity
  8
0
  6
Continuous
 62
     7
370
    25
100
AcDbLine
 10
-56.6441225644
 20
25.7202737379
 30
0.0
 11
-56.6781556231
 21
25.7252263792
 31
0.0
  0
SPLINE
  5
254
330
1F
100
AcDbEntity
  8
0
  6
Continuous
 62
     7
370
    25
100
AcDbSpline
210
0.0
220
0.0
230
1.0
 70
     8
 71
     3
 72
    14
 73
    10
 74
     0
 42
0.000000001
 43
0.00000001
 40
0.0
 40
0.0
 40
0.0
 40
0.0
 40
0.1491727089896281
 40
0.2332891805152238
 40
0.3237590634114546
 40
0.4205823576877865
 40
0.5237590633519522
 40
0.6332891804103242
 40
0.6859737861529447
 40
0.6859737861529447
 40
0.6859737861529447
 40
0.6859737861529447
 10
-56.67815562308851
 20
25.72522637915812
 30
0.0
 10
-56.96456041393875
 20
25.77300946498217
 30
0.0
 10
-57.41441933049094
 20
25.83574057745439
 30
0.0
 10
-58.04131490739053
 20
25.90044541023848
 30
0.0
 10
-58.56803126874861
 20
25.94163384601277
 30
0.0
 10
-59.13265683318313
 20
25.97171887266526
 30
0.0
 10
-59.73494270239588
 20
25.98884044759018
 30
0.0
 10
-60.25154831146455
 20
25.99070313790933
 30
0.0
 10
-60.56726280616962
 20
25.98620213728347
 30
0.0
 10
-60.66979006068166
 20
25.98416005941261
 30
0.0
  0
ARC
  5
255
330
1F
100
AcDbEntity
  8
0
  6
Continuous
 62
     7
370
    25
100
AcDbCircle
 10
0.0
 20
0.0
 30
0.0
 40
66.0
100
AcDbArc
 50
156.8151166925
 51
158.1848833075
  0
SPLINE
  5
256
330
1F
100
AcDbEntity
  8
0
  6
Continuous
 62
     7
370
    25
100
AcDbSpline
210
0.0
220
0.0
230
1.0
 70
     8
 71
     3
 72
    14
 73
    10
 74
     0
 42
0.000000001
 43
0.00000001
 40
0.314026213847057
 40
0.314026213847057
 40
0.314026213847057
 40
0.314026213847057
 40
0.3667108195896758
 40
0.4762409366480478
 40
0.5794176423122134
 40
0.6762409365885453
 40
0.7667108194847762
 40
0.8508272910103719
 40
1.0
 40
1.0
 40
1.0
 40
1.0
 10
-61.27359574651897
 20
24.52644418362621
 30
0.0
 10
-61.20254199670727
 20
24.45250249959412
 30
0.0
 10
-60.98248082464711
 20
24.2260759514046
 30
0.0
 10
-60.61586837431972
 20
23.86209774298905
 30
0.0
 10
-60.17788117025256
 20
23.44832410238988
 30
0.0
 10
-59.7573572784515
 20
23.0703468633051
 30
0.0
 10
-59.3557879453308
 20
22.72702677466934
 30
0.0
 10
-58.86675260577214
 20
22.32949788718497
 30
0.0
 10
-58.50429672028032
 20
22.05575719173413
 30
0.0
 10
-58.26799020649362
 20
21.88702616597183
 30
0.0
  0
LINE
  5
257
330
1F
100
AcDbEntity
  8
0
  6
Continuous
 62
     7
370
    25
100
AcDbLine
 10
-58.2679902065
 20
21.887026166
 30
0.0
 11
-58.2404231537
 21
21.8664632056
 31
0.0
  0
SPLINE
  5
258
330
1F
100
AcDbEntity
  8
0
  6
Continuous
 62
     7
370
    25
100
AcDbSpline
210
0.0
220
0.0
230
1.0
 70
     8
 71
     3
 72
    15
 73
    11
 74
     0
 42
0.000000001
 43
0.00000001
 40
0.0
 40
0.0
 40
0.0
 40
0.0
 40
0.089398154854713
 40
0.153239276293117
 40
0.2229388537733802
 40
0.3017481308857564
 40
0.3942398025453073
 40
0.5064297554373132
 40
0.6447484245704628
 40
1.0
 40
1.0
 40
1.0
 40
1.0
 10
-58.24042315370166
 20
21.86646320556605
 30
0.0
 10
-58.21187049552807
 20
21.84591711654226
 30
0.0
 10
-58.16488495423994
 20
21.80805055761533
 30
0.0
 10
-58.10008448271137
 20
21.74888100572368
 30
0.0
 10
-58.04229494760065
 20
21.68844423721035
 30
0.0
 10
-57.98250909554054
 20
21.61469044172409
 30
0.0
 10
-57.92151396866962
 20
21.52101720422645
 30
0.0
 10
-57.86339074540047
 20
21.39867537056845
 30
0.0
 10
-57.79918713030035
 20
21.16760274693512
 30
0.0
 10
-57.81508240235208
 20
20.96711354184528
 30
0.0
 10
-57.86317465771611
 20
20.83513903314881
 30
0.0
  0
ARC
  5
259
330
1F
100
AcDbEntity
  8
0
  6
Continuous
 62
     7
370
    25
100
AcDbCircle
 10
0.0
 20
0.0
 30
0.0
 40
61.50000000000001
100
AcDbArc
 50
160.1972701194
 51
160.4277298806
  0
SPLINE
  5
25A
330
1F
100
AcDbEntity
  8
0
  6
Continuous
 62
     7
370
    25
100
AcDbSpline
210
0.0
220
0.0
230
1.0
 70
     8
 71
     3
 72
    15
 73
    11
 74
     0
 42
0.000000001
 43
0.00000001
 40
0.0
 40
0.0
 40
0.0
 40
0.0
 40
0.3552515754295372
 40
0.4935702445626868
 40
0.6057601974546927
 40
0.6982518691142436
 40
0.7770611462266198
 40
0.846760723706883
 40
0.910601845145287
 40
1.0
 40
1.0
 40
1.0
 40
1.0
 10
-57.94651115241334
 20
20.6022291333544
 30
0.0
 10
-57.99305907828901
 20
20.46970205473139
 30
0.0
 10
-58.1079608720903
 20
20.304637949571
 30
0.0
 10
-58.3041818582934
 20
20.16674673825502
 30
0.0
 10
-58.42672455510851
 20
20.10904820444972
 30
0.0
 10
-58.53330009855826
 20
20.07533271151733
 30
0.0
 10
-58.626304099702
 20
20.05624799966621
 30
0.0
 10
-58.70931669449897
 20
20.04619103880713
 30
0.0
 10
-58.79694490272041
 20
20.04156134062244
 30
0.0
 10
-58.85728750797067
 20
20.04209740658505
 30
0.0
 10
-58.89239331210268
 20
20.04432867958429
 30
0.0
  0
LINE
  5
25B
330
1F
100
AcDbEntity
  8
0
  6
Continuous
 62
     7
370
    25
100
AcDbLine
 10
-58.8923933121
 20
20.0443286796
 30
0.0
 11
-58.9267479361
 21
20.0459216494
 31
0.0
  0
SPLINE
  5
25C
330
1F
100
AcDbEntity
  8
0
  6
Continuous
 62
     7
370
    25
100
AcDbSpline
210
0.0
220
0.0
230
1.0
 70
     8
 71
     3
 72
    14
 73
    10
 74
     0
 42
0.000000001
 43
0.00000001
 40
0.0
 40
0.0
 40
0.0
 40
0.0
 40
0.1491727089896281
 40
0.2332891805152238
 40
0.3237590634114546
 40
0.4205823576877865
 40
0.5237590633519522
 40
0.6332891804103242
 40
0.6859737861529471
 40
0.6859737861529471
 40
0.6859737861529471
 40
0.6859737861529471
 10
-58.92674793606323
 20
20.04592164939394
 30
0.0
 10
-59.21645717099173
 20
20.06540206802348
 30
0.0
 10
-59.67029861815599
 20
20.08373722849079
 30
0.0
 10
-60.30051770417981
 20
20.08668397808644
 30
0.0
 10
-60.82873495498097
 20
20.07604684877942
 30
0.0
 10
-61.39359054127409
 20
20.05064402462268
 30
0.0
 10
-61.99465444721718
 20
20.00864881592339
 30
0.0
 10
-62.50895503465391
 20
19.95986633240041
 30
0.0
 10
-62.82270810256346
 20
19.92444157339122
 30
0.0
 10
-62.92454150168826
 20
19.91235990039036
 30
0.0
  0
ARC
  5
25D
330
1F
100
AcDbEntity
  8
0
  6
Continuous
 62
     7
370
    25
100
AcDbCircle
 10
0.0
 20
0.0
 30
0.0
 40
66.0
100
AcDbArc
 50
162.4401166925
 51
163.8098833075
  0
SPLINE
  5
25E
330
1F
100
AcDbEntity
  8
0
  6
Continuous
 62
     7
370
    25
100
AcDbSpline
210
0.0
220
0.0
230
1.0
 70
     8
 71
     3
 72
    14
 73
    10
 74
     0
 42
0.000000001
 43
0.00000001
 40
0.3140262138470553
 40
0.3140262138470553
 40
0.3140262138470553
 40
0.3140262138470553
 40
0.3667108195896758
 40
0.4762409366480478
 40
0.5794176423122134
 40
0.6762409365885453
 40
0.7667108194847762
 40
0.8508272910103719
 40
1.0
 40
1.0
 40
1.0
 40
1.0
 10
-63.38255855655378
 20
18.40248001833966
 30
0.0
 10
-63.30459939754842
 20
18.33585886909273
 30
0.0
 10
-63.06340419743233
 20
18.13209239340432
 30
0.0
 10
-62.66288098312747
 20
17.80580114353796
 30
0.0
 10
-62.1864458981667
 20
17.43695018935771
 30
0.0
 10
-61.73089869576077
 20
17.10201156330541
 30
0.0
 10
-61.29761177543335
 20
16.7997053324119
 30
0.0
 10
-60.77196662995201
 20
16.4520245006801
 30
0.0
 10
-60.38442478845819
 20
16.21512883089033
 30
0.0
 10
-60.13271762249443
 20
16.07037237985857
 30
0.0
  0
LINE
  5
25F
330
1F
100
AcDbEntity
  8
0
  6
Continuous
 62
     7
370
    25
100
AcDbLine
 10
-60.1327176225
 20
16.0703723799
 30
0.0
 11
-60.10326779
 21
16.0526104794
 31
0.0
  0
SPLINE
  5
260
330
1F
100
AcDbEntity
  8
0
  6
Continuous
 62
     7
370
    25
100
AcDbSpline
210
0.0
220
0.0
230
1.0
 70
     8
 71
     3
 72
    15
 73
    11
 74
     0
 42
0.000000001
 43
0.00000001
 40
0.0
 40
0.0
 40
0.0
 40
0.0
 40
0.089398154854713
 40
0.153239276293117
 40
0.2229388537733802
 40
0.3017481308857564
 40
0.3942398025453073
 40
0.5064297554373132
 40
0.6447484245704628
 40
1.0
 40
1.0
 40
1.0
 40
1.0
 10
-60.10326779002081
 20
16.05261047940956
 30
0.0
 10
-60.07283875180948
 20
16.03496197532321
 30
0.0
 10
-60.02236788692497
 20
16.00188314262141
 30
0.0
 10
-59.9520798171076
 20
15.94935006520603
 30
0.0
 10
-59.88864471518347
 20
15.89486868122467
 30
0.0
 10
-59.82191761222015
 20
15.82733006867374
 30
0.0
 10
-59.75203461069186
 20
15.74008646132807
 30
0.0
 10
-59.68219966995161
 20
15.62403080917013
 30
0.0
 10
-59.59565613502984
 20
15.40036391812911
 30
0.0
 10
-59.59182348845217
 20
15.19928211424978
 30
0.0
 10
-59.62674840252284
 20
15.0632292335422
 30
0.0
  0
ARC
  5
261
330
1F
100
AcDbEntity
  8
0
  6
Continuous
 62
     7
370
    25
100
AcDbCircle
 10
0.0
 20
0.0
 30
0.0
 40
61.50000000000001
100
AcDbArc
 50
165.8222701194
 51
166.0527298806
  0
SPLINE
  5
262
330
1F
100
AcDbEntity
  8
0
  6
Continuous
 62
     7
370
    25
100
AcDbSpline
210
0.0
220
0.0
230
1.0
 70
     8
 71
     3
 72
    15
 73
    11
 74
     0
 42
0.000000001
 43
0.00000001
 40
0.0
 40
0.0
 40
0.0
 40
0.0
 40
0.3552515754295372
 40
0.4935702445626868
 40
0.6057601974546927
 40
0.6982518691142436
 40
0.7770611462266198
 40
0.846760723706883
 40
0.910601845145287
 40
1.0
 40
1.0
 40
1.0
 40
1.0
 10
-59.68685444688766
 20
14.82327245368069
 30
0.0
 10
-59.72018830651453
 20
14.68682103458198
 30
0.0
 10
-59.81835770521393
 20
14.51128941295741
 30
0.0
 10
-60.00011813152604
 20
14.35482916557315
 30
0.0
 10
-60.11641530647687
 20
14.28539718126865
 30
0.0
 10
-60.21917296335282
 20
14.24139780765208
 30
0.0
 10
-60.30985849593081
 20
14.2132890076736
 30
0.0
 10
-60.39148560785036
 20
14.19514381667657
 30
0.0
 10
-60.47823807252133
 20
14.181947345372
 30
0.0
 10
-60.5383426552867
 20
14.1765662204238
 30
0.0
 10
-60.57349811837509
 20
14.17534577870369
 30
0.0
  0
LINE
  5
263
330
1F
100
AcDbEntity
  8
0
  6
Continuous
 62
     7
370
    25
100
AcDbLine
 10
-60.5734981184
 20
14.1753457787
 30
0.0
 11
-60.6078434538
 21
14.1735637359
 31
0.0
  0
SPLINE
  5
264
330
1F
100
AcDbEntity
  8
0
  6
Continuous
 62
     7
370
    25
100
AcDbSpline
210
0.0
220
0.0
230
1.0
 70
     8
 71
     3
 72
    14
 73
    10
 74
     0
 42
0.000000001
 43
0.00000001
 40
0.0
 40
0.0
 40
0.0
 40
0.0
 40
0.1491727089896281
 40
0.2332891805152238
 40
0.3237590634114546
 40
0.4205823576877865
 40
0.5237590633519522
 40
0.6332891804103242
 40
0.6859737861529428
 40
0.6859737861529428
 40
0.6859737861529428
 40
0.6859737861529428
 10
-60.60784345377657
 20
14.1735637359306
 30
0.0
 10
-60.89806707447978
 20
14.16455388028514
 30
0.0
 10
-61.35152031102496
 20
14.13831651112922
 30
0.0
 10
-61.97899355186181
 20
14.07947679872698
 30
0.0
 10
-62.50362467122791
 20
14.01711654570872
 30
0.0
 10
-63.06327041130215
 20
13.93647051382596
 30
0.0
 10
-63.6573237799864
 20
13.83576295831916
 30
0.0
 10
-64.16436634998887
 20
13.73680510293759
 30
0.0
 10
-64.47313637754407
 20
13.67079774533948
 30
0.0
 10
-64.57329520998022
 20
13.64879283032412
 30
0.0
  0
ARC
  5
265
330
1F
100
AcDbEntity
  8
0
  6
Continuous
 62
     7
370
    25
100
AcDbCircle
 10
0.0
 20
0.0
 30
0.0
 40
66.00000000000001
100
AcDbArc
 50
168.0651166925
 51
169.4348833075
  0
SPLINE
  5
266
330
1F
100
AcDbEntity
  8
0
  6
Continuous
 62
     7
370
    25
100
AcDbSpline
210
0.0
220
0.0
230
1.0
 70
     8
 71
     3
 72
    14
 73
    10
 74
     0
 42
0.000000001
 43
0.00000001
 40
0.3140262138470591
 40
0.3140262138470591
 40
0.3140262138470591
 40
0.3140262138470591
 40
0.3667108195896758
 40
0.4762409366480478
 40
0.5794176423122134
 40
0.6762409365885453
 40
0.7667108194847762
 40
0.8508272910103719
 40
1.0
 40
1.0
 40
1.0
 40
1.0
 10
-64.88111267925802
 20
12.10128991065755
 30
0.0
 10
-64.79699890037703
 20
12.04263089428186
 30
0.0
 10
-64.53699251383286
 20
11.86348687364554
 30
0.0
 10
-64.10641579305253
 20
11.57802494543352
 30
0.0
 10
-63.59612115751224
 20
11.2576489139954
 30
0.0
 10
-63.10993781308806
 20
10.96897454304054
 30
0.0
 10
-62.64910609545537
 20
10.71059354415017
 30
0.0
 10
-62.09191339414922
 20
10.4161091246422
 30
0.0
 10
-61.6830178364389
 20
10.21833991531391
 30
0.0
 10
-61.41833409590342
 20
10.09895212276806
 30
0.0
  0
LINE
  5
267
330
1F
100
AcDbEntity
  8
0
  6
Continuous
 62
     7
370
    25
100
AcDbLine
 10
-61.4183340959
 20
10.0989521228
 30
0.0
 11
-61.3872851017
 21
10.0841623391
 31
0.0
  0
SPLINE
  5
268
330
1F
100
AcDbEntity
  8
0
  6
Continuous
 62
     7
370
    25
100
AcDbSpline
210
0.0
220
0.0
230
1.0
 70
     8
 71
     3
 72
    15
 73
    11
 74
     0
 42
0.000000001
 43
0.00000001
 40
0.0
 40
0.0
 40
0.0
 40
0.0
 40
0.089398154854713
 40
0.153239276293117
 40
0.2229388537733802
 40
0.3017481308857564
 40
0.3942398025453073
 40
0.5064297554373132
 40
0.6447484245704628
 40
1.0
 40
1.0
 40
1.0
 40
1.0
 10
-61.38728510173379
 20
10.08416233908678
 30
0.0
 10
-61.35527273175692
 20
10.06958138467989
 30
0.0
 10
-61.30180260529504
 20
10.04160884544485
 30
0.0
 10
-61.22670384972456
 20
9.996218164758764
 30
0.0
 10
-61.15823409569573
 20
9.948216850819671
 30
0.0
 10
-61.08520836030748
 20
9.887543854963292
 30
0.0
 10
-61.00711049562846
 20
9.807570081400542
 30
0.0
 10
-60.92623638607209
 20
9.69891829011543
 30
0.0
 10
-60.81818639287948
 20
9.484811166096188
 30
0.0
 10
-60.79466273815409
 20
9.28507329112123
 30
0.0
 10
-60.81608396491701
 20
9.146252302017826
 30
0.0
  0
ARC
  5
269
330
1F
100
AcDbEntity
  8
0
  6
Continuous
 62
     7
370
    25
100
AcDbCircle
 10
0.0
 20
0.0
 30
0.0
 40
61.50000000000001
100
AcDbArc
 50
171.4472701194
 51
171.6777298806
  0
SPLINE
  5
26A
330
1F
100
AcDbEntity
  8
0
  6
Continuous
 62
     7
370
    25
100
AcDbSpline
210
0.0
220
0.0
230
1.0
 70
     8
 71
     3
 72
    15
 73
    11
 74
     0
 42
0.000000001
 43
0.00000001
 40
0.0
 40
0.0
 40
0.0
 40
0.0
 40
0.3552515754295372
 40
0.4935702445626868
 40
0.6057601974546927
 40
0.6982518691142436
 40
0.7770611462266198
 40
0.846760723706883
 40
0.910601845145287
 40
1.0
 40
1.0
 40
1.0
 40
1.0
 10
-60.85238070488481
 20
8.901559557053098
 30
0.0
 10
-60.87217947497255
 20
8.762497899236543
 30
0.0
 10
-60.95267105359572
 20
8.578189226619376
 30
0.0
 10
-61.11822046775111
 20
8.40466674087901
 30
0.0
 10
-61.22715211546835
 20
8.324169974039544
 30
0.0
 10
-61.32510227336174
 20
8.270310457759248
 30
0.0
 10
-61.4125959861215
 20
8.233448272763017
 30
0.0
 10
-61.49205150145394
 20
8.207389599736507
 30
0.0
 10
-61.57709274891594
 20
8.18575344454464
 30
0.0
 10
-61.63638046920786
 20
8.174506951860517
 30
0.0
 10
-61.67124702492518
 20
8.169846548941981
 30
0.0
  0
LINE
  5
26B
330
1F
100
AcDbEntity
  8
0
  6
Continuous
 62
     7
370
    25
100
AcDbLine
 10
-61.6712470249
 20
8.1698465489
 30
0.0
 11
-61.7052523074
 21
8.1647066556
 31
0.0
  0
SPLINE
  5
26C
330
1F
100
AcDbEntity
  8
0
  6
Continuous
 62
     7
370
    25
100
AcDbSpline
210
0.0
220
0.0
230
1.0
 70
     8
 71
     3
 72
    14
 73
    10
 74
     0
 42
0.000000001
 43
0.00000001
 40
0.0
 40
0.0
 40
0.0
 40
0.0
 40
0.1491727089896281
 40
0.2332891805152238
 40
0.3237590634114546
 40
0.4205823576877865
 40
0.5237590633519522
 40
0.6332891804103242
 40
0.6859737861534567
 40
0.6859737861534567
 40
0.6859737861534567
 40
0.6859737861534567
 10
-61.7052523074126
 20
8.164706655632216
 30
0.0
 10
-61.9931953017708
 20
8.127293295546915
 30
0.0
 10
-62.4418933251462
 20
8.056736076975545
 30
0.0
 10
-63.06057781047505
 20
7.936676561170895
 30
0.0
 10
-63.57657031393406
 20
7.82319374776755
 30
0.0
 10
-64.12561651337901
 20
7.688081173531409
 30
0.0
 10
-64.70693828612139
 20
7.529631140028976
 30
0.0
 10
-65.20183974156377
 20
7.381450931031721
 30
0.0
 10
-65.50265310460931
 20
7.285496661781336
 30
0.0
 10
-65.60017278604904
 20
7.253780424111872
 30
0.0
  0
ARC
  5
26D
330
1F
100
AcDbEntity
  8
0
  6
Continuous
 62
     7
370
    25
100
AcDbCircle
 10
0.0
 20
0.0
 30
0.0
 40
66.00000000000273
100
AcDbArc
 50
173.6901166925
 51
175.0598833075
  0
SPLINE
  5
26E
330
1F
100
AcDbEntity
  8
0
  6
Continuous
 62
     7
370
    25
100
AcDbSpline
210
0.0
220
0.0
230
1.0
 70
     8
 71
     3
 72
    14
 73
    10
 74
     0
 42
0.000000001
 43
0.00000001
 40
0.3140262138470569
 40
0.3140262138470569
 40
0.3140262138470569
 40
0.3140262138470569
 40
0.3667108195896758
 40
0.4762409366480478
 40
0.5794176423122134
 40
0.6762409365885453
 40
0.7667108194847762
 40
0.8508272910103719
 40
1.0
 40
1.0
 40
1.0
 40
1.0
 10
-65.75482621923702
 20
5.683557765897906
 30
0.0
 10
-65.66536788215227
 20
5.633425800787436
 30
0.0
 10
-65.38905431281637
 20
5.480629490051996
 30
0.0
 10
-64.9325707747589
 20
5.238746037912363
 30
0.0
 10
-64.39333100493474
 20
4.96993032553447
 30
0.0
 10
-63.88119372987396
 20
4.730300301674816
 30
0.0
 10
-63.39725527629307
 20
4.518332885052327
 30
0.0
 10
-62.81388108946817
 20
4.279880923709593
 30
0.0
 10
-62.38756970328715
 20
4.123142800440276
 30
0.0
 10
-62.11245843729217
 20
4.030273436086556
 30
0.0
  0
LINE
  5
26F
330
1F
100
AcDbEntity
  8
0
  6
Continuous
 62
     7
370
    25
100
AcDbLine
 10
-62.1124584373
 20
4.0302734361
 30
0.0
 11
-62.0801093002
 21
4.0185982029
 31
0.0
  0
SPLINE
  5
270
330
1F
100
AcDbEntity
  8
0
  6
Continuous
 62
     7
370
    25
100
AcDbSpline
210
0.0
220
0.0
230
1.0
 70
     8
 71
     3
 72
    15
 73
    11
 74
     0
 42
0.000000001
 43
0.00000001
 40
0.0
 40
0.0
 40
0.0
 40
0.0
 40
0.089398154854713
 40
0.153239276293117
 40
0.2229388537733802
 40
0.3017481308857564
 40
0.3942398025453073
 40
0.5064297554373132
 40
0.6447484245704628
 40
1.0
 40
1.0
 40
1.0
 40
1.0
 10
-62.08010930021349
 20
4.018598202874775
 30
0.0
 10
-62.04682189509369
 20
4.007225220709042
 30
0.0
 10
-61.99086745360203
 20
3.98462836578494
 30
0.0
 10
-61.91168125434773
 20
3.946817218896218
 30
0.0
 10
-61.83883624937487
 20
3.90575825389281
 30
0.0
 10
-61.7602151593134
 20
3.852535188848317
 30
0.0
 10
-61.67465455661315
 20
3.78060144022601
 30
0.0
 10
-61.58352014012598
 20
3.680399885958905
 30
0.0
 10
-61.45500426916311
 20
3.477914497608615
 30
0.0
 10
-61.41201615194434
 20
3.281444136461857
 30
0.0
 10
-61.41972739327574
 20
3.14119196097497
 30
0.0
  0
ARC
  5
271
330
1F
100
AcDbEntity
  8
0
  6
Continuous
 62
     7
370
    25
100
AcDbCircle
 10
0.0
 20
0.0
 30
0.0
 40
61.50000000000001
100
AcDbArc
 50
177.0722701194
 51
177.3027298806
  0
SPLINE
  5
272
330
1F
100
AcDbEntity
  8
0
  6
Continuous
 62
     7
370
    25
100
AcDbSpline
210
0.0
220
0.0
230
1.0
 70
     8
 71
     3
 72
    15
 73
    11
 74
     0
 42
0.000000001
 43
0.00000001
 40
0.0
 40
0.0
 40
0.0
 40
0.0
 40
0.3552515754295372
 40
0.4935702445626868
 40
0.6057601974546927
 40
0.6982518691142436
 40
0.7770611462266198
 40
0.846760723706883
 40
0.910601845145287
 40
1.0
 40
1.0
 40
1.0
 40
1.0
 10
-61.43186527139888
 20
2.894119775803595
 30
0.0
 10
-61.43793827896842
 20
2.753787119052801
 30
0.0
 10
-61.49997685961207
 20
2.562476388713714
 30
0.0
 10
-61.64772093025388
 20
2.373562781011964
 30
0.0
 10
-61.74823797942194
 20
2.282776459506202
 30
0.0
 10
-61.84043732476724
 20
2.219575497146561
 30
0.0
 10
-61.92389660542598
 20
2.174314930125018
 30
0.0
 10
-62.00041532412385
 20
2.140593734335392
 30
0.0
 10
-62.08292636067555
 20
2.110726263258254
 30
0.0
 10
-62.14082624533764
 20
2.093722712710713
 30
0.0
 10
-62.17506810969233
 20
2.085667230821495
 30
0.0
  0
LINE
  5
273
330
1F
100
AcDbEntity
  8
0
  6
Continuous
 62
     7
370
    25
100
AcDbLine
 10
-62.1750681097
 20
2.0856672308
 30
0.0
 11
-62.2084058498
 21
2.077218987
 31
0.0
  0
SPLINE
  5
274
330
1F
100
AcDbEntity
  8
0
  6
Continuous
 62
     7
370
    25
100
AcDbSpline
210
0.0
220
0.0
230
1.0
 70
     8
 71
     3
 72
    14
 73
    10
 74
     0
 42
0.000000001
 43
0.00000001
 40
0.0
 40
0.0
 40
0.0
 40
0.0
 40
0.1491727089896281
 40
0.2332891805152238
 40
0.3237590634114546
 40
0.4205823576877865
 40
0.5237590633519522
 40
0.6332891804103242
 40
0.685973786152944
 40
0.685973786152944
 40
0.685973786152944
 40
0.685973786152944
 10
-62.20840584980615
 20
2.077218986957375
 30
0.0
 10
-62.49129516937801
 20
2.011762433542074
 30
0.0
 10
-62.93091677233524
 20
1.897564870140591
 30
0.0
 10
-63.53485423235504
 20
1.717441789701945
 30
0.0
 10
-64.03723883002844
 20
1.553929317442603
 30
0.0
 10
-64.5703978738043
 20
1.365651408803022
 30
0.0
 10
-65.13338960415048
 20
1.150984857745184
 30
0.0
 10
-65.61138377347432
 20
0.9550093515489988
 30
0.0
 10
-65.9013434748809
 20
0.8300322627137939
 30
0.0
 10
-65.99528483748037
 20
0.788910147097477
 30
0.0
  0
ARC
  5
275
330
1F
100
AcDbEntity
  8
0
  6
Continuous
 62
     7
370
    25
100
AcDbCircle
 10
0.0
 20
0.0
 30
0.0
 40
66.0
100
AcDbArc
 50
179.3151166925
 51
180.6848833075
  0
SPLINE
  5
276
330
1F
100
AcDbEntity
  8
0
  6
Continuous
 62
     7
370
    25
100
AcDbSpline
210
0.0
220
0.0
230
1.0
 70
     8
 71
     3
 72
    14
 73
    10
 74
     0
 42
0.000000001
 43
0.00000001
 40
0.314026213847057
 40
0.314026213847057
 40
0.314026213847057
 40
0.314026213847057
 40
0.3667108195896758
 40
0.4762409366480478
 40
0.5794176423122134
 40
0.6762409365885453
 40
0.7667108194847762
 40
0.8508272910103719
 40
1.0
 40
1.0
 40
1.0
 40
1.0
 10
-65.99528483748038
 20
-0.788910147096113
 30
0.0
 10
-65.90134347488092
 20
-0.830032262712431
 30
0.0
 10
-65.61138377347434
 20
-0.9550093515476414
 30
0.0
 10
-65.13338960415051
 20
-1.150984857743836
 30
0.0
 10
-64.57039787380432
 20
-1.365651408801685
 30
0.0
 10
-64.03723883002849
 20
-1.553929317441277
 30
0.0
 10
-63.53485423235504
 20
-1.717441789700629
 30
0.0
 10
-62.93091677233529
 20
-1.897564870139288
 30
0.0
 10
-62.49129516937802
 20
-2.011762433540782
 30
0.0
 10
-62.20840584980619
 20
-2.077218986956087
 30
0.0
  0
LINE
  5
277
330
1F
100
AcDbEntity
  8
0
  6
Continuous
 62
     7
370
    25
100
AcDbLine
 10
-62.2084058498
 20
-2.077218987
 30
0.0
 11
-62.1750681097
 21
-2.0856672308
 31
0.0
  0
SPLINE
  5
278
330
1F
100
AcDbEntity
  8
0
  6
Continuous
 62
     7
370
    25
100
AcDbSpline
210
0.0
220
0.0
230
1.0
 70
     8
 71
     3
 72
    15
 73
    11
 74
     0
 42
0.000000001
 43
0.00000001
 40
0.0
 40
0.0
 40
0.0
 40
0.0
 40
0.089398154854713
 40
0.153239276293117
 40
0.2229388537733802
 40
0.3017481308857564
 40
0.3942398025453073
 40
0.5064297554373132
 40
0.6447484245704628
 40
1.0
 40
1.0
 40
1.0
 40
1.0
 10
-62.17506810969237
 20
-2.085667230820206
 30
0.0
 10
-62.14082624533769
 20
-2.093722712709424
 30
0.0
 10
-62.08292636067561
 20
-2.110726263256968
 30
0.0
 10
-62.00041532412389
 20
-2.140593734334109
 30
0.0
 10
-61.92389660542602
 20
-2.174314930123736
 30
0.0
 10
-61.84043732476729
 20
-2.219575497145279
 30
0.0
 10
-61.74823797942198
 20
-2.282776459504923
 30
0.0
 10
-61.64772093025395
 20
-2.373562781010687
 30
0.0
 10
-61.4999768596121
 20
-2.56247638871244
 30
0.0
 10
-61.43793827896847
 20
-2.753787119051529
 30
0.0
 10
-61.43186527139893
 20
-2.894119775802322
 30
0.0
  0
ARC
  5
279
330
1F
100
AcDbEntity
  8
0
  6
Continuous
 62
     7
370
    25
100
AcDbCircle
 10
0.0
 20
0.0
 30
0.0
 40
61.50000000000001
100
AcDbArc
 50
182.6972701194
 51
182.9277298806
  0
SPLINE
  5
27A
330
1F
100
AcDbEntity
  8
0
  6
Continuous
 62
     7
370
    25
100
AcDbSpline
210
0.0
220
0.0
230
1.0
 70
     8
 71
     3
 72
    15
 73
    11
 74
     0
 42
0.000000001
 43
0.00000001
 40
0.0
 40
0.0
 40
0.0
 40
0.0
 40
0.3552515754295372
 40
0.4935702445626868
 40
0.6057601974546927
 40
0.6982518691142436
 40
0.7770611462266198
 40
0.846760723706883
 40
0.910601845145287
 40
1.0
 40
1.0
 40
1.0
 40
1.0
 10
-61.41972739327582
 20
-3.141191960973699
 30
0.0
 10
-61.41201615194443
 20
-3.281444136460586
 30
0.0
 10
-61.45500426916321
 20
-3.477914497607345
 30
0.0
 10
-61.58352014012607
 20
-3.68039988595763
 30
0.0
 10
-61.67465455661323
 20
-3.780601440224734
 30
0.0
 10
-61.76021515931349
 20
-3.852535188847038
 30
0.0
 10
-61.83883624937496
 20
-3.905758253891532
 30
0.0
 10
-61.91168125434783
 20
-3.946817218894937
 30
0.0
 10
-61.99086745360211
 20
-3.984628365783656
 30
0.0
 10
-62.04682189509379
 20
-4.007225220707756
 30
0.0
 10
-62.08010930021359
 20
-4.018598202873489
 30
0.0
  0
LINE
  5
27B
330
1F
100
AcDbEntity
  8
0
  6
Continuous
 62
     7
370
    25
100
AcDbLine
 10
-62.0801093002
 20
-4.0185982029
 30
0.0
 11
-62.1124584373
 21
-4.0302734361
 31
0.0
  0
MTEXT
  5
27D
330
1F
100
AcDbEntity
  8
0
  6
Continuous
 62
     7
100
AcDbMText
 10
-66.0
 20
-67.0195663917
 30
0.0
 40
4.83362
 41
0.0
 71
     1
 72
     1
  1
SOLIDWORKS Educational Product.
  7
SLDTEXTSTYLE0
 73
     1
 44
1.0
  0
MTEXT
  5
27E
330
1F
100
AcDbEntity
  8
0
  6
Continuous
 62
     7
100
AcDbMText
 10
-66.0
 20
-74.2699963917
 30
0.0
 40
4.83362
 41
0.0
 71
     1
 72
     1
  1
For Instructional Use Only.
  7
SLDTEXTSTYLE0
 73
     1
 44
1.0
  0
ENDSEC
  0
SECTION
  2
OBJECTS
  0
DICTIONARY
  5
C
330
0
100
AcDbDictionary
281
     1
  3
ACAD_GROUP
350
D
  3
ACAD_LAYOUT
350
1A
  3
ACAD_MLINESTYLE
350
17
  3
ACAD_PLOTSETTINGS
350
19
  3
ACAD_PLOTSTYLENAME
350
E
  3
ACAD_SCALELIST
350
47
  0
DICTIONARY
  5
D
102
{ACAD_REACTORS
330
C
102
}
330
C
100
AcDbDictionary
281
     1
  0
DICTIONARY
  5
1A
102
{ACAD_REACTORS
330
C
102
}
330
C
100
AcDbDictionary
281
     1
  3
Layout1
350
1E
  3
Layout2
350
26
  3
Model
350
22
  0
DICTIONARY
  5
17
102
{ACAD_REACTORS
330
C
102
}
330
C
100
AcDbDictionary
281
     1
  3
Standard
350
18
  0
DICTIONARY
  5
19
102
{ACAD_REACTORS
330
C
102
}
330
C
100
AcDbDictionary
281
     1
  0
ACDBDICTIONARYWDFLT
  5
E
102
{ACAD_REACTORS
330
C
102
}
330
C
100
AcDbDictionary
281
     1
  3
Normal
350
F
100
AcDbDictionaryWithDefault
340
F
  0
DICTIONARY
  5
47
102
{ACAD_REACTORS
330
C
102
}
330
C
100
AcDbDictionary
281
     1
  3
A0
350
48
  3
A1
350
49
  3
A2
350
4A
  3
A3
350
4B
  3
A4
350
4C
  3
A5
350
4D
  3
A6
350
4E
  3
A7
350
4F
  3
A8
350
50
  3
A9
350
51
  3
B0
350
52
  3
B1
350
53
  3
B2
350
54
  3
B3
350
55
  3
B4
350
56
  3
B5
350
57
  3
B6
350
58
  3
B7
350
59
  3
B8
350
5A
  3
B9
350
5B
  3
C0
350
5C
  3
C1
350
5D
  3
C2
350
5E
  3
C3
350
5F
  3
C4
350
60
  3
C5
350
61
  3
C6
350
62
  3
C7
350
63
  3
C8
350
64
  3
C9
350
65
  3
D0
350
66
  3
D1
350
67
  3
D2
350
68
  0
LAYOUT
  5
1E
102
{ACAD_REACTORS
330
1A
102
}
330
1A
100
AcDbPlotSettings
  1

  2
none_device
  4

  6

 40
0.0
 41
0.0
 42
0.0
 43
0.0
 44
0.0
 45
0.0
 46
0.0
 47
0.0
 48
0.0
 49
0.0
140
0.0
141
0.0
142
1.0
143
1.0
 70
   688
 72
     1
 73
     0
 74
     5
  7

 75
    16
147
1.0
148
0.0
149
0.0
100
AcDbLayout
  1
Layout1
 70
     1
 71
     1
 10
0.0
 20
0.0
 11
420.0
 21
297.0
 12
0.0
 22
0.0
 32
0.0
 14
1.0000000000E+20
 24
1.0000000000E+20
 34
1.0000000000E+20
 15
-1.0000000000E+20
 25
-1.0000000000E+20
 35
-1.0000000000E+20
146
0.0
 13
0.0
 23
0.0
 33
0.0
 16
1.0
 26
0.0
 36
0.0
 17
0.0
 27
1.0
 37
0.0
 76
     0
330
1B
  0
LAYOUT
  5
26
102
{ACAD_REACTORS
330
1A
102
}
330
1A
100
AcDbPlotSettings
  1

  2
none_device
  4

  6

 40
0.0
 41
0.0
 42
0.0
 43
0.0
 44
0.0
 45
0.0
 46
0.0
 47
0.0
 48
0.0
 49
0.0
140
0.0
141
0.0
142
1.0
143
1.0
 70
   688
 72
     1
 73
     0
 74
     5
  7

 75
    16
147
1.0
148
0.0
149
0.0
100
AcDbLayout
  1
Layout2
 70
     1
 71
     2
 10
0.0
 20
0.0
 11
0.0
 21
0.0
 12
0.0
 22
0.0
 32
0.0
 14
0.0
 24
0.0
 34
0.0
 15
0.0
 25
0.0
 35
0.0
146
0.0
 13
0.0
 23
0.0
 33
0.0
 16
1.0
 26
0.0
 36
0.0
 17
0.0
 27
1.0
 37
0.0
 76
     0
330
23
  0
LAYOUT
  5
22
102
{ACAD_REACTORS
330
1A
102
}
330
1A
100
AcDbPlotSettings
  1

  2
none_device
  4
ANSI_A_(11.00_x_8.50_Inches)
  6

 40
6.35
 41
19.05
 42
6.35000508
 43
19.05000254
 44
279.4
 45
215.9
 46
133.34999746
 47
88.89999873
 48
0.0
 49
0.0
140
0.0
141
0.0
142
0.06375
143
1.0
 70
  1696
 72
     0
 73
     0
 74
     0
  7

 75
     0
147
0.0179189148
148
-1300.4909072572
149
0.0
100
AcDbLayout
  1
Model
 70
     1
 71
     0
 10
0.0
 20
0.0
 11
420.0
 21
297.0
 12
0.0
 22
0.0
 32
0.0
 14
-66.0
 24
-66.0
 34
0.0
 15
66.0
 25
66.0
 35
0.0
146
0.0
 13
0.0
 23
0.0
 33
0.0
 16
1.0
 26
0.0
 36
0.0
 17
0.0
 27
1.0
 37
0.0
 76
     0
330
1F
331
29
  0
MLINESTYLE
  5
18
102
{ACAD_REACTORS
330
17
102
}
330
17
100
AcDbMlineStyle
  2
Standard
 70
     0
  3

 62
   256
 51
90.0
 52
90.0
 71
     2
 49
0.5
 62
   256
  6
BYLAYER
 49
-0.5
 62
   256
  6
BYLAYER
  0
ACDBPLACEHOLDER
  5
F
102
{ACAD_REACTORS
330
E
102
}
330
E
  0
SCALE
  5
48
102
{ACAD_REACTORS
330
47
102
}
330
47
100
AcDbScale
 70
     0
300
1:1
140
1.0
141
1.0
290
     1
  0
SCALE
  5
49
102
{ACAD_REACTORS
330
47
102
}
330
47
100
AcDbScale
 70
     0
300
1:2
140
1.0
141
2.0
290
     0
  0
SCALE
  5
4A
102
{ACAD_REACTORS
330
47
102
}
330
47
100
AcDbScale
 70
     0
300
1:4
140
1.0
141
4.0
290
     0
  0
SCALE
  5
4B
102
{ACAD_REACTORS
330
47
102
}
330
47
100
AcDbScale
 70
     0
300
1:5
140
1.0
141
5.0
290
     0
  0
SCALE
  5
4C
102
{ACAD_REACTORS
330
47
102
}
330
47
100
AcDbScale
 70
     0
300
1:8
140
1.0
141
8.0
290
     0
  0
SCALE
  5
4D
102
{ACAD_REACTORS
330
47
102
}
330
47
100
AcDbScale
 70
     0
300
1:10
140
1.0
141
10.0
290
     0
  0
SCALE
  5
4E
102
{ACAD_REACTORS
330
47
102
}
330
47
100
AcDbScale
 70
     0
300
1:16
140
1.0
141
16.0
290
     0
  0
SCALE
  5
4F
102
{ACAD_REACTORS
330
47
102
}
330
47
100
AcDbScale
 70
     0
300
1:20
140
1.0
141
20.0
290
     0
  0
SCALE
  5
50
102
{ACAD_REACTORS
330
47
102
}
330
47
100
AcDbScale
 70
     0
300
1:30
140
1.0
141
30.0
290
     0
  0
SCALE
  5
51
102
{ACAD_REACTORS
330
47
102
}
330
47
100
AcDbScale
 70
     0
300
1:40
140
1.0
141
40.0
290
     0
  0
SCALE
  5
52
102
{ACAD_REACTORS
330
47
102
}
330
47
100
AcDbScale
 70
     0
300
1:50
140
1.0
141
50.0
290
     0
  0
SCALE
  5
53
102
{ACAD_REACTORS
330
47
102
}
330
47
100
AcDbScale
 70
     0
300
1:100
140
1.0
141
100.0
290
     0
  0
SCALE
  5
54
102
{ACAD_REACTORS
330
47
102
}
330
47
100
AcDbScale
 70
     0
300
2:1
140
2.0
141
1.0
290
     0
  0
SCALE
  5
55
102
{ACAD_REACTORS
330
47
102
}
330
47
100
AcDbScale
 70
     0
300
4:1
140
4.0
141
1.0
290
     0
  0
SCALE
  5
56
102
{ACAD_REACTORS
330
47
102
}
330
47
100
AcDbScale
 70
     0
300
8:1
140
8.0
141
1.0
290
     0
  0
SCALE
  5
57
102
{ACAD_REACTORS
330
47
102
}
330
47
100
AcDbScale
 70
     0
300
10:1
140
10.0
141
1.0
290
     0
  0
SCALE
  5
58
102
{ACAD_REACTORS
330
47
102
}
330
47
100
AcDbScale
 70
     0
300
100:1
140
100.0
141
1.0
290
     0
  0
SCALE
  5
59
102
{ACAD_REACTORS
330
47
102
}
330
47
100
AcDbScale
 70
     0
300
1/128" = 1'-0"
140
0.0078125
141
12.0
290
     0
  0
SCALE
  5
5A
102
{ACAD_REACTORS
330
47
102
}
330
47
100
AcDbScale
 70
     0
300
1/64" = 1'-0"
140
0.015625
141
12.0
290
     0
  0
SCALE
  5
5B
102
{ACAD_REACTORS
330
47
102
}
330
47
100
AcDbScale
 70
     0
300
1/32" = 1'-0"
140
0.03125
141
12.0
290
     0
  0
SCALE
  5
5C
102
{ACAD_REACTORS
330
47
102
}
330
47
100
AcDbScale
 70
     0
300
1/16" = 1'-0"
140
0.0625
141
12.0
290
     0
  0
SCALE
  5
5D
102
{ACAD_REACTORS
330
47
102
}
330
47
100
AcDbScale
 70
     0
300
3/32" = 1'-0"
140
0.09375
141
12.0
290
     0
  0
SCALE
  5
5E
102
{ACAD_REACTORS
330
47
102
}
330
47
100
AcDbScale
 70
     0
300
1/8" = 1'-0"
140
0.125
141
12.0
290
     0
  0
SCALE
  5
5F
102
{ACAD_REACTORS
330
47
102
}
330
47
100
AcDbScale
 70
     0
300
3/16" = 1'-0"
140
0.1875
141
12.0
290
     0
  0
SCALE
  5
60
102
{ACAD_REACTORS
330
47
102
}
330
47
100
AcDbScale
 70
     0
300
1/4" = 1'-0"
140
0.25
141
12.0
290
     0
  0
SCALE
  5
61
102
{ACAD_REACTORS
330
47
102
}
330
47
100
AcDbScale
 70
     0
300
3/8" = 1'-0"
140
0.375
141
12.0
290
     0
  0
SCALE
  5
62
102
{ACAD_REACTORS
330
47
102
}
330
47
100
AcDbScale
 70
     0
300
1/2" = 1'-0"
140
0.5
141
12.0
290
     0
  0
SCALE
  5
63
102
{ACAD_REACTORS
330
47
102
}
330
47
100
AcDbScale
 70
     0
300
3/4" = 1'-0"
140
0.75
141
12.0
290
     0
  0
SCALE
  5
64
102
{ACAD_REACTORS
330
47
102
}
330
47
100
AcDbScale
 70
     0
300
1" = 1'-0"
140
1.0
141
12.0
290
     0
  0
SCALE
  5
65
102
{ACAD_REACTORS
330
47
102
}
330
47
100
AcDbScale
 70
     0
300
1-1/2" = 1'-0"
140
1.5
141
12.0
290
     0
  0
SCALE
  5
66
102
{ACAD_REACTORS
330
47
102
}
330
47
100
AcDbScale
 70
     0
300
3" = 1'-0"
140
3.0
141
12.0
290
     0
  0
SCALE
  5
67
102
{ACAD_REACTORS
330
47
102
}
330
47
100
AcDbScale
 70
     0
300
6" = 1'-0"
140
6.0
141
12.0
290
     0
  0
SCALE
  5
68
102
{ACAD_REACTORS
330
47
102
}
330
47
100
AcDbScale
 70
     0
300
1'-0" = 1'-0"
140
12.0
141
12.0
290
     0
  0
ENDSEC
  0
EOF
