  0
SECTION
  2
HEADER
  9
$ACADVER
  1
AC1015
  9
$ACADMAINTVER
 70
     6
  9
$DWGCODEPAGE
  3
ANSI_1252
  9
$INSBASE
 10
0.0
 20
0.0
 30
0.0
  9
$EXTMIN
 10
-15.7298426157
 20
-16.0
 30
0.0
  9
$EXTMAX
 10
15.7298426157
 20
16.0
 30
0.0
  9
$LIMMIN
 10
0.0
 20
0.0
  9
$LIMMAX
 10
420.0
 20
297.0
  9
$ORTHOMODE
 70
     0
  9
$REGENMODE
 70
     1
  9
$FILLMODE
 70
     1
  9
$QTEXTMODE
 70
     0
  9
$MIRRTEXT
 70
     1
  9
$LTSCALE
 40
1.0
  9
$ATTMODE
 70
     1
  9
$TEXTSIZE
 40
3.5
  9
$TRACEWID
 40
1.0
  9
$TEXTSTYLE
  7
Standard
  9
$CLAYER
  8
0
  9
$CELTYPE
  6
ByLayer
  9
$CECOLOR
 62
   256
  9
$CELTSCALE
 40
1.0
  9
$DISPSILH
 70
     0
  9
$DIMSCALE
 40
1.0
  9
$DIMASZ
 40
6.0
  9
$DIMEXO
 40
1.0
  9
$DIMDLI
 40
3.75
  9
$DIMRND
 40
0.0
  9
$DIMDLE
 40
0.0
  9
$DIMEXE
 40
1.0
  9
$DIMTP
 40
0.0
  9
$DIMTM
 40
0.0
  9
$DIMTXT
 40
3.5
  9
$DIMCEN
 40
2.5
  9
$DIMTSZ
 40
0.0
  9
$DIMTOL
 70
     0
  9
$DIMLIM
 70
     0
  9
$DIMTIH
 70
     1
  9
$DIMTOH
 70
     1
  9
$DIMSE1
 70
     0
  9
$DIMSE2
 70
     0
  9
$DIMTAD
 70
     1
  9
$DIMZIN
 70
     0
  9
$DIMBLK
  1

  9
$DIMASO
 70
     1
  9
$DIMSHO
 70
     1
  9
$DIMPOST
  1

  9
$DIMAPOST
  1

  9
$DIMALT
 70
     0
  9
$DIMALTD
 70
     3
  9
$DIMALTF
 40
0.0393700787
  9
$DIMLFAC
 40
1.0
  9
$DIMTOFL
 70
     1
  9
$DIMTVP
 40
0.0
  9
$DIMTIX
 70
     0
  9
$DIMSOXD
 70
     0
  9
$DIMSAH
 70
     0
  9
$DIMBLK1
  1

  9
$DIMBLK2
  1

  9
$DIMSTYLE
  2
ISO-25
  9
$DIMCLRD
 70
     0
  9
$DIMCLRE
 70
     0
  9
$DIMCLRT
 70
     0
  9
$DIMTFAC
 40
1.0
  9
$DIMGAP
 40
1.524
  9
$DIMJUST
 70
     0
  9
$DIMSD1
 70
     0
  9
$DIMSD2
 70
     0
  9
$DIMTOLJ
 70
     0
  9
$DIMTZIN
 70
     0
  9
$DIMALTZ
 70
     0
  9
$DIMALTTZ
 70
     0
  9
$DIMUPT
 70
     0
  9
$DIMDEC
 70
     2
  9
$DIMTDEC
 70
     2
  9
$DIMALTU
 70
     2
  9
$DIMALTTD
 70
     3
  9
$DIMTXSTY
  7
Standard
  9
$DIMAUNIT
 70
     0
  9
$DIMADEC
 70
     2
  9
$DIMALTRND
 40
0.0
  9
$DIMAZIN
 70
     0
  9
$DIMDSEP
 70
    44
  9
$DIMATFIT
 70
     3
  9
$DIMFRAC
 70
     0
  9
$DIMLDRBLK
  1

  9
$DIMLUNIT
 70
     2
  9
$DIMLWD
 70
    -2
  9
$DIMLWE
 70
    -2
  9
$DIMTMOVE
 70
     0
  9
$LUNITS
 70
     2
  9
$LUPREC
 70
     2
  9
$SKETCHINC
 40
1.0
  9
$FILLETRAD
 40
10.0
  9
$AUNITS
 70
     0
  9
$AUPREC
 70
     2
  9
$MENU
  1
.
  9
$ELEVATION
 40
0.0
  9
$PELEVATION
 40
0.0
  9
$THICKNESS
 40
0.0
  9
$LIMCHECK
 70
     0
  9
$CHAMFERA
 40
0.0
  9
$CHAMFERB
 40
0.0
  9
$CHAMFERC
 40
0.0
  9
$CHAMFERD
 40
0.0
  9
$SKPOLY
 70
     0
  9
$TDCREATE
 40
2457801.688996886
  9
$TDUCREATE
 40
2457801.89733022
  9
$TDUPDATE
 40
2457801.689021447
  9
$TDUUPDATE
 40
2457801.89735478
  9
$TDINDWG
 40
0.0000000116
  9
$TDUSRTIMER
 40
0.0000000116
  9
$USRTIMER
 70
     1
  9
$ANGBASE
 50
0.0
  9
$ANGDIR
 70
     0
  9
$PDMODE
 70
     0
  9
$PDSIZE
 40
-1.0
  9
$PLINEWID
 40
0.0
  9
$SPLFRAME
 70
     0
  9
$SPLINETYPE
 70
     6
  9
$SPLINESEGS
 70
     8
  9
$HANDSEED
  5
EC
  9
$SURFTAB1
 70
     6
  9
$SURFTAB2
 70
     6
  9
$SURFTYPE
 70
     6
  9
$SURFU
 70
     6
  9
$SURFV
 70
     6
  9
$UCSBASE
  2

  9
$UCSNAME
  2

  9
$UCSORG
 10
0.0
 20
0.0
 30
0.0
  9
$UCSXDIR
 10
1.0
 20
0.0
 30
0.0
  9
$UCSYDIR
 10
0.0
 20
1.0
 30
0.0
  9
$UCSORTHOREF
  2

  9
$UCSORTHOVIEW
 70
     0
  9
$UCSORGTOP
 10
0.0
 20
0.0
 30
0.0
  9
$UCSORGBOTTOM
 10
0.0
 20
0.0
 30
0.0
  9
$UCSORGLEFT
 10
0.0
 20
0.0
 30
0.0
  9
$UCSORGRIGHT
 10
0.0
 20
0.0
 30
0.0
  9
$UCSORGFRONT
 10
0.0
 20
0.0
 30
0.0
  9
$UCSORGBACK
 10
0.0
 20
0.0
 30
0.0
  9
$PUCSBASE
  2

  9
$PUCSNAME
  2

  9
$PUCSORG
 10
0.0
 20
0.0
 30
0.0
  9
$PUCSXDIR
 10
1.0
 20
0.0
 30
0.0
  9
$PUCSYDIR
 10
0.0
 20
1.0
 30
0.0
  9
$PUCSORTHOREF
  2

  9
$PUCSORTHOVIEW
 70
     0
  9
$PUCSORGTOP
 10
0.0
 20
0.0
 30
0.0
  9
$PUCSORGBOTTOM
 10
0.0
 20
0.0
 30
0.0
  9
$PUCSORGLEFT
 10
0.0
 20
0.0
 30
0.0
  9
$PUCSORGRIGHT
 10
0.0
 20
0.0
 30
0.0
  9
$PUCSORGFRONT
 10
0.0
 20
0.0
 30
0.0
  9
$PUCSORGBACK
 10
0.0
 20
0.0
 30
0.0
  9
$USERI1
 70
     0
  9
$USERI2
 70
     0
  9
$USERI3
 70
     0
  9
$USERI4
 70
     0
  9
$USERI5
 70
     0
  9
$USERR1
 40
0.0
  9
$USERR2
 40
0.0
  9
$USERR3
 40
0.0
  9
$USERR4
 40
0.0
  9
$USERR5
 40
0.0
  9
$WORLDVIEW
 70
     1
  9
$SHADEDGE
 70
     3
  9
$SHADEDIF
 70
    70
  9
$TILEMODE
 70
     1
  9
$MAXACTVP
 70
    64
  9
$PINSBASE
 10
0.0
 20
0.0
 30
0.0
  9
$PLIMCHECK
 70
     0
  9
$PEXTMIN
 10
1.0000000000E+20
 20
1.0000000000E+20
 30
1.0000000000E+20
  9
$PEXTMAX
 10
-1.0000000000E+20
 20
-1.0000000000E+20
 30
-1.0000000000E+20
  9
$PLIMMIN
 10
0.0
 20
0.0
  9
$PLIMMAX
 10
420.0
 20
297.0
  9
$UNITMODE
 70
     0
  9
$VISRETAIN
 70
     1
  9
$PLINEGEN
 70
     0
  9
$PSLTSCALE
 70
     1
  9
$TREEDEPTH
 70
  3020
  9
$CMLSTYLE
  2
Standard
  9
$CMLJUST
 70
     0
  9
$CMLSCALE
 40
20.0
  9
$PROXYGRAPHICS
 70
     1
  9
$MEASUREMENT
 70
     1
  9
$CELWEIGHT
370
    -1
  9
$ENDCAPS
280
     0
  9
$JOINSTYLE
280
     0
  9
$LWDISPLAY
290
     1
  9
$INSUNITS
 70
     4
  9
$HYPERLINKBASE
  1

  9
$STYLESHEET
  1

  9
$XEDIT
290
     1
  9
$CEPSNTYPE
380
     0
  9
$PSTYLEMODE
290
     1
  9
$FINGERPRINTGUID
  2
{F052E62E-B7F8-40E0-978A-5AD7F9BCBF3B}
  9
$VERSIONGUID
  2
{FAEB1C32-E019-11D5-929B-00C0DF256EC4}
  9
$EXTNAMES
290
     1
  9
$PSVPSCALE
 40
0.0
  9
$OLESTARTUP
290
     0
  0
ENDSEC
  0
SECTION
  2
CLASSES
  0
CLASS
  1
ACDBDICTIONARYWDFLT
  2
AcDbDictionaryWithDefault
  3
ObjectDBX Classes
 90
        0
280
     0
281
     0
  0
CLASS
  1
VISUALSTYLE
  2
AcDbVisualStyle
  3
ObjectDBX Classes
 90
     4095
280
     0
281
     0
  0
CLASS
  1
MATERIAL
  2
AcDbMaterial
  3
ObjectDBX Classes
 90
     1153
280
     0
281
     0
  0
CLASS
  1
SCALE
  2
AcDbScale
  3
ObjectDBX Classes
 90
     1153
280
     0
281
     0
  0
CLASS
  1
TABLESTYLE
  2
AcDbTableStyle
  3
ObjectDBX Classes
 90
     4095
280
     0
281
     0
  0
CLASS
  1
MLEADERSTYLE
  2
AcDbMLeaderStyle
  3
ACDB_MLEADERSTYLE_CLASS
 90
     4095
280
     0
281
     0
  0
CLASS
  1
SUN
  2
AcDbSun
  3
SCENEOE
 90
     1153
280
     0
281
     0
  0
CLASS
  1
ACDBPLACEHOLDER
  2
AcDbPlaceHolder
  3
ObjectDBX Classes
 90
        0
280
     0
281
     0
  0
CLASS
  1
LAYOUT
  2
AcDbLayout
  3
ObjectDBX Classes
 90
        0
280
     0
281
     0
  0
ENDSEC
  0
SECTION
  2
TABLES
  0
TABLE
  2
VPORT
  5
8
330
0
100
AcDbSymbolTable
 70
     1
  0
VPORT
  5
29
330
8
100
AcDbSymbolTableRecord
100
AcDbViewportTableRecord
  2
*Active
 70
     0
 10
0.0
 20
0.0
 11
1.0
 21
1.0
 12
0.0
 22
0.0
 13
0.0
 23
0.0
 14
10.0
 24
10.0
 15
10.0
 25
10.0
 16
0.0
 26
0.0
 36
1.0
 17
0.0
 27
0.0
 37
0.0
 40
32.64
 41
0.9831151635
 42
50.0
 43
0.0
 44
0.0
 50
0.0
 51
0.0
 71
     0
 72
   100
 73
     1
 74
     3
 75
     0
 76
     0
 77
     0
 78
     0
281
     0
 65
     1
110
0.0
120
0.0
130
0.0
111
1.0
121
0.0
131
0.0
112
0.0
122
1.0
132
0.0
 79
     0
146
0.0
  0
ENDTAB
  0
TABLE
  2
LTYPE
  5
5
330
0
100
AcDbSymbolTable
 70
     6
  0
LTYPE
  5
14
330
5
100
AcDbSymbolTableRecord
100
AcDbLinetypeTableRecord
  2
ByBlock
 70
     0
  3

 72
    65
 73
     0
 40
0.0
  0
LTYPE
  5
15
330
5
100
AcDbSymbolTableRecord
100
AcDbLinetypeTableRecord
  2
ByLayer
 70
     0
  3

 72
    65
 73
     0
 40
0.0
  0
LTYPE
  5
16
330
5
100
AcDbSymbolTableRecord
100
AcDbLinetypeTableRecord
  2
Continuous
 70
     0
  3
Solid line
 72
    65
 73
     0
 40
0.0
  0
LTYPE
  5
6E
330
5
100
AcDbSymbolTableRecord
100
AcDbLinetypeTableRecord
  2
HIDDEN
 70
     0
  3
Hidden __ __ __ __ __ __ __ __ __ __ __ __ __ __
 72
    65
 73
     2
 40
1.905
 49
1.27
 74
     0
 49
-0.635
 74
     0
  0
LTYPE
  5
6F
330
5
100
AcDbSymbolTableRecord
100
AcDbLinetypeTableRecord
  2
PHANTOM
 70
     0
  3
Phantom ______  __  __  ______  __  __  ______
 72
    65
 73
     6
 40
12.7
 49
6.35
 74
     0
 49
-1.27
 74
     0
 49
1.27
 74
     0
 49
-1.27
 74
     0
 49
1.27
 74
     0
 49
-1.27
 74
     0
  0
LTYPE
  5
70
330
5
100
AcDbSymbolTableRecord
100
AcDbLinetypeTableRecord
  2
CENTER
 70
     0
  3
Center ____ _ ____ _ ____ _ ____ _ ____ _ ____
 72
    65
 73
     4
 40
10.16
 49
6.35
 74
     0
 49
-1.27
 74
     0
 49
1.27
 74
     0
 49
-1.27
 74
     0
  0
LTYPE
  5
71
330
5
100
AcDbSymbolTableRecord
100
AcDbLinetypeTableRecord
  2
CENTERX2
 70
     0
  3
Center (2x) ________  __  ________  __  _____
 72
    65
 73
     4
 40
20.32
 49
12.7
 74
     0
 49
-2.54
 74
     0
 49
2.54
 74
     0
 49
-2.54
 74
     0
  0
LTYPE
  5
72
330
5
100
AcDbSymbolTableRecord
100
AcDbLinetypeTableRecord
  2
DOT2
 70
     0
  3
Dot (.5x) ........................................
 72
    65
 73
     2
 40
0.635
 49
0.0
 74
     0
 49
-0.635
 74
     0
  0
ENDTAB
  0
TABLE
  2
LAYER
  5
2
330
0
100
AcDbSymbolTable
 70
     1
  0
LAYER
  5
10
330
2
100
AcDbSymbolTableRecord
100
AcDbLayerTableRecord
  2
0
 70
     0
 62
     7
  6
Continuous
370
    -3
390
F
  0
ENDTAB
  0
TABLE
  2
STYLE
  5
3
330
0
100
AcDbSymbolTable
 70
     2
  0
STYLE
  5
11
330
3
100
AcDbSymbolTableRecord
100
AcDbTextStyleTableRecord
  2
Standard
 70
     0
 40
0.0
 41
1.0
 50
0.0
 71
     0
 42
3.5
  3
txt
  4

  0
STYLE
  5
E9
330
3
100
AcDbSymbolTableRecord
100
AcDbTextStyleTableRecord
  2
SLDTEXTSTYLE0
 70
     0
 40
0.0
 41
0.7
 50
0.0
 71
     0
 42
3.5
  3
TXT
  4

  0
ENDTAB
  0
TABLE
  2
VIEW
  5
6
330
0
100
AcDbSymbolTable
 70
     0
  0
ENDTAB
  0
TABLE
  2
UCS
  5
7
330
0
100
AcDbSymbolTable
 70
     0
  0
ENDTAB
  0
TABLE
  2
APPID
  5
9
330
0
100
AcDbSymbolTable
 70
     1
  0
APPID
  5
12
330
9
100
AcDbSymbolTableRecord
100
AcDbRegAppTableRecord
  2
ACAD
 70
     0
  0
ENDTAB
  0
TABLE
  2
DIMSTYLE
  5
A
330
0
100
AcDbSymbolTable
 70
     1
100
AcDbDimStyleTable
  0
DIMSTYLE
105
27
330
A
100
AcDbSymbolTableRecord
100
AcDbDimStyleTableRecord
  2
ISO-25
 70
     0
 41
2.5
 42
0.625
 43
3.75
 44
1.25
 73
     0
 74
     0
 77
     1
 78
     8
140
2.5
141
2.5
143
0.0393700787
147
0.625
171
     3
172
     1
178
     0
271
     2
272
     2
274
     3
278
    44
283
     0
284
     8
340
11
  0
ENDTAB
  0
TABLE
  2
BLOCK_RECORD
  5
1
330
0
100
AcDbSymbolTable
 70
     1
  0
BLOCK_RECORD
  5
1F
330
1
100
AcDbSymbolTableRecord
100
AcDbBlockTableRecord
  2
*Model_Space
340
22
  0
BLOCK_RECORD
  5
1B
330
1
100
AcDbSymbolTableRecord
100
AcDbBlockTableRecord
  2
*Paper_Space
340
1E
  0
BLOCK_RECORD
  5
23
330
1
100
AcDbSymbolTableRecord
100
AcDbBlockTableRecord
  2
*Paper_Space0
340
26
  0
ENDTAB
  0
ENDSEC
  0
SECTION
  2
BLOCKS
  0
BLOCK
  5
20
330
1F
100
AcDbEntity
  8
0
100
AcDbBlockBegin
  2
*Model_Space
 70
     0
 10
0.0
 20
0.0
 30
0.0
  3
*Model_Space
  1

  0
ENDBLK
  5
21
330
1F
100
AcDbEntity
  8
0
100
AcDbBlockEnd
  0
BLOCK
  5
1C
330
1B
100
AcDbEntity
 67
     1
  8
0
100
AcDbBlockBegin
  2
*Paper_Space
 70
     0
 10
0.0
 20
0.0
 30
0.0
  3
*Paper_Space
  1

  0
ENDBLK
  5
1D
330
1B
100
AcDbEntity
 67
     1
  8
0
100
AcDbBlockEnd
  0
BLOCK
  5
24
330
23
100
AcDbEntity
  8
0
100
AcDbBlockBegin
  2
*Paper_Space0
 70
     0
 10
0.0
 20
0.0
 30
0.0
  3
*Paper_Space0
  1

  0
ENDBLK
  5
25
330
23
100
AcDbEntity
  8
0
100
AcDbBlockEnd
  0
ENDSEC
  0
SECTION
  2
ENTITIES
  0
ARC
  5
73
330
1F
100
AcDbEntity
  8
0
  6
Continuous
 62
     7
370
    25
100
AcDbCircle
 10
0.0
 20
0.0
 30
0.0
 40
2.4
100
AcDbArc
 50
58.8910774895
 51
301.1089225105
  0
ARC
  5
74
330
1F
100
AcDbEntity
  8
0
  6
Continuous
 62
     7
370
    25
100
AcDbCircle
 10
1.7566666667
 20
2.9110345622
 30
0.0
 40
1.0
100
AcDbArc
 50
238.8910774895
 51
313.3011793824
  0
ARC
  5
75
330
1F
100
AcDbEntity
  8
0
  6
Continuous
 62
     7
370
    25
100
AcDbCircle
 10
4.5
 20
0.0
 30
0.0
 40
3.0
100
AcDbArc
 50
226.6988206176
 51
133.3011793824
  0
ARC
  5
76
330
1F
100
AcDbEntity
  8
0
  6
Continuous
 62
     7
370
    25
100
AcDbCircle
 10
1.7566666667
 20
-2.9110345622
 30
0.0
 40
1.0
100
AcDbArc
 50
46.6988206176
 51
121.1089225105
  0
SPLINE
  5
77
330
1F
100
AcDbEntity
  8
0
  6
Continuous
 62
     7
370
    25
100
AcDbSpline
210
0.0
220
0.0
230
1.0
 70
     8
 71
     3
 72
    15
 73
    11
 74
     0
 42
0.000000001
 43
0.00000001
 40
0.0
 40
0.0
 40
0.0
 40
0.0
 40
0.0694880382082891
 40
0.1287030146703751
 40
0.2042319888026078
 40
0.2960749668664955
 40
0.4042319522901585
 40
0.5287029471537796
 40
0.6694879528143929
 40
0.7372249036494709
 40
0.7372249036494709
 40
0.7372249036494709
 40
0.7372249036494709
 10
-13.13685032458016
 20
-1.284602467026686
 30
0.0
 10
-13.2328690465181
 20
-1.30266990695463
 30
0.0
 10
-13.40711334243878
 20
-1.352304600790522
 30
0.0
 10
-13.67542232492062
 20
-1.454576440081382
 30
0.0
 10
-13.9642367049135
 20
-1.589138679629179
 30
0.0
 10
-14.30283336776097
 20
-1.777417546035066
 30
0.0
 10
-14.68463084414102
 20
-2.027210191040528
 30
0.0
 10
-15.10221618304456
 20
-2.345514003214996
 30
0.0
 10
-15.45320430733621
 20
-2.65544210521037
 30
0.0
 10
-15.66281274912592
 20
-2.860228128140817
 30
0.0
 10
-15.72984261570019
 20
-2.927806565554191
 30
0.0
  0
ARC
  5
78
330
1F
100
AcDbEntity
  8
0
  6
Continuous
 62
     7
370
    25
100
AcDbCircle
 10
0.0
 20
0.0
 30
0.0
 40
16.0
100
AcDbArc
 50
190.5438457392
 51
195.1704399751
  0
SPLINE
  5
79
330
1F
100
AcDbEntity
  8
0
  6
Continuous
 62
     7
370
    25
100
AcDbSpline
210
0.0
220
0.0
230
1.0
 70
     8
 71
     3
 72
    15
 73
    11
 74
     0
 42
0.000000001
 43
0.00000001
 40
0.2627750963505293
 40
0.2627750963505293
 40
0.2627750963505293
 40
0.2627750963505293
 40
0.3305120471856071
 40
0.4712970528462204
 40
0.5957680477098415
 40
0.7039250331335045
 40
0.7957680111973922
 40
0.8712969853296249
 40
0.9305119617917109
 40
1.0
 40
1.0
 40
1.0
 40
1.0
 10
-15.44242615382629
 20
-4.187060363025788
 30
0.0
 10
-15.35271314571459
 20
-4.218863262134937
 30
0.0
 10
-15.07500913986445
 20
-4.312423398902499
 30
0.0
 10
-14.62430700312285
 20
-4.439370930334907
 30
0.0
 10
-14.10996876487665
 20
-4.544969267394632
 30
0.0
 10
-13.65760015799548
 20
-4.604368947338139
 30
0.0
 10
-13.27084396744126
 20
-4.627090758324823
 30
0.0
 10
-12.9522468348261
 20
-4.623015283850388
 30
0.0
 10
-12.66613470659344
 20
-4.598744122556531
 30
0.0
 10
-12.48761033400787
 20
-4.567861669836571
 30
0.0
 10
-12.39326128641378
 20
-4.542478908634625
 30
0.0
  0
LINE
  5
7A
330
1F
100
AcDbEntity
  8
0
  6
Continuous
 62
     7
370
    25
100
AcDbLine
 10
-12.3932612864
 20
-4.5424789086
 30
0.0
 11
-12.3498547421
 21
-4.5280344844
 31
0.0
  0
SPLINE
  5
7B
330
1F
100
AcDbEntity
  8
0
  6
Continuous
 62
     7
370
    25
100
AcDbSpline
210
0.0
220
0.0
230
1.0
 70
     8
 71
     3
 72
    15
 73
    11
 74
     0
 42
0.000000001
 43
0.00000001
 40
0.0
 40
0.0
 40
0.0
 40
0.0
 40
0.1894753412937083
 40
0.2791606818583319
 40
0.3671413701026148
 40
0.4553218377654729
 40
0.5463602754519935
 40
0.6437450818507183
 40
0.7512810629918107
 40
0.995798476764761
 40
0.995798476764761
 40
0.995798476764761
 40
0.995798476764761
 10
-12.34985474214203
 20
-4.528034484376706
 30
0.0
 10
-12.22311189430508
 20
-4.471702372161152
 30
0.0
 10
-12.03092969520309
 20
-4.400095167621242
 30
0.0
 10
-11.76903391187442
 20
-4.337991108514951
 30
0.0
 10
-11.57597458930381
 20
-4.310747018682664
 30
0.0
 10
-11.37998263722286
 20
-4.304486859639815
 30
0.0
 10
-11.17774178396386
 20
-4.324341861014219
 30
0.0
 10
-10.96709591455673
 20
-4.379763267507887
 30
0.0
 10
-10.66909891145204
 20
-4.525503174645805
 30
0.0
 10
-10.48804271391807
 20
-4.723000509391006
 30
0.0
 10
-10.41053017339729
 20
-4.885781565807456
 30
0.0
  0
ARC
  5
7C
330
1F
100
AcDbEntity
  8
0
  6
Continuous
 62
     7
370
    25
100
AcDbCircle
 10
0.0
 20
0.0
 30
0.0
 40
11.5
100
AcDbArc
 50
205.141205408
 51
206.2873660202
  0
SPLINE
  5
7D
330
1F
100
AcDbEntity
  8
0
  6
Continuous
 62
     7
370
    25
100
AcDbSpline
210
0.0
220
0.0
230
1.0
 70
     8
 71
     3
 72
    15
 73
    11
 74
     0
 42
0.000000001
 43
0.00000001
 40
0.0042015232046852
 40
0.0042015232046852
 40
0.0042015232046852
 40
0.0042015232046852
 40
0.2487189370081893
 40
0.3562549181492819
 40
0.4536397245480067
 40
0.5446781622345273
 40
0.6328586298973853
 40
0.7208393181416681
 40
0.8105246587062918
 40
1.0
 40
1.0
 40
1.0
 40
1.0
 10
-10.31071723969574
 20
-5.093045258294066
 30
0.0
 10
-10.23177816354844
 20
-5.255139331385561
 30
0.0
 10
-10.19025522225478
 20
-5.519832340845407
 30
0.0
 10
-10.26210926702752
 20
-5.843683125400123
 30
0.0
 10
-10.35011461800713
 20
-6.042927379507936
 30
0.0
 10
-10.46068646237437
 20
-6.213425036499848
 30
0.0
 10
-10.58777983516819
 20
-6.362754569625868
 30
0.0
 10
-10.72945064108679
 20
-6.496708013824162
 30
0.0
 10
-10.94129489974038
 20
-6.662745134849342
 30
0.0
 10
-11.11710330786008
 20
-6.768352866706954
 30
0.0
 10
-11.240168399749
 20
-6.832321917839983
 30
0.0
  0
LINE
  5
7E
330
1F
100
AcDbEntity
  8
0
  6
Continuous
 62
     7
370
    25
100
AcDbLine
 10
-11.2401683997
 20
-6.8323219178
 30
0.0
 11
-11.2785250431
 21
-6.8572525695
 31
0.0
  0
SPLINE
  5
7F
330
1F
100
AcDbEntity
  8
0
  6
Continuous
 62
     7
370
    25
100
AcDbSpline
210
0.0
220
0.0
230
1.0
 70
     8
 71
     3
 72
    15
 73
    11
 74
     0
 42
0.000000001
 43
0.00000001
 40
0.0
 40
0.0
 40
0.0
 40
0.0
 40
0.0694880382082891
 40
0.1287030146703751
 40
0.2042319888026078
 40
0.2960749668664955
 40
0.4042319522901585
 40
0.5287029471537796
 40
0.6694879528143929
 40
0.7372249036494711
 40
0.7372249036494711
 40
0.7372249036494711
 40
0.7372249036494711
 10
-11.27852504306733
 20
-6.857252569478245
 30
0.0
 10
-11.35719575387698
 20
-6.915191732475743
 30
0.0
 10
-11.49264875335961
 20
-7.03551281302372
 30
0.0
 10
-11.69001270551637
 20
-7.244071460845952
 30
0.0
 10
-11.89184110285348
 20
-7.490619712575977
 30
0.0
 10
-12.11521501630169
 20
-7.807164695820625
 30
0.0
 10
-12.35082168954479
 20
-8.19787580903897
 30
0.0
 10
-12.58894623138773
 20
-8.665841122586967
 30
0.0
 10
-12.77070284062661
 20
-9.097364733526405
 30
0.0
 10
-12.8707001957806
 20
-9.372816259242613
 30
0.0
 10
-12.90177083367503
 20
-9.462785496635348
 30
0.0
  0
ARC
  5
80
330
1F
100
AcDbEntity
  8
0
  6
Continuous
 62
     7
370
    25
100
AcDbCircle
 10
0.0
 20
0.0
 30
0.0
 40
16.0
100
AcDbArc
 50
216.2581314535
 51
220.8847256894
  0
SPLINE
  5
81
330
1F
100
AcDbEntity
  8
0
  6
Continuous
 62
     7
370
    25
100
AcDbSpline
210
0.0
220
0.0
230
1.0
 70
     8
 71
     3
 72
    15
 73
    11
 74
     0
 42
0.000000001
 43
0.00000001
 40
0.2627750963505284
 40
0.2627750963505284
 40
0.2627750963505284
 40
0.2627750963505284
 40
0.3305120471856071
 40
0.4712970528462204
 40
0.5957680477098415
 40
0.7039250331335045
 40
0.7957680111973922
 40
0.8712969853296249
 40
0.9305119617917109
 40
1.0
 40
1.0
 40
1.0
 40
1.0
 10
-12.09644780325903
 20
-10.47262863578337
 30
0.0
 10
-12.00182041512425
 20
-10.46235704238277
 30
0.0
 10
-11.71102352938842
 20
-10.42616056046085
 30
0.0
 10
-11.2498744658775
 20
-10.34498400582079
 30
0.0
 10
-10.74065432431783
 20
-10.21696182203247
 30
0.0
 10
-10.30731173746523
 20
-10.07420370181194
 30
0.0
 10
-9.948997825996921
 20
-9.926868124048777
 30
0.0
 10
-9.663720010211334
 20
-9.784962133254181
 30
0.0
 10
-9.4164727521593
 20
-9.638955172536107
 30
0.0
 10
-9.269027244357144
 20
-9.533672221769908
 30
0.0
 10
-9.195034857098058
 20
-9.469866626593252
 30
0.0
  0
LINE
  5
82
330
1F
100
AcDbEntity
  8
0
  6
Continuous
 62
     7
370
    25
100
AcDbLine
 10
-9.1950348571
 20
-9.4698666266
 30
0.0
 11
-9.1621941129
 21
-9.4380192563
 31
0.0
  0
SPLINE
  5
83
330
1F
100
AcDbEntity
  8
0
  6
Continuous
 62
     7
370
    25
100
AcDbSpline
210
0.0
220
0.0
230
1.0
 70
     8
 71
     3
 72
    15
 73
    11
 74
     0
 42
0.000000001
 43
0.00000001
 40
0.0
 40
0.0
 40
0.0
 40
0.0
 40
0.1894753412937083
 40
0.2791606818583319
 40
0.3671413701026148
 40
0.4553218377654729
 40
0.5463602754519935
 40
0.6437450818507183
 40
0.7512810629918107
 40
0.9957984767649075
 40
0.9957984767649075
 40
0.9957984767649075
 40
0.9957984767649075
 10
-9.162194112852406
 20
-9.438019256291293
 30
0.0
 10
-9.072444340202493
 20
-9.332274116195986
 30
0.0
 10
-8.930363363500117
 20
-9.184373523049805
 30
0.0
 10
-8.721349357465478
 20
-9.014787377494898
 30
0.0
 10
-8.559229685736316
 20
-8.906475999973232
 30
0.0
 10
-8.38536321976494
 20
-8.815798070561677
 30
0.0
 10
-8.19453574492405
 20
-8.745937791057832
 30
0.0
 10
-7.980703927359358
 20
-8.70447493547596
 30
0.0
 10
-7.648983728986058
 20
-8.706486000665324
 30
0.0
 10
-7.400166849602067
 20
-8.80586761078809
 30
0.0
 10
-7.259702410305297
 20
-8.91889684399404
 30
0.0
  0
ARC
  5
84
330
1F
100
AcDbEntity
  8
0
  6
Continuous
 62
     7
370
    25
100
AcDbCircle
 10
0.0
 20
0.0
 30
0.0
 40
11.5
100
AcDbArc
 50
230.8554911223
 51
232.0016517345
  0
SPLINE
  5
85
330
1F
100
AcDbEntity
  8
0
  6
Continuous
 62
     7
370
    25
100
AcDbSpline
210
0.0
220
0.0
230
1.0
 70
     8
 71
     3
 72
    15
 73
    11
 74
     0
 42
0.000000001
 43
0.00000001
 40
0.0042015232046169
 40
0.0042015232046169
 40
0.0042015232046169
 40
0.0042015232046169
 40
0.2487189370081893
 40
0.3562549181492819
 40
0.4536397245480067
 40
0.5446781622345273
 40
0.6328586298973853
 40
0.7208393181416681
 40
0.8105246587062918
 40
1.0
 40
1.0
 40
1.0
 40
1.0
 10
-7.079845718547163
 20
-9.062327769483959
 30
0.0
 10
-6.938394085955674
 20
-9.174119101489627
 30
0.0
 10
-6.78613721588358
 20
-9.394583133536731
 30
0.0
 10
-6.710361883937917
 20
-9.717538909883071
 30
0.0
 10
-6.703203123409383
 20
-9.935235870688032
 30
0.0
 10
-6.728848751924386
 20
-10.13682427696324
 30
0.0
 10
-6.778564267934935
 20
-10.32650928517302
 30
0.0
 10
-6.848085032321807
 20
-10.50866582713975
 30
0.0
 10
-6.966909307309844
 20
-10.75017588315479
 30
0.0
 10
-7.079485732163064
 20
-10.92160557125157
 30
0.0
 10
-7.162608417587133
 20
-11.03263563705529
 30
0.0
  0
LINE
  5
86
330
1F
100
AcDbEntity
  8
0
  6
Continuous
 62
     7
370
    25
100
AcDbLine
 10
-7.1626084176
 20
-11.0326356371
 30
0.0
 11
-7.1863495547
 21
-11.0717397019
 31
0.0
  0
SPLINE
  5
87
330
1F
100
AcDbEntity
  8
0
  6
Continuous
 62
     7
370
    25
100
AcDbSpline
210
0.0
220
0.0
230
1.0
 70
     8
 71
     3
 72
    15
 73
    11
 74
     0
 42
0.000000001
 43
0.00000001
 40
0.0
 40
0.0
 40
0.0
 40
0.0
 40
0.0694880382082891
 40
0.1287030146703751
 40
0.2042319888026078
 40
0.2960749668664955
 40
0.4042319522901585
 40
0.5287029471537796
 40
0.6694879528143929
 40
0.7372249036494718
 40
0.7372249036494718
 40
0.7372249036494718
 40
0.7372249036494718
 10
-7.186349554742742
 20
-11.07173970186085
 30
0.0
 10
-7.232090555315291
 20
-11.15807502611904
 30
0.0
 10
-7.301924130590327
 20
-11.32525142773536
 30
0.0
 10
-7.38925270118734
 20
-11.59878928608381
 30
0.0
 10
-7.464120526513186
 20
-11.90849164502506
 30
0.0
 10
-7.528029747502465
 20
-12.29060712900742
 30
0.0
 10
-7.570780826446596
 20
-12.74485158270841
 30
0.0
 10
-7.582281085311084
 20
-13.26979212806382
 30
0.0
 10
-7.558807053938907
 20
-13.73744270451098
 30
0.0
 10
-7.529387619881848
 20
-14.02900318015359
 30
0.0
 10
-7.518345108205084
 20
-14.12354370665977
 30
0.0
  0
ARC
  5
88
330
1F
100
AcDbEntity
  8
0
  6
Continuous
 62
     7
370
    25
100
AcDbCircle
 10
0.0
 20
0.0
 30
0.0
 40
16.0
100
AcDbArc
 50
241.9724171678
 51
246.5990114037
  0
SPLINE
  5
89
330
1F
100
AcDbEntity
  8
0
  6
Continuous
 62
     7
370
    25
100
AcDbSpline
210
0.0
220
0.0
230
1.0
 70
     8
 71
     3
 72
    15
 73
    11
 74
     0
 42
0.000000001
 43
0.00000001
 40
0.2627750963505294
 40
0.2627750963505294
 40
0.2627750963505294
 40
0.2627750963505294
 40
0.3305120471856071
 40
0.4712970528462204
 40
0.5957680477098415
 40
0.7039250331335045
 40
0.7957680111973922
 40
0.8712969853296249
 40
0.9305119617917109
 40
1.0
 40
1.0
 40
1.0
 40
1.0
 10
-6.354619612059677
 20
-14.6839643688626
 30
0.0
 10
-6.273819958650672
 20
-14.63365269799806
 30
0.0
 10
-6.027526082638895
 20
-14.47486875455202
 30
0.0
 10
-5.647266320009113
 20
-14.20164612605107
 30
0.0
 10
-5.244021569347057
 20
-13.86535978500303
 30
0.0
 10
-4.915533816447248
 20
-13.54871886114157
 30
0.0
 10
-4.656630648662881
 20
-13.26050751275684
 30
0.0
 10
-4.461174919826005
 20
-13.00887722748172
 30
0.0
 10
-4.301762883700438
 20
-12.77005293656751
 30
0.0
 10
-4.214599631802398
 20
-12.61122206736497
 30
0.0
 10
-4.175619004632052
 20
-12.52163111886262
 30
0.0
  0
LINE
  5
8A
330
1F
100
AcDbEntity
  8
0
  6
Continuous
 62
     7
370
    25
100
AcDbLine
 10
-4.1756190046
 20
-12.5216311189
 30
0.0
 11
-4.1598485726
 21
-12.4786885648
 31
0.0
  0
SPLINE
  5
8B
330
1F
100
AcDbEntity
  8
0
  6
Continuous
 62
     7
370
    25
100
AcDbSpline
210
0.0
220
0.0
230
1.0
 70
     8
 71
     3
 72
    15
 73
    11
 74
     0
 42
0.000000001
 43
0.00000001
 40
0.0
 40
0.0
 40
0.0
 40
0.0
 40
0.1894753412937083
 40
0.2791606818583319
 40
0.3671413701026148
 40
0.4553218377654729
 40
0.5463602754519935
 40
0.6437450818507183
 40
0.7512810629918107
 40
0.9957984767646293
 40
0.9957984767646293
 40
0.9957984767646293
 40
0.9957984767646293
 10
-4.159848572575651
 20
-12.47868856478728
 30
0.0
 10
-4.124867918294821
 20
-12.34447451868714
 30
0.0
 10
-4.061029043936779
 20
-12.14957406328902
 30
0.0
 10
-3.946294602479899
 20
-11.90609444725023
 30
0.0
 10
-3.847224370845439
 20
-11.73816817870923
 30
0.0
 10
-3.729919776901538
 20
-11.58103235494075
 30
0.0
 10
-3.588301402216387
 20
-11.43529347969449
 30
0.0
 10
-3.413635650437968
 20
-11.30515858909362
 30
0.0
 10
-3.113893510365425
 20
-11.16304249620962
 30
0.0
 10
-2.846597183632464
 20
-11.1446246349895
 30
0.0
 10
-2.671001550445894
 20
-11.18551521913564
 30
0.0
  0
ARC
  5
8C
330
1F
100
AcDbEntity
  8
0
  6
Continuous
 62
     7
370
    25
100
AcDbCircle
 10
0.0
 20
0.0
 30
0.0
 40
11.5
100
AcDbArc
 50
256.5697768366
 51
257.7159374488
  0
SPLINE
  5
8D
330
1F
100
AcDbEntity
  8
0
  6
Continuous
 62
     7
370
    25
100
AcDbSpline
210
0.0
220
0.0
230
1.0
 70
     8
 71
     3
 72
    15
 73
    11
 74
     0
 42
0.000000001
 43
0.00000001
 40
0.004201523204447
 40
0.004201523204447
 40
0.004201523204447
 40
0.004201523204447
 40
0.2487189370081893
 40
0.3562549181492819
 40
0.4536397245480067
 40
0.5446781622345273
 40
0.6328586298973853
 40
0.7208393181416681
 40
0.8105246587062918
 40
1.0
 40
1.0
 40
1.0
 40
1.0
 10
-2.446723924230923
 20
-11.23670512377123
 30
0.0
 10
-2.270775965820328
 20
-11.27605207035656
 30
0.0
 10
-2.03794150739543
 20
-11.40862151963005
 30
0.0
 10
-1.829545032546573
 20
-11.66671693547
 30
0.0
 10
-1.728640040829007
 20
-11.85974905000667
 30
0.0
 10
-1.66428002224138
 20
-12.0525011493828
 30
0.0
 10
-1.626770913801978
 20
-12.24497219046646
 30
0.0
 10
-1.61037219665408
 20
-12.43925349306172
 30
0.0
 10
-1.612641883031077
 20
-12.70840245554639
 30
0.0
 10
-1.6396891830164
 20
-12.91170034770761
 30
0.0
 10
-1.66640599469454
 20
-13.04780056195521
 30
0.0
  0
LINE
  5
8E
330
1F
100
AcDbEntity
  8
0
  6
Continuous
 62
     7
370
    25
100
AcDbLine
 10
-1.6664059947
 20
-13.047800562
 30
0.0
 11
-1.6708294023
 21
-13.0933330003
 31
0.0
  0
SPLINE
  5
8F
330
1F
100
AcDbEntity
  8
0
  6
Continuous
 62
     7
370
    25
100
AcDbSpline
210
0.0
220
0.0
230
1.0
 70
     8
 71
     3
 72
    15
 73
    11
 74
     0
 42
0.000000001
 43
0.00000001
 40
0.0
 40
0.0
 40
0.0
 40
0.0
 40
0.0694880382082891
 40
0.1287030146703751
 40
0.2042319888026078
 40
0.2960749668664955
 40
0.4042319522901585
 40
0.5287029471537796
 40
0.6694879528143929
 40
0.737224903649471
 40
0.737224903649471
 40
0.737224903649471
 40
0.737224903649471
 10
-1.670829402307817
 20
-13.09333300031343
 30
0.0
 10
-1.674581126503317
 20
-13.19096471602972
 30
0.0
 10
-1.664963881534935
 20
-13.37188510209026
 30
0.0
 10
-1.624960576150825
 20
-13.65622464339733
 30
0.0
 10
-1.558039338466011
 20
-13.96774075911132
 30
0.0
 10
-1.449825861984265
 20
-14.3397440858898
 30
0.0
 10
-1.291253971136963
 20
-14.76755319507532
 30
0.0
 10
-1.073852179713468
 20
-15.24549805925721
 30
0.0
 10
-0.8497968275335908
 20
-15.6566516691888
 30
0.0
 10
-0.6967874839861633
 20
-15.9065739668022
 30
0.0
 10
-0.6458189276033048
 20
-15.98696087168381
 30
0.0
  0
ARC
  5
90
330
1F
100
AcDbEntity
  8
0
  6
Continuous
 62
     7
370
    25
100
AcDbCircle
 10
0.0
 20
0.0
 30
0.0
 40
16.0
100
AcDbArc
 50
267.6867028821
 51
272.3132971179
  0
SPLINE
  5
91
330
1F
100
AcDbEntity
  8
0
  6
Continuous
 62
     7
370
    25
100
AcDbSpline
210
0.0
220
0.0
230
1.0
 70
     8
 71
     3
 72
    15
 73
    11
 74
     0
 42
0.000000001
 43
0.00000001
 40
0.2627750963505295
 40
0.2627750963505295
 40
0.2627750963505295
 40
0.2627750963505295
 40
0.3305120471856071
 40
0.4712970528462204
 40
0.5957680477098415
 40
0.7039250331335045
 40
0.7957680111973922
 40
0.8712969853296249
 40
0.9305119617917109
 40
1.0
 40
1.0
 40
1.0
 40
1.0
 10
0.64581892760331
 20
-15.98696087168382
 30
0.0
 10
0.6967874839861679
 20
-15.90657396680221
 30
0.0
 10
0.8497968275335949
 20
-15.6566516691888
 30
0.0
 10
1.073852179713471
 20
-15.24549805925721
 30
0.0
 10
1.291253971136967
 20
-14.76755319507532
 30
0.0
 10
1.449825861984269
 20
-14.3397440858898
 30
0.0
 10
1.558039338466015
 20
-13.96774075911132
 30
0.0
 10
1.624960576150828
 20
-13.65622464339734
 30
0.0
 10
1.664963881534939
 20
-13.37188510209025
 30
0.0
 10
1.67458112650332
 20
-13.19096471602972
 30
0.0
 10
1.67082940230782
 20
-13.09333300031343
 30
0.0
  0
LINE
  5
92
330
1F
100
AcDbEntity
  8
0
  6
Continuous
 62
     7
370
    25
100
AcDbLine
 10
1.6708294023
 20
-13.0933330003
 30
0.0
 11
1.6664059947
 21
-13.047800562
 31
0.0
  0
SPLINE
  5
93
330
1F
100
AcDbEntity
  8
0
  6
Continuous
 62
     7
370
    25
100
AcDbSpline
210
0.0
220
0.0
230
1.0
 70
     8
 71
     3
 72
    15
 73
    11
 74
     0
 42
0.000000001
 43
0.00000001
 40
0.0
 40
0.0
 40
0.0
 40
0.0
 40
0.1894753412937083
 40
0.2791606818583319
 40
0.3671413701026148
 40
0.4553218377654729
 40
0.5463602754519935
 40
0.6437450818507183
 40
0.7512810629918107
 40
0.9957984767841236
 40
0.9957984767841236
 40
0.9957984767841236
 40
0.9957984767841236
 10
1.666405994694544
 20
-13.04780056195521
 30
0.0
 10
1.639689183016403
 20
-12.91170034770761
 30
0.0
 10
1.612641883031081
 20
-12.70840245554639
 30
0.0
 10
1.610372196654084
 20
-12.43925349306173
 30
0.0
 10
1.626770913801981
 20
-12.24497219046646
 30
0.0
 10
1.664280022241382
 20
-12.0525011493828
 30
0.0
 10
1.72864004082901
 20
-11.85974905000667
 30
0.0
 10
1.829545032546575
 20
-11.66671693547
 30
0.0
 10
2.037941507390132
 20
-11.40862151963662
 30
0.0
 10
2.270775965805214
 20
-11.27605207036516
 30
0.0
 10
2.446723924206253
 20
-11.23670512377675
 30
0.0
  0
ARC
  5
94
330
1F
100
AcDbEntity
  8
0
  6
Continuous
 62
     7
370
    25
100
AcDbCircle
 10
0.0
 20
0.0
 30
0.0
 40
11.5
100
AcDbArc
 50
282.2840625511
 51
283.430223163
  0
SPLINE
  5
95
330
1F
100
AcDbEntity
  8
0
  6
Continuous
 62
     7
370
    25
100
AcDbSpline
210
0.0
220
0.0
230
1.0
 70
     8
 71
     3
 72
    15
 73
    11
 74
     0
 42
0.000000001
 43
0.00000001
 40
0.004201523204628
 40
0.004201523204628
 40
0.004201523204628
 40
0.004201523204628
 40
0.2487189370081893
 40
0.3562549181492819
 40
0.4536397245480067
 40
0.5446781622345273
 40
0.6328586298973853
 40
0.7208393181416681
 40
0.8105246587062918
 40
1.0
 40
1.0
 40
1.0
 40
1.0
 10
2.671001550379508
 20
-11.1855152191511
 30
0.0
 10
2.846597183585629
 20
-11.14462463498632
 30
0.0
 10
3.113893510344768
 20
-11.16304249619994
 30
0.0
 10
3.413635650437813
 20
-11.30515858909367
 30
0.0
 10
3.588301402216231
 20
-11.43529347969454
 30
0.0
 10
3.729919776901379
 20
-11.5810323549408
 30
0.0
 10
3.847224370845278
 20
-11.73816817870928
 30
0.0
 10
3.946294602479734
 20
-11.90609444725028
 30
0.0
 10
4.061029043936616
 20
-12.14957406328908
 30
0.0
 10
4.124867918294647
 20
-12.34447451868719
 30
0.0
 10
4.159848572575481
 20
-12.47868856478734
 30
0.0
  0
LINE
  5
96
330
1F
100
AcDbEntity
  8
0
  6
Continuous
 62
     7
370
    25
100
AcDbLine
 10
4.1598485726
 20
-12.4786885648
 30
0.0
 11
4.1756190046
 21
-12.5216311189
 31
0.0
  0
SPLINE
  5
97
330
1F
100
AcDbEntity
  8
0
  6
Continuous
 62
     7
370
    25
100
AcDbSpline
210
0.0
220
0.0
230
1.0
 70
     8
 71
     3
 72
    15
 73
    11
 74
     0
 42
0.000000001
 43
0.00000001
 40
0.0
 40
0.0
 40
0.0
 40
0.0
 40
0.0694880382082891
 40
0.1287030146703751
 40
0.2042319888026078
 40
0.2960749668664955
 40
0.4042319522901585
 40
0.5287029471537796
 40
0.6694879528143929
 40
0.7372249036494706
 40
0.7372249036494706
 40
0.7372249036494706
 40
0.7372249036494706
 10
4.17561900463188
 20
-12.52163111886267
 30
0.0
 10
4.214599631802225
 20
-12.61122206736503
 30
0.0
 10
4.301762883700264
 20
-12.77005293656757
 30
0.0
 10
4.461174919825825
 20
-13.00887722748178
 30
0.0
 10
4.656630648662701
 20
-13.26050751275691
 30
0.0
 10
4.915533816447063
 20
-13.54871886114165
 30
0.0
 10
5.244021569346867
 20
-13.8653597850031
 30
0.0
 10
5.647266320008918
 20
-14.20164612605115
 30
0.0
 10
6.027526082638698
 20
-14.4748687545521
 30
0.0
 10
6.273819958650471
 20
-14.63365269799814
 30
0.0
 10
6.354619612059476
 20
-14.68396436886269
 30
0.0
  0
ARC
  5
98
330
1F
100
AcDbEntity
  8
0
  6
Continuous
 62
     7
370
    25
100
AcDbCircle
 10
0.0
 20
0.0
 30
0.0
 40
16.0
100
AcDbArc
 50
293.4009885963
 51
298.0275828322
  0
SPLINE
  5
99
330
1F
100
AcDbEntity
  8
0
  6
Continuous
 62
     7
370
    25
100
AcDbSpline
210
0.0
220
0.0
230
1.0
 70
     8
 71
     3
 72
    15
 73
    11
 74
     0
 42
0.000000001
 43
0.00000001
 40
0.2627750963505291
 40
0.2627750963505291
 40
0.2627750963505291
 40
0.2627750963505291
 40
0.3305120471856071
 40
0.4712970528462204
 40
0.5957680477098415
 40
0.7039250331335045
 40
0.7957680111973922
 40
0.8712969853296249
 40
0.9305119617917109
 40
1.0
 40
1.0
 40
1.0
 40
1.0
 10
7.518345108204892
 20
-14.12354370665987
 30
0.0
 10
7.529387619881657
 20
-14.02900318015369
 30
0.0
 10
7.55880705393872
 20
-13.73744270451108
 30
0.0
 10
7.582281085310904
 20
-13.26979212806392
 30
0.0
 10
7.570780826446422
 20
-12.74485158270851
 30
0.0
 10
7.528029747502298
 20
-12.29060712900752
 30
0.0
 10
7.464120526513024
 20
-11.90849164502516
 30
0.0
 10
7.389252701187182
 20
-11.59878928608392
 30
0.0
 10
7.301924130590172
 20
-11.32525142773546
 30
0.0
 10
7.232090555315138
 20
-11.15807502611914
 30
0.0
 10
7.186349554742591
 20
-11.07173970186095
 30
0.0
  0
LINE
  5
9A
330
1F
100
AcDbEntity
  8
0
  6
Continuous
 62
     7
370
    25
100
AcDbLine
 10
7.1863495547
 20
-11.0717397019
 30
0.0
 11
7.1626084176
 21
-11.0326356371
 31
0.0
  0
SPLINE
  5
9B
330
1F
100
AcDbEntity
  8
0
  6
Continuous
 62
     7
370
    25
100
AcDbSpline
210
0.0
220
0.0
230
1.0
 70
     8
 71
     3
 72
    15
 73
    11
 74
     0
 42
0.000000001
 43
0.00000001
 40
0.0
 40
0.0
 40
0.0
 40
0.0
 40
0.1894753412937083
 40
0.2791606818583319
 40
0.3671413701026148
 40
0.4553218377654729
 40
0.5463602754519935
 40
0.6437450818507183
 40
0.7512810629918107
 40
0.9957984767648215
 40
0.9957984767648215
 40
0.9957984767648215
 40
0.9957984767648215
 10
7.162608417586983
 20
-11.03263563705539
 30
0.0
 10
7.079485732162919
 20
-10.92160557125167
 30
0.0
 10
6.966909307309696
 20
-10.75017588315489
 30
0.0
 10
6.848085032321666
 20
-10.50866582713985
 30
0.0
 10
6.778564267934792
 20
-10.32650928517312
 30
0.0
 10
6.728848751924247
 20
-10.13682427696333
 30
0.0
 10
6.703203123409247
 20
-9.935235870688123
 30
0.0
 10
6.710361883937785
 20
-9.717538909883164
 30
0.0
 10
6.786137215878298
 20
-9.394583133558786
 30
0.0
 10
6.938394085929116
 20
-9.174119101528
 30
0.0
 10
7.079845718493997
 20
-9.062327769525973
 30
0.0
  0
ARC
  5
9C
330
1F
100
AcDbEntity
  8
0
  6
Continuous
 62
     7
370
    25
100
AcDbCircle
 10
0.0
 20
0.0
 30
0.0
 40
11.5
100
AcDbArc
 50
307.9983482652
 51
309.1445088773
  0
SPLINE
  5
9D
330
1F
100
AcDbEntity
  8
0
  6
Continuous
 62
     7
370
    25
100
AcDbSpline
210
0.0
220
0.0
230
1.0
 70
     8
 71
     3
 72
    15
 73
    11
 74
     0
 42
0.000000001
 43
0.00000001
 40
0.0042015232046897
 40
0.0042015232046897
 40
0.0042015232046897
 40
0.0042015232046897
 40
0.2487189370081893
 40
0.3562549181492819
 40
0.4536397245480067
 40
0.5446781622345273
 40
0.6328586298973853
 40
0.7208393181416681
 40
0.8105246587062918
 40
1.0
 40
1.0
 40
1.0
 40
1.0
 10
7.259702410252781
 20
-8.918896844036297
 30
0.0
 10
7.400166849558974
 20
-8.805867610805349
 30
0.0
 10
7.648983728963504
 20
-8.706486000665558
 30
0.0
 10
7.980703927359242
 20
-8.704474935476064
 30
0.0
 10
8.194535744923932
 20
-8.74593779105794
 30
0.0
 10
8.385363219764823
 20
-8.815798070561787
 30
0.0
 10
8.559229685736197
 20
-8.906475999973344
 30
0.0
 10
8.721349357465355
 20
-9.014787377495011
 30
0.0
 10
8.930363363499998
 20
-9.184373523049926
 30
0.0
 10
9.072444340202365
 20
-9.332274116196103
 30
0.0
 10
9.162194112852283
 20
-9.438019256291412
 30
0.0
  0
LINE
  5
9E
330
1F
100
AcDbEntity
  8
0
  6
Continuous
 62
     7
370
    25
100
AcDbLine
 10
9.1621941129
 20
-9.4380192563
 30
0.0
 11
9.1950348571
 21
-9.4698666266
 31
0.0
  0
SPLINE
  5
9F
330
1F
100
AcDbEntity
  8
0
  6
Continuous
 62
     7
370
    25
100
AcDbSpline
210
0.0
220
0.0
230
1.0
 70
     8
 71
     3
 72
    15
 73
    11
 74
     0
 42
0.000000001
 43
0.00000001
 40
0.0
 40
0.0
 40
0.0
 40
0.0
 40
0.0694880382082891
 40
0.1287030146703751
 40
0.2042319888026078
 40
0.2960749668664955
 40
0.4042319522901585
 40
0.5287029471537796
 40
0.6694879528143929
 40
0.7372249036494712
 40
0.7372249036494712
 40
0.7372249036494712
 40
0.7372249036494712
 10
9.195034857097932
 20
-9.469866626593372
 30
0.0
 10
9.269027244357014
 20
-9.533672221770031
 30
0.0
 10
9.416472752159176
 20
-9.638955172536233
 30
0.0
 10
9.6637200102112
 20
-9.784962133254307
 30
0.0
 10
9.948997825996791
 20
-9.926868124048909
 30
0.0
 10
10.3073117374651
 20
-10.07420370181208
 30
0.0
 10
10.7406543243177
 20
-10.21696182203262
 30
0.0
 10
11.24987446587737
 20
-10.34498400582094
 30
0.0
 10
11.71102352938828
 20
-10.42616056046101
 30
0.0
 10
12.00182041512411
 20
-10.46235704238292
 30
0.0
 10
12.09644780325889
 20
-10.47262863578353
 30
0.0
  0
ARC
  5
A0
330
1F
100
AcDbEntity
  8
0
  6
Continuous
 62
     7
370
    25
100
AcDbCircle
 10
0.0
 20
0.0
 30
0.0
 40
16.0
100
AcDbArc
 50
319.1152743106
 51
323.7418685465
  0
SPLINE
  5
A1
330
1F
100
AcDbEntity
  8
0
  6
Continuous
 62
     7
370
    25
100
AcDbSpline
210
0.0
220
0.0
230
1.0
 70
     8
 71
     3
 72
    15
 73
    11
 74
     0
 42
0.000000001
 43
0.00000001
 40
0.2627750963505297
 40
0.2627750963505297
 40
0.2627750963505297
 40
0.2627750963505297
 40
0.3305120471856071
 40
0.4712970528462204
 40
0.5957680477098415
 40
0.7039250331335045
 40
0.7957680111973922
 40
0.8712969853296249
 40
0.9305119617917109
 40
1.0
 40
1.0
 40
1.0
 40
1.0
 10
12.90177083367491
 20
-9.462785496635519
 30
0.0
 10
12.87070019578047
 20
-9.372816259242782
 30
0.0
 10
12.77070284062649
 20
-9.097364733526573
 30
0.0
 10
12.58894623138761
 20
-8.665841122587135
 30
0.0
 10
12.35082168954468
 20
-8.197875809039134
 30
0.0
 10
12.11521501630159
 20
-7.807164695820786
 30
0.0
 10
11.89184110285337
 20
-7.490619712576133
 30
0.0
 10
11.69001270551628
 20
-7.244071460846109
 30
0.0
 10
11.49264875335952
 20
-7.03551281302387
 30
0.0
 10
11.35719575387689
 20
-6.915191732475896
 30
0.0
 10
11.27852504306724
 20
-6.857252569478395
 30
0.0
  0
LINE
  5
A2
330
1F
100
AcDbEntity
  8
0
  6
Continuous
 62
     7
370
    25
100
AcDbLine
 10
11.2785250431
 20
-6.8572525695
 30
0.0
 11
11.2401683997
 21
-6.8323219178
 31
0.0
  0
SPLINE
  5
A3
330
1F
100
AcDbEntity
  8
0
  6
Continuous
 62
     7
370
    25
100
AcDbSpline
210
0.0
220
0.0
230
1.0
 70
     8
 71
     3
 72
    15
 73
    11
 74
     0
 42
0.000000001
 43
0.00000001
 40
0.0
 40
0.0
 40
0.0
 40
0.0
 40
0.1894753412937083
 40
0.2791606818583319
 40
0.3671413701026148
 40
0.4553218377654729
 40
0.5463602754519935
 40
0.6437450818507183
 40
0.7512810629918107
 40
0.9957984767644982
 40
0.9957984767644982
 40
0.9957984767644982
 40
0.9957984767644982
 10
11.24016839974891
 20
-6.83232191784013
 30
0.0
 10
11.11710330785999
 20
-6.768352866707106
 30
0.0
 10
10.94129489974029
 20
-6.662745134849486
 30
0.0
 10
10.7294506410867
 20
-6.496708013824305
 30
0.0
 10
10.5877798351681
 20
-6.362754569626008
 30
0.0
 10
10.46068646237429
 20
-6.213425036499987
 30
0.0
 10
10.35011461800705
 20
-6.042927379508072
 30
0.0
 10
10.26210926702744
 20
-5.843683125400259
 30
0.0
 10
10.19025522225964
 20
-5.519832340867749
 30
0.0
 10
10.23177816354111
 20
-5.255139331432036
 30
0.0
 10
10.31071723966583
 20
-5.09304525835549
 30
0.0
  0
ARC
  5
A4
330
1F
100
AcDbEntity
  8
0
  6
Continuous
 62
     7
370
    25
100
AcDbCircle
 10
0.0
 20
0.0
 30
0.0
 40
11.5
100
AcDbArc
 50
333.7126339795
 51
334.8587945916
  0
SPLINE
  5
A5
330
1F
100
AcDbEntity
  8
0
  6
Continuous
 62
     7
370
    25
100
AcDbSpline
210
0.0
220
0.0
230
1.0
 70
     8
 71
     3
 72
    15
 73
    11
 74
     0
 42
0.000000001
 43
0.00000001
 40
0.0042015232044645
 40
0.0042015232044645
 40
0.0042015232044645
 40
0.0042015232044645
 40
0.2487189370081893
 40
0.3562549181492819
 40
0.4536397245480067
 40
0.5446781622345273
 40
0.6328586298973853
 40
0.7208393181416681
 40
0.8105246587062918
 40
1.0
 40
1.0
 40
1.0
 40
1.0
 10
10.41053017336796
 20
-4.885781565869057
 30
0.0
 10
10.48804271388636
 20
-4.723000509425672
 30
0.0
 10
10.66909891143157
 20
-4.525503174655926
 30
0.0
 10
10.96709591455667
 20
-4.379763267508033
 30
0.0
 10
11.1777417839638
 20
-4.324341861014367
 30
0.0
 10
11.3799826372228
 20
-4.304486859639967
 30
0.0
 10
11.57597458930375
 20
-4.310747018682818
 30
0.0
 10
11.76903391187436
 20
-4.337991108515107
 30
0.0
 10
12.03092969520304
 20
-4.400095167621402
 30
0.0
 10
12.22311189430501
 20
-4.471702372161313
 30
0.0
 10
12.34985474214197
 20
-4.528034484376868
 30
0.0
  0
LINE
  5
A6
330
1F
100
AcDbEntity
  8
0
  6
Continuous
 62
     7
370
    25
100
AcDbLine
 10
12.3498547421
 20
-4.5280344844
 30
0.0
 11
12.3932612864
 21
-4.5424789086
 31
0.0
  0
SPLINE
  5
A7
330
1F
100
AcDbEntity
  8
0
  6
Continuous
 62
     7
370
    25
100
AcDbSpline
210
0.0
220
0.0
230
1.0
 70
     8
 71
     3
 72
    15
 73
    11
 74
     0
 42
0.000000001
 43
0.00000001
 40
0.0
 40
0.0
 40
0.0
 40
0.0
 40
0.0694880382082891
 40
0.1287030146703751
 40
0.2042319888026078
 40
0.2960749668664955
 40
0.4042319522901585
 40
0.5287029471537796
 40
0.6694879528143929
 40
0.7372249036494707
 40
0.7372249036494707
 40
0.7372249036494707
 40
0.7372249036494707
 10
12.39326128641372
 20
-4.542478908634789
 30
0.0
 10
12.4876103340078
 20
-4.567861669836737
 30
0.0
 10
12.66613470659338
 20
-4.598744122556699
 30
0.0
 10
12.95224683482604
 20
-4.62301528385056
 30
0.0
 10
13.2708439674412
 20
-4.627090758324999
 30
0.0
 10
13.65760015799542
 20
-4.60436894733832
 30
0.0
 10
14.10996876487659
 20
-4.544969267394819
 30
0.0
 10
14.62430700312279
 20
-4.439370930335102
 30
0.0
 10
15.07500913986439
 20
-4.3124233989027
 30
0.0
 10
15.35271314571454
 20
-4.21886326213514
 30
0.0
 10
15.44242615382624
 20
-4.187060363025991
 30
0.0
  0
ARC
  5
A8
330
1F
100
AcDbEntity
  8
0
  6
Continuous
 62
     7
370
    25
100
AcDbCircle
 10
0.0
 20
0.0
 30
0.0
 40
16.0
100
AcDbArc
 50
344.8295600249
 51
349.4561542608
  0
SPLINE
  5
A9
330
1F
100
AcDbEntity
  8
0
  6
Continuous
 62
     7
370
    25
100
AcDbSpline
210
0.0
220
0.0
230
1.0
 70
     8
 71
     3
 72
    15
 73
    11
 74
     0
 42
0.000000001
 43
0.00000001
 40
0.2627750963505296
 40
0.2627750963505296
 40
0.2627750963505296
 40
0.2627750963505296
 40
0.3305120471856071
 40
0.4712970528462204
 40
0.5957680477098415
 40
0.7039250331335045
 40
0.7957680111973922
 40
0.8712969853296249
 40
0.9305119617917109
 40
1.0
 40
1.0
 40
1.0
 40
1.0
 10
15.72984261570015
 20
-2.927806565554398
 30
0.0
 10
15.66281274912588
 20
-2.860228128141024
 30
0.0
 10
15.45320430733617
 20
-2.655442105210575
 30
0.0
 10
15.10221618304453
 20
-2.345514003215197
 30
0.0
 10
14.68463084414099
 20
-2.027210191040722
 30
0.0
 10
14.30283336776095
 20
-1.777417546035255
 30
0.0
 10
13.96423670491348
 20
-1.589138679629363
 30
0.0
 10
13.6754223249206
 20
-1.454576440081565
 30
0.0
 10
13.40711334243876
 20
-1.352304600790698
 30
0.0
 10
13.23286904651809
 20
-1.302669906954806
 30
0.0
 10
13.13685032458015
 20
-1.28460246702686
 30
0.0
  0
LINE
  5
AA
330
1F
100
AcDbEntity
  8
0
  6
Continuous
 62
     7
370
    25
100
AcDbLine
 10
13.1368503246
 20
-1.284602467
 30
0.0
 11
13.0914751787
 21
-1.2787830499
 31
0.0
  0
SPLINE
  5
AB
330
1F
100
AcDbEntity
  8
0
  6
Continuous
 62
     7
370
    25
100
AcDbSpline
210
0.0
220
0.0
230
1.0
 70
     8
 71
     3
 72
    15
 73
    11
 74
     0
 42
0.000000001
 43
0.00000001
 40
0.0
 40
0.0
 40
0.0
 40
0.0
 40
0.1894753412937083
 40
0.2791606818583319
 40
0.3671413701026148
 40
0.4553218377654729
 40
0.5463602754519935
 40
0.6437450818507183
 40
0.7512810629918107
 40
0.9957984768878811
 40
0.9957984768878811
 40
0.9957984768878811
 40
0.9957984768878811
 10
13.09147517872164
 20
-1.278783049867221
 30
0.0
 10
12.95284223111078
 20
-1.274544868510716
 30
0.0
 10
12.74862285110134
 20
-1.255675999380495
 30
0.0
 10
12.48571696230787
 20
-1.197997501475867
 30
0.0
 10
12.29995575544813
 20
-1.138778277500659
 30
0.0
 10
12.12065692705079
 20
-1.059380764900552
 30
0.0
 10
11.94705897668292
 20
-0.9537430091757149
 30
0.0
 10
11.78132005327148
 20
-0.8124142298615211
 30
0.0
 10
11.57606820653735
 20
-0.551811056694989
 30
0.0
 10
11.49863309128552
 20
-0.2953147665114033
 30
0.0
 10
11.49942475887511
 20
-0.1150226713933167
 30
0.0
  0
ARC
  5
AC
330
1F
100
AcDbEntity
  8
0
  6
Continuous
 62
     7
370
    25
100
AcDbCircle
 10
0.0
 20
0.0
 30
0.0
 40
11.5
100
AcDbArc
 50
359.4269196951
 51
0.5730803059
  0
SPLINE
  5
AD
330
1F
100
AcDbEntity
  8
0
  6
Continuous
 62
     7
370
    25
100
AcDbSpline
210
0.0
220
0.0
230
1.0
 70
     8
 71
     3
 72
    15
 73
    11
 74
     0
 42
0.000000001
 43
0.00000001
 40
0.0042015232045214
 40
0.0042015232045214
 40
0.0042015232045214
 40
0.0042015232045214
 40
0.2487189370081893
 40
0.3562549181492819
 40
0.4536397245480067
 40
0.5446781622345273
 40
0.6328586298973853
 40
0.7208393181416681
 40
0.8105246587062918
 40
1.0
 40
1.0
 40
1.0
 40
1.0
 10
11.49942475887421
 20
0.1150226715976349
 30
0.0
 10
11.49863309132617
 20
0.2953147666459707
 30
0.0
 10
11.57606820657956
 20
0.5518110567484888
 30
0.0
 10
11.78132005327149
 20
0.8124142298614415
 30
0.0
 10
11.94705897668293
 20
0.953743009175635
 30
0.0
 10
12.1206569270508
 20
1.05938076490047
 30
0.0
 10
12.29995575544814
 20
1.138778277500576
 30
0.0
 10
12.48571696230787
 20
1.197997501475783
 30
0.0
 10
12.74862285110135
 20
1.25567599938041
 30
0.0
 10
12.95284223111078
 20
1.274544868510627
 30
0.0
 10
13.09147517872165
 20
1.278783049867134
 30
0.0
  0
LINE
  5
AE
330
1F
100
AcDbEntity
  8
0
  6
Continuous
 62
     7
370
    25
100
AcDbLine
 10
13.0914751787
 20
1.2787830499
 30
0.0
 11
13.1368503246
 21
1.284602467
 31
0.0
  0
SPLINE
  5
AF
330
1F
100
AcDbEntity
  8
0
  6
Continuous
 62
     7
370
    25
100
AcDbSpline
210
0.0
220
0.0
230
1.0
 70
     8
 71
     3
 72
    15
 73
    11
 74
     0
 42
0.000000001
 43
0.00000001
 40
0.0
 40
0.0
 40
0.0
 40
0.0
 40
0.0694880382082891
 40
0.1287030146703751
 40
0.2042319888026078
 40
0.2960749668664955
 40
0.4042319522901585
 40
0.5287029471537796
 40
0.6694879528143929
 40
0.7372249036494719
 40
0.7372249036494719
 40
0.7372249036494719
 40
0.7372249036494719
 10
13.13685032458016
 20
1.284602467026772
 30
0.0
 10
13.2328690465181
 20
1.302669906954717
 30
0.0
 10
13.40711334243877
 20
1.352304600790609
 30
0.0
 10
13.67542232492061
 20
1.454576440081472
 30
0.0
 10
13.9642367049135
 20
1.58913867962927
 30
0.0
 10
14.30283336776096
 20
1.777417546035159
 30
0.0
 10
14.68463084414101
 20
2.027210191040623
 30
0.0
 10
15.10221618304455
 20
2.345514003215095
 30
0.0
 10
15.45320430733619
 20
2.655442105210472
 30
0.0
 10
15.66281274912591
 20
2.860228128140922
 30
0.0
 10
15.72984261570017
 20
2.927806565554297
 30
0.0
  0
ARC
  5
B0
330
1F
100
AcDbEntity
  8
0
  6
Continuous
 62
     7
370
    25
100
AcDbCircle
 10
0.0
 20
0.0
 30
0.0
 40
16.0
100
AcDbArc
 50
10.5438457392
 51
15.1704399751
  0
SPLINE
  5
B1
330
1F
100
AcDbEntity
  8
0
  6
Continuous
 62
     7
370
    25
100
AcDbSpline
210
0.0
220
0.0
230
1.0
 70
     8
 71
     3
 72
    15
 73
    11
 74
     0
 42
0.000000001
 43
0.00000001
 40
0.2627750963505296
 40
0.2627750963505296
 40
0.2627750963505296
 40
0.2627750963505296
 40
0.3305120471856071
 40
0.4712970528462204
 40
0.5957680477098415
 40
0.7039250331335045
 40
0.7957680111973922
 40
0.8712969853296249
 40
0.9305119617917109
 40
1.0
 40
1.0
 40
1.0
 40
1.0
 10
15.44242615382627
 20
4.187060363025889
 30
0.0
 10
15.35271314571456
 20
4.218863262135037
 30
0.0
 10
15.07500913986442
 20
4.3124233989026
 30
0.0
 10
14.62430700312282
 20
4.439370930335003
 30
0.0
 10
14.10996876487662
 20
4.544969267394725
 30
0.0
 10
13.65760015799545
 20
4.604368947338228
 30
0.0
 10
13.27084396744123
 20
4.62709075832491
 30
0.0
 10
12.95224683482608
 20
4.623015283850473
 30
0.0
 10
12.66613470659341
 20
4.598744122556615
 30
0.0
 10
12.48761033400783
 20
4.567861669836653
 30
0.0
 10
12.39326128641375
 20
4.542478908634705
 30
0.0
  0
LINE
  5
B2
330
1F
100
AcDbEntity
  8
0
  6
Continuous
 62
     7
370
    25
100
AcDbLine
 10
12.3932612864
 20
4.5424789086
 30
0.0
 11
12.3498547421
 21
4.5280344844
 31
0.0
  0
SPLINE
  5
B3
330
1F
100
AcDbEntity
  8
0
  6
Continuous
 62
     7
370
    25
100
AcDbSpline
210
0.0
220
0.0
230
1.0
 70
     8
 71
     3
 72
    15
 73
    11
 74
     0
 42
0.000000001
 43
0.00000001
 40
0.0
 40
0.0
 40
0.0
 40
0.0
 40
0.1894753412937083
 40
0.2791606818583319
 40
0.3671413701026148
 40
0.4553218377654729
 40
0.5463602754519935
 40
0.6437450818507183
 40
0.7512810629918107
 40
0.9957984767647782
 40
0.9957984767647782
 40
0.9957984767647782
 40
0.9957984767647782
 10
12.349854742142
 20
4.528034484376787
 30
0.0
 10
12.22311189430505
 20
4.471702372161231
 30
0.0
 10
12.03092969520307
 20
4.40009516762132
 30
0.0
 10
11.76903391187439
 20
4.337991108515029
 30
0.0
 10
11.57597458930378
 20
4.31074701868274
 30
0.0
 10
11.37998263722283
 20
4.304486859639891
 30
0.0
 10
11.17774178396383
 20
4.324341861014291
 30
0.0
 10
10.9670959145567
 20
4.379763267507959
 30
0.0
 10
10.669098911452
 20
4.525503174645881
 30
0.0
 10
10.48804271391803
 20
4.723000509391094
 30
0.0
 10
10.41053017339724
 20
4.885781565807558
 30
0.0
  0
ARC
  5
B4
330
1F
100
AcDbEntity
  8
0
  6
Continuous
 62
     7
370
    25
100
AcDbCircle
 10
0.0
 20
0.0
 30
0.0
 40
11.5
100
AcDbArc
 50
25.141205408
 51
26.2873660202
  0
SPLINE
  5
B5
330
1F
100
AcDbEntity
  8
0
  6
Continuous
 62
     7
370
    25
100
AcDbSpline
210
0.0
220
0.0
230
1.0
 70
     8
 71
     3
 72
    15
 73
    11
 74
     0
 42
0.000000001
 43
0.00000001
 40
0.004201523204467
 40
0.004201523204467
 40
0.004201523204467
 40
0.004201523204467
 40
0.2487189370081893
 40
0.3562549181492819
 40
0.4536397245480067
 40
0.5446781622345273
 40
0.6328586298973853
 40
0.7208393181416681
 40
0.8105246587062918
 40
1.0
 40
1.0
 40
1.0
 40
1.0
 10
10.31071723969592
 20
5.093045258293702
 30
0.0
 10
10.23177816354846
 20
5.255139331385304
 30
0.0
 10
10.19025522225471
 20
5.519832340845319
 30
0.0
 10
10.26210926702748
 20
5.843683125400193
 30
0.0
 10
10.35011461800709
 20
6.042927379508007
 30
0.0
 10
10.46068646237433
 20
6.21342503649992
 30
0.0
 10
10.58777983516815
 20
6.36275456962594
 30
0.0
 10
10.72945064108674
 20
6.496708013824234
 30
0.0
 10
10.94129489974034
 20
6.662745134849417
 30
0.0
 10
11.11710330786003
 20
6.768352866707031
 30
0.0
 10
11.24016839974895
 20
6.832321917840059
 30
0.0
  0
LINE
  5
B6
330
1F
100
AcDbEntity
  8
0
  6
Continuous
 62
     7
370
    25
100
AcDbLine
 10
11.2401683997
 20
6.8323219178
 30
0.0
 11
11.2785250431
 21
6.8572525695
 31
0.0
  0
SPLINE
  5
B7
330
1F
100
AcDbEntity
  8
0
  6
Continuous
 62
     7
370
    25
100
AcDbSpline
210
0.0
220
0.0
230
1.0
 70
     8
 71
     3
 72
    15
 73
    11
 74
     0
 42
0.000000001
 43
0.00000001
 40
0.0
 40
0.0
 40
0.0
 40
0.0
 40
0.0694880382082891
 40
0.1287030146703751
 40
0.2042319888026078
 40
0.2960749668664955
 40
0.4042319522901585
 40
0.5287029471537796
 40
0.6694879528143929
 40
0.7372249036494705
 40
0.7372249036494705
 40
0.7372249036494705
 40
0.7372249036494705
 10
11.27852504306728
 20
6.857252569478323
 30
0.0
 10
11.35719575387693
 20
6.915191732475821
 30
0.0
 10
11.49264875335956
 20
7.035512813023798
 30
0.0
 10
11.69001270551633
 20
7.244071460846031
 30
0.0
 10
11.89184110285342
 20
7.490619712576058
 30
0.0
 10
12.11521501630164
 20
7.807164695820709
 30
0.0
 10
12.35082168954474
 20
8.197875809039054
 30
0.0
 10
12.58894623138767
 20
8.665841122587054
 30
0.0
 10
12.77070284062655
 20
9.097364733526492
 30
0.0
 10
12.87070019578053
 20
9.372816259242699
 30
0.0
 10
12.90177083367497
 20
9.462785496635435
 30
0.0
  0
ARC
  5
B8
330
1F
100
AcDbEntity
  8
0
  6
Continuous
 62
     7
370
    25
100
AcDbCircle
 10
0.0
 20
0.0
 30
0.0
 40
16.0
100
AcDbArc
 50
36.2581314535
 51
40.8847256894
  0
SPLINE
  5
B9
330
1F
100
AcDbEntity
  8
0
  6
Continuous
 62
     7
370
    25
100
AcDbSpline
210
0.0
220
0.0
230
1.0
 70
     8
 71
     3
 72
    15
 73
    11
 74
     0
 42
0.000000001
 43
0.00000001
 40
0.26277509635053
 40
0.26277509635053
 40
0.26277509635053
 40
0.26277509635053
 40
0.3305120471856071
 40
0.4712970528462204
 40
0.5957680477098415
 40
0.7039250331335045
 40
0.7957680111973922
 40
0.8712969853296249
 40
0.9305119617917109
 40
1.0
 40
1.0
 40
1.0
 40
1.0
 10
12.09644780325895
 20
10.47262863578345
 30
0.0
 10
12.00182041512417
 20
10.46235704238285
 30
0.0
 10
11.71102352938835
 20
10.42616056046093
 30
0.0
 10
11.24987446587743
 20
10.34498400582087
 30
0.0
 10
10.74065432431776
 20
10.21696182203255
 30
0.0
 10
10.30731173746517
 20
10.07420370181201
 30
0.0
 10
9.948997825996853
 20
9.926868124048843
 30
0.0
 10
9.663720010211266
 20
9.784962133254247
 30
0.0
 10
9.416472752159237
 20
9.638955172536173
 30
0.0
 10
9.269027244357078
 20
9.533672221769972
 30
0.0
 10
9.195034857097994
 20
9.469866626593316
 30
0.0
  0
LINE
  5
BA
330
1F
100
AcDbEntity
  8
0
  6
Continuous
 62
     7
370
    25
100
AcDbLine
 10
9.1950348571
 20
9.4698666266
 30
0.0
 11
9.1621941129
 21
9.4380192563
 31
0.0
  0
SPLINE
  5
BB
330
1F
100
AcDbEntity
  8
0
  6
Continuous
 62
     7
370
    25
100
AcDbSpline
210
0.0
220
0.0
230
1.0
 70
     8
 71
     3
 72
    15
 73
    11
 74
     0
 42
0.000000001
 43
0.00000001
 40
0.0
 40
0.0
 40
0.0
 40
0.0
 40
0.1894753412937083
 40
0.2791606818583319
 40
0.3671413701026148
 40
0.4553218377654729
 40
0.5463602754519935
 40
0.6437450818507183
 40
0.7512810629918107
 40
0.9957984767648799
 40
0.9957984767648799
 40
0.9957984767648799
 40
0.9957984767648799
 10
9.162194112852344
 20
9.438019256291355
 30
0.0
 10
9.07244434020243
 20
9.332274116196048
 30
0.0
 10
8.930363363500055
 20
9.184373523049867
 30
0.0
 10
8.721349357465417
 20
9.014787377494958
 30
0.0
 10
8.559229685736256
 20
8.90647599997329
 30
0.0
 10
8.385363219764882
 20
8.815798070561733
 30
0.0
 10
8.194535744923988
 20
8.745937791057887
 30
0.0
 10
7.980703927359301
 20
8.704474935476012
 30
0.0
 10
7.648983728986019
 20
8.706486000665375
 30
0.0
 10
7.400166849602045
 20
8.805867610788125
 30
0.0
 10
7.259702410305285
 20
8.918896843994053
 30
0.0
  0
ARC
  5
BC
330
1F
100
AcDbEntity
  8
0
  6
Continuous
 62
     7
370
    25
100
AcDbCircle
 10
0.0
 20
0.0
 30
0.0
 40
11.5
100
AcDbArc
 50
50.8554911223
 51
52.0016517345
  0
SPLINE
  5
BD
330
1F
100
AcDbEntity
  8
0
  6
Continuous
 62
     7
370
    25
100
AcDbSpline
210
0.0
220
0.0
230
1.0
 70
     8
 71
     3
 72
    15
 73
    11
 74
     0
 42
0.000000001
 43
0.00000001
 40
0.0042015232045623
 40
0.0042015232045623
 40
0.0042015232045623
 40
0.0042015232045623
 40
0.2487189370081893
 40
0.3562549181492819
 40
0.4536397245480067
 40
0.5446781622345273
 40
0.6328586298973853
 40
0.7208393181416681
 40
0.8105246587062918
 40
1.0
 40
1.0
 40
1.0
 40
1.0
 10
7.079845718547193
 20
9.062327769483934
 30
0.0
 10
6.938394085955659
 20
9.174119101489607
 30
0.0
 10
6.786137215883524
 20
9.394583133536736
 30
0.0
 10
6.710361883937852
 20
9.717538909883116
 30
0.0
 10
6.703203123409315
 20
9.93523587068808
 30
0.0
 10
6.728848751924317
 20
10.13682427696328
 30
0.0
 10
6.778564267934864
 20
10.32650928517307
 30
0.0
 10
6.848085032321736
 20
10.5086658271398
 30
0.0
 10
6.966909307309771
 20
10.75017588315484
 30
0.0
 10
7.079485732162991
 20
10.92160557125161
 30
0.0
 10
7.162608417587058
 20
11.03263563705534
 30
0.0
  0
LINE
  5
BE
330
1F
100
AcDbEntity
  8
0
  6
Continuous
 62
     7
370
    25
100
AcDbLine
 10
7.1626084176
 20
11.0326356371
 30
0.0
 11
7.1863495547
 21
11.0717397019
 31
0.0
  0
SPLINE
  5
BF
330
1F
100
AcDbEntity
  8
0
  6
Continuous
 62
     7
370
    25
100
AcDbSpline
210
0.0
220
0.0
230
1.0
 70
     8
 71
     3
 72
    15
 73
    11
 74
     0
 42
0.000000001
 43
0.00000001
 40
0.0
 40
0.0
 40
0.0
 40
0.0
 40
0.0694880382082891
 40
0.1287030146703751
 40
0.2042319888026078
 40
0.2960749668664955
 40
0.4042319522901585
 40
0.5287029471537796
 40
0.6694879528143929
 40
0.7372249036494717
 40
0.7372249036494717
 40
0.7372249036494717
 40
0.7372249036494717
 10
7.186349554742667
 20
11.0717397018609
 30
0.0
 10
7.232090555315215
 20
11.15807502611909
 30
0.0
 10
7.301924130590249
 20
11.32525142773541
 30
0.0
 10
7.389252701187261
 20
11.59878928608386
 30
0.0
 10
7.464120526513105
 20
11.90849164502511
 30
0.0
 10
7.528029747502382
 20
12.29060712900747
 30
0.0
 10
7.57078082644651
 20
12.74485158270846
 30
0.0
 10
7.582281085310994
 20
13.26979212806387
 30
0.0
 10
7.558807053938812
 20
13.73744270451103
 30
0.0
 10
7.529387619881752
 20
14.02900318015364
 30
0.0
 10
7.518345108204987
 20
14.12354370665982
 30
0.0
  0
ARC
  5
C0
330
1F
100
AcDbEntity
  8
0
  6
Continuous
 62
     7
370
    25
100
AcDbCircle
 10
0.0
 20
0.0
 30
0.0
 40
16.0
100
AcDbArc
 50
61.9724171678
 51
66.5990114037
  0
SPLINE
  5
C1
330
1F
100
AcDbEntity
  8
0
  6
Continuous
 62
     7
370
    25
100
AcDbSpline
210
0.0
220
0.0
230
1.0
 70
     8
 71
     3
 72
    15
 73
    11
 74
     0
 42
0.000000001
 43
0.00000001
 40
0.2627750963505296
 40
0.2627750963505296
 40
0.2627750963505296
 40
0.2627750963505296
 40
0.3305120471856071
 40
0.4712970528462204
 40
0.5957680477098415
 40
0.7039250331335045
 40
0.7957680111973922
 40
0.8712969853296249
 40
0.9305119617917109
 40
1.0
 40
1.0
 40
1.0
 40
1.0
 10
6.354619612059575
 20
14.68396436886265
 30
0.0
 10
6.27381995865057
 20
14.6336526979981
 30
0.0
 10
6.027526082638796
 20
14.47486875455206
 30
0.0
 10
5.647266320009016
 20
14.20164612605111
 30
0.0
 10
5.244021569346962
 20
13.86535978500306
 30
0.0
 10
4.915533816447154
 20
13.54871886114161
 30
0.0
 10
4.65663064866279
 20
13.26050751275687
 30
0.0
 10
4.461174919825916
 20
13.00887722748175
 30
0.0
 10
4.30176288370035
 20
12.77005293656754
 30
0.0
 10
4.214599631802312
 20
12.611222067365
 30
0.0
 10
4.175619004631966
 20
12.52163111886264
 30
0.0
  0
LINE
  5
C2
330
1F
100
AcDbEntity
  8
0
  6
Continuous
 62
     7
370
    25
100
AcDbLine
 10
4.1756190046
 20
12.5216311189
 30
0.0
 11
4.1598485726
 21
12.4786885648
 31
0.0
  0
SPLINE
  5
C3
330
1F
100
AcDbEntity
  8
0
  6
Continuous
 62
     7
370
    25
100
AcDbSpline
210
0.0
220
0.0
230
1.0
 70
     8
 71
     3
 72
    15
 73
    11
 74
     0
 42
0.000000001
 43
0.00000001
 40
0.0
 40
0.0
 40
0.0
 40
0.0
 40
0.1894753412937083
 40
0.2791606818583319
 40
0.3671413701026148
 40
0.4553218377654729
 40
0.5463602754519935
 40
0.6437450818507183
 40
0.7512810629918107
 40
0.9957984767649064
 40
0.9957984767649064
 40
0.9957984767649064
 40
0.9957984767649064
 10
4.159848572575566
 20
12.47868856478731
 30
0.0
 10
4.124867918294735
 20
12.34447451868717
 30
0.0
 10
4.061029043936697
 20
12.14957406328905
 30
0.0
 10
3.946294602479817
 20
11.90609444725026
 30
0.0
 10
3.847224370845359
 20
11.73816817870925
 30
0.0
 10
3.729919776901459
 20
11.58103235494077
 30
0.0
 10
3.588301402216309
 20
11.43529347969452
 30
0.0
 10
3.41363565043789
 20
11.30515858909364
 30
0.0
 10
3.113893510365163
 20
11.16304249620955
 30
0.0
 10
2.846597183631968
 20
11.14462463498949
 30
0.0
 10
2.67100155044522
 20
11.1855152191358
 30
0.0
  0
ARC
  5
C4
330
1F
100
AcDbEntity
  8
0
  6
Continuous
 62
     7
370
    25
100
AcDbCircle
 10
0.0
 20
0.0
 30
0.0
 40
11.5
100
AcDbArc
 50
76.5697768366
 51
77.6696223115
  0
LINE
  5
C5
330
1F
100
AcDbEntity
  8
0
  6
Continuous
 62
     7
370
    25
100
AcDbLine
 10
2.4558063329
 20
11.2347236395
 30
0.0
 11
2.4467239242
 21
11.2367051238
 31
0.0
  0
SPLINE
  5
C6
330
1F
100
AcDbEntity
  8
0
  6
Continuous
 62
     7
370
    25
100
AcDbSpline
210
0.0
220
0.0
230
1.0
 70
     8
 71
     3
 72
    15
 73
    11
 74
     0
 42
0.000000001
 43
0.00000001
 40
0.0042015232037672
 40
0.0042015232037672
 40
0.0042015232037672
 40
0.0042015232037672
 40
0.2487189370081893
 40
0.3562549181492819
 40
0.4536397245480067
 40
0.5446781622345273
 40
0.6328586298973853
 40
0.7208393181416681
 40
0.8105246587062918
 40
1.0
 40
1.0
 40
1.0
 40
1.0
 10
2.44672392423239
 20
11.2367051237709
 30
0.0
 10
2.270775965821228
 20
11.27605207035605
 30
0.0
 10
2.037941507395745
 20
11.40862151962966
 30
0.0
 10
1.829545032546573
 20
11.66671693547
 30
0.0
 10
1.728640040829007
 20
11.85974905000667
 30
0.0
 10
1.66428002224138
 20
12.0525011493828
 30
0.0
 10
1.626770913801978
 20
12.24497219046646
 30
0.0
 10
1.61037219665408
 20
12.43925349306172
 30
0.0
 10
1.612641883031077
 20
12.70840245554639
 30
0.0
 10
1.6396891830164
 20
12.91170034770761
 30
0.0
 10
1.66640599469454
 20
13.04780056195521
 30
0.0
  0
LINE
  5
C7
330
1F
100
AcDbEntity
  8
0
  6
Continuous
 62
     7
370
    25
100
AcDbLine
 10
1.6664059947
 20
13.047800562
 30
0.0
 11
1.6708294023
 21
13.0933330003
 31
0.0
  0
SPLINE
  5
C8
330
1F
100
AcDbEntity
  8
0
  6
Continuous
 62
     7
370
    25
100
AcDbSpline
210
0.0
220
0.0
230
1.0
 70
     8
 71
     3
 72
    15
 73
    11
 74
     0
 42
0.000000001
 43
0.00000001
 40
0.0
 40
0.0
 40
0.0
 40
0.0
 40
0.0694880382082891
 40
0.1287030146703751
 40
0.2042319888026078
 40
0.2960749668664955
 40
0.4042319522901585
 40
0.5287029471537796
 40
0.6694879528143929
 40
0.737224903649471
 40
0.737224903649471
 40
0.737224903649471
 40
0.737224903649471
 10
1.670829402307817
 20
13.09333300031343
 30
0.0
 10
1.674581126503317
 20
13.19096471602972
 30
0.0
 10
1.664963881534935
 20
13.37188510209026
 30
0.0
 10
1.624960576150825
 20
13.65622464339733
 30
0.0
 10
1.558039338466011
 20
13.96774075911132
 30
0.0
 10
1.449825861984265
 20
14.3397440858898
 30
0.0
 10
1.291253971136963
 20
14.76755319507532
 30
0.0
 10
1.073852179713468
 20
15.24549805925721
 30
0.0
 10
0.8497968275335908
 20
15.6566516691888
 30
0.0
 10
0.6967874839861633
 20
15.9065739668022
 30
0.0
 10
0.6458189276033048
 20
15.98696087168381
 30
0.0
  0
ARC
  5
C9
330
1F
100
AcDbEntity
  8
0
  6
Continuous
 62
     7
370
    25
100
AcDbCircle
 10
0.0
 20
0.0
 30
0.0
 40
16.0
100
AcDbArc
 50
87.6867028821
 51
92.3132971179
  0
SPLINE
  5
CA
330
1F
100
AcDbEntity
  8
0
  6
Continuous
 62
     7
370
    25
100
AcDbSpline
210
0.0
220
0.0
230
1.0
 70
     8
 71
     3
 72
    15
 73
    11
 74
     0
 42
0.000000001
 43
0.00000001
 40
0.2627750963505295
 40
0.2627750963505295
 40
0.2627750963505295
 40
0.2627750963505295
 40
0.3305120471856071
 40
0.4712970528462204
 40
0.5957680477098415
 40
0.7039250331335045
 40
0.7957680111973922
 40
0.8712969853296249
 40
0.9305119617917109
 40
1.0
 40
1.0
 40
1.0
 40
1.0
 10
-0.64581892760331
 20
15.98696087168382
 30
0.0
 10
-0.6967874839861679
 20
15.90657396680221
 30
0.0
 10
-0.8497968275335949
 20
15.6566516691888
 30
0.0
 10
-1.073852179713471
 20
15.24549805925721
 30
0.0
 10
-1.291253971136967
 20
14.76755319507532
 30
0.0
 10
-1.449825861984269
 20
14.3397440858898
 30
0.0
 10
-1.558039338466015
 20
13.96774075911132
 30
0.0
 10
-1.624960576150828
 20
13.65622464339734
 30
0.0
 10
-1.664963881534939
 20
13.37188510209025
 30
0.0
 10
-1.67458112650332
 20
13.19096471602972
 30
0.0
 10
-1.67082940230782
 20
13.09333300031343
 30
0.0
  0
LINE
  5
CB
330
1F
100
AcDbEntity
  8
0
  6
Continuous
 62
     7
370
    25
100
AcDbLine
 10
-1.6708294023
 20
13.0933330003
 30
0.0
 11
-1.6664059947
 21
13.047800562
 31
0.0
  0
SPLINE
  5
CC
330
1F
100
AcDbEntity
  8
0
  6
Continuous
 62
     7
370
    25
100
AcDbSpline
210
0.0
220
0.0
230
1.0
 70
     8
 71
     3
 72
    15
 73
    11
 74
     0
 42
0.000000001
 43
0.00000001
 40
0.0
 40
0.0
 40
0.0
 40
0.0
 40
0.1894753412937083
 40
0.2791606818583319
 40
0.3671413701026148
 40
0.4553218377654729
 40
0.5463602754519935
 40
0.6437450818507183
 40
0.7512810629918107
 40
0.9957984767841245
 40
0.9957984767841245
 40
0.9957984767841245
 40
0.9957984767841245
 10
-1.666405994694544
 20
13.04780056195521
 30
0.0
 10
-1.639689183016403
 20
12.91170034770761
 30
0.0
 10
-1.612641883031081
 20
12.70840245554639
 30
0.0
 10
-1.610372196654084
 20
12.43925349306173
 30
0.0
 10
-1.626770913801981
 20
12.24497219046646
 30
0.0
 10
-1.664280022241382
 20
12.0525011493828
 30
0.0
 10
-1.72864004082901
 20
11.85974905000667
 30
0.0
 10
-1.829545032546575
 20
11.66671693547
 30
0.0
 10
-2.037941507390133
 20
11.40862151963662
 30
0.0
 10
-2.270775965805215
 20
11.27605207036517
 30
0.0
 10
-2.446723924206255
 20
11.23670512377675
 30
0.0
  0
LINE
  5
CD
330
1F
100
AcDbEntity
  8
0
  6
Continuous
 62
     7
370
    25
100
AcDbLine
 10
-2.4467239242
 20
11.2367051238
 30
0.0
 11
-2.4558063329
 21
11.2347236395
 31
0.0
  0
ARC
  5
CE
330
1F
100
AcDbEntity
  8
0
  6
Continuous
 62
     7
370
    25
100
AcDbCircle
 10
0.0
 20
0.0
 30
0.0
 40
11.5
100
AcDbArc
 50
102.3303776885
 51
103.430223163
  0
SPLINE
  5
CF
330
1F
100
AcDbEntity
  8
0
  6
Continuous
 62
     7
370
    25
100
AcDbSpline
210
0.0
220
0.0
230
1.0
 70
     8
 71
     3
 72
    15
 73
    11
 74
     0
 42
0.000000001
 43
0.00000001
 40
0.0042015232046715
 40
0.0042015232046715
 40
0.0042015232046715
 40
0.0042015232046715
 40
0.2487189370081893
 40
0.3562549181492819
 40
0.4536397245480067
 40
0.5446781622345273
 40
0.6328586298973853
 40
0.7208393181416681
 40
0.8105246587062918
 40
1.0
 40
1.0
 40
1.0
 40
1.0
 10
-2.671001550379524
 20
11.1855152191511
 30
0.0
 10
-2.846597183585617
 20
11.14462463498634
 30
0.0
 10
-3.113893510344718
 20
11.16304249619998
 30
0.0
 10
-3.413635650437733
 20
11.30515858909369
 30
0.0
 10
-3.588301402216151
 20
11.43529347969457
 30
0.0
 10
-3.729919776901298
 20
11.58103235494082
 30
0.0
 10
-3.847224370845196
 20
11.73816817870931
 30
0.0
 10
-3.946294602479651
 20
11.90609444725031
 30
0.0
 10
-4.06102904393653
 20
12.14957406328911
 30
0.0
 10
-4.12486791829456
 20
12.34447451868722
 30
0.0
 10
-4.159848572575394
 20
12.47868856478737
 30
0.0
  0
LINE
  5
D0
330
1F
100
AcDbEntity
  8
0
  6
Continuous
 62
     7
370
    25
100
AcDbLine
 10
-4.1598485726
 20
12.4786885648
 30
0.0
 11
-4.1756190046
 21
12.5216311189
 31
0.0
  0
SPLINE
  5
D1
330
1F
100
AcDbEntity
  8
0
  6
Continuous
 62
     7
370
    25
100
AcDbSpline
210
0.0
220
0.0
230
1.0
 70
     8
 71
     3
 72
    15
 73
    11
 74
     0
 42
0.000000001
 43
0.00000001
 40
0.0
 40
0.0
 40
0.0
 40
0.0
 40
0.0694880382082891
 40
0.1287030146703751
 40
0.2042319888026078
 40
0.2960749668664955
 40
0.4042319522901585
 40
0.5287029471537796
 40
0.6694879528143929
 40
0.7372249036494714
 40
0.7372249036494714
 40
0.7372249036494714
 40
0.7372249036494714
 10
-4.175619004631793
 20
12.5216311188627
 30
0.0
 10
-4.214599631802136
 20
12.61122206736506
 30
0.0
 10
-4.301762883700174
 20
12.7700529365676
 30
0.0
 10
-4.461174919825734
 20
13.00887722748181
 30
0.0
 10
-4.656630648662608
 20
13.26050751275694
 30
0.0
 10
-4.915533816446969
 20
13.54871886114168
 30
0.0
 10
-5.244021569346771
 20
13.86535978500314
 30
0.0
 10
-5.647266320008819
 20
14.20164612605119
 30
0.0
 10
-6.027526082638596
 20
14.47486875455214
 30
0.0
 10
-6.273819958650371
 20
14.63365269799819
 30
0.0
 10
-6.354619612059375
 20
14.68396436886274
 30
0.0
  0
ARC
  5
D2
330
1F
100
AcDbEntity
  8
0
  6
Continuous
 62
     7
370
    25
100
AcDbCircle
 10
0.0
 20
0.0
 30
0.0
 40
16.0
100
AcDbArc
 50
113.4009885963
 51
118.0275828322
  0
SPLINE
  5
D3
330
1F
100
AcDbEntity
  8
0
  6
Continuous
 62
     7
370
    25
100
AcDbSpline
210
0.0
220
0.0
230
1.0
 70
     8
 71
     3
 72
    15
 73
    11
 74
     0
 42
0.000000001
 43
0.00000001
 40
0.2627750963505296
 40
0.2627750963505296
 40
0.2627750963505296
 40
0.2627750963505296
 40
0.3305120471856071
 40
0.4712970528462204
 40
0.5957680477098415
 40
0.7039250331335045
 40
0.7957680111973922
 40
0.8712969853296249
 40
0.9305119617917109
 40
1.0
 40
1.0
 40
1.0
 40
1.0
 10
-7.518345108204794
 20
14.12354370665992
 30
0.0
 10
-7.529387619881558
 20
14.02900318015374
 30
0.0
 10
-7.558807053938622
 20
13.73744270451113
 30
0.0
 10
-7.58228108531081
 20
13.26979212806397
 30
0.0
 10
-7.570780826446334
 20
12.74485158270856
 30
0.0
 10
-7.528029747502211
 20
12.29060712900757
 30
0.0
 10
-7.46412052651294
 20
11.90849164502521
 30
0.0
 10
-7.3892527011871
 20
11.59878928608397
 30
0.0
 10
-7.301924130590093
 20
11.32525142773551
 30
0.0
 10
-7.23209055531506
 20
11.15807502611919
 30
0.0
 10
-7.186349554742513
 20
11.071739701861
 30
0.0
  0
LINE
  5
D4
330
1F
100
AcDbEntity
  8
0
  6
Continuous
 62
     7
370
    25
100
AcDbLine
 10
-7.1863495547
 20
11.0717397019
 30
0.0
 11
-7.1626084176
 21
11.0326356371
 31
0.0
  0
SPLINE
  5
D5
330
1F
100
AcDbEntity
  8
0
  6
Continuous
 62
     7
370
    25
100
AcDbSpline
210
0.0
220
0.0
230
1.0
 70
     8
 71
     3
 72
    15
 73
    11
 74
     0
 42
0.000000001
 43
0.00000001
 40
0.0
 40
0.0
 40
0.0
 40
0.0
 40
0.1894753412937083
 40
0.2791606818583319
 40
0.3671413701026148
 40
0.4553218377654729
 40
0.5463602754519935
 40
0.6437450818507183
 40
0.7512810629918107
 40
0.995798476764571
 40
0.995798476764571
 40
0.995798476764571
 40
0.995798476764571
 10
-7.162608417586905
 20
11.03263563705544
 30
0.0
 10
-7.079485732162842
 20
10.92160557125172
 30
0.0
 10
-6.966909307309621
 20
10.75017588315494
 30
0.0
 10
-6.848085032321592
 20
10.5086658271399
 30
0.0
 10
-6.77856426793472
 20
10.32650928517316
 30
0.0
 10
-6.728848751924176
 20
10.13682427696338
 30
0.0
 10
-6.703203123409176
 20
9.935235870688171
 30
0.0
 10
-6.710361883937717
 20
9.71753890988321
 30
0.0
 10
-6.786137215878191
 20
9.394583133559014
 30
0.0
 10
-6.938394085928834
 20
9.174119101528364
 30
0.0
 10
-7.0798457184935
 20
9.062327769526368
 30
0.0
  0
ARC
  5
D6
330
1F
100
AcDbEntity
  8
0
  6
Continuous
 62
     7
370
    25
100
AcDbCircle
 10
0.0
 20
0.0
 30
0.0
 40
11.5
100
AcDbArc
 50
127.9983482652
 51
129.1445088773
  0
SPLINE
  5
D7
330
1F
100
AcDbEntity
  8
0
  6
Continuous
 62
     7
370
    25
100
AcDbSpline
210
0.0
220
0.0
230
1.0
 70
     8
 71
     3
 72
    15
 73
    11
 74
     0
 42
0.000000001
 43
0.00000001
 40
0.0042015232046845
 40
0.0042015232046845
 40
0.0042015232046845
 40
0.0042015232046845
 40
0.2487189370081893
 40
0.3562549181492819
 40
0.4536397245480067
 40
0.5446781622345273
 40
0.6328586298973853
 40
0.7208393181416681
 40
0.8105246587062918
 40
1.0
 40
1.0
 40
1.0
 40
1.0
 10
-7.259702410252706
 20
8.91889684403636
 30
0.0
 10
-7.400166849558902
 20
8.80586761080541
 30
0.0
 10
-7.648983728963434
 20
8.706486000665619
 30
0.0
 10
-7.980703927359178
 20
8.704474935476124
 30
0.0
 10
-8.194535744923867
 20
8.745937791058003
 30
0.0
 10
-8.385363219764757
 20
8.815798070561849
 30
0.0
 10
-8.559229685736133
 20
8.906475999973408
 30
0.0
 10
-8.721349357465286
 20
9.014787377495077
 30
0.0
 10
-8.93036336349993
 20
9.184373523049993
 30
0.0
 10
-9.072444340202294
 20
9.332274116196173
 30
0.0
 10
-9.162194112852212
 20
9.438019256291481
 30
0.0
  0
LINE
  5
D8
330
1F
100
AcDbEntity
  8
0
  6
Continuous
 62
     7
370
    25
100
AcDbLine
 10
-9.1621941129
 20
9.4380192563
 30
0.0
 11
-9.1950348571
 21
9.4698666266
 31
0.0
  0
SPLINE
  5
D9
330
1F
100
AcDbEntity
  8
0
  6
Continuous
 62
     7
370
    25
100
AcDbSpline
210
0.0
220
0.0
230
1.0
 70
     8
 71
     3
 72
    15
 73
    11
 74
     0
 42
0.000000001
 43
0.00000001
 40
0.0
 40
0.0
 40
0.0
 40
0.0
 40
0.0694880382082891
 40
0.1287030146703751
 40
0.2042319888026078
 40
0.2960749668664955
 40
0.4042319522901585
 40
0.5287029471537796
 40
0.6694879528143929
 40
0.737224903649471
 40
0.737224903649471
 40
0.737224903649471
 40
0.737224903649471
 10
-9.19503485709786
 20
9.46986662659344
 30
0.0
 10
-9.269027244356943
 20
9.5336722217701
 30
0.0
 10
-9.416472752159104
 20
9.638955172536303
 30
0.0
 10
-9.663720010211128
 20
9.784962133254378
 30
0.0
 10
-9.948997825996718
 20
9.926868124048982
 30
0.0
 10
-10.30731173746503
 20
10.07420370181215
 30
0.0
 10
-10.74065432431762
 20
10.2169618220327
 30
0.0
 10
-11.24987446587729
 20
10.34498400582103
 30
0.0
 10
-11.71102352938821
 20
10.42616056046109
 30
0.0
 10
-12.00182041512403
 20
10.46235704238301
 30
0.0
 10
-12.09644780325881
 20
10.47262863578362
 30
0.0
  0
ARC
  5
DA
330
1F
100
AcDbEntity
  8
0
  6
Continuous
 62
     7
370
    25
100
AcDbCircle
 10
0.0
 20
0.0
 30
0.0
 40
16.0
100
AcDbArc
 50
139.1152743106
 51
143.7418685465
  0
SPLINE
  5
DB
330
1F
100
AcDbEntity
  8
0
  6
Continuous
 62
     7
370
    25
100
AcDbSpline
210
0.0
220
0.0
230
1.0
 70
     8
 71
     3
 72
    15
 73
    11
 74
     0
 42
0.000000001
 43
0.00000001
 40
0.2627750963505302
 40
0.2627750963505302
 40
0.2627750963505302
 40
0.2627750963505302
 40
0.3305120471856071
 40
0.4712970528462204
 40
0.5957680477098415
 40
0.7039250331335045
 40
0.7957680111973922
 40
0.8712969853296249
 40
0.9305119617917109
 40
1.0
 40
1.0
 40
1.0
 40
1.0
 10
-12.90177083367483
 20
9.462785496635615
 30
0.0
 10
-12.8707001957804
 20
9.372816259242878
 30
0.0
 10
-12.77070284062642
 20
9.097364733526668
 30
0.0
 10
-12.58894623138755
 20
8.66584112258723
 30
0.0
 10
-12.35082168954462
 20
8.197875809039228
 30
0.0
 10
-12.11521501630153
 20
7.807164695820878
 30
0.0
 10
-11.89184110285332
 20
7.490619712576224
 30
0.0
 10
-11.69001270551622
 20
7.244071460846197
 30
0.0
 10
-11.49264875335946
 20
7.035512813023958
 30
0.0
 10
-11.35719575387684
 20
6.91519173247598
 30
0.0
 10
-11.27852504306719
 20
6.857252569478479
 30
0.0
  0
LINE
  5
DC
330
1F
100
AcDbEntity
  8
0
  6
Continuous
 62
     7
370
    25
100
AcDbLine
 10
-11.2785250431
 20
6.8572525695
 30
0.0
 11
-11.2401683997
 21
6.8323219178
 31
0.0
  0
SPLINE
  5
DD
330
1F
100
AcDbEntity
  8
0
  6
Continuous
 62
     7
370
    25
100
AcDbSpline
210
0.0
220
0.0
230
1.0
 70
     8
 71
     3
 72
    15
 73
    11
 74
     0
 42
0.000000001
 43
0.00000001
 40
0.0
 40
0.0
 40
0.0
 40
0.0
 40
0.1894753412937083
 40
0.2791606818583319
 40
0.3671413701026148
 40
0.4553218377654729
 40
0.5463602754519935
 40
0.6437450818507183
 40
0.7512810629918107
 40
0.995798476764624
 40
0.995798476764624
 40
0.995798476764624
 40
0.995798476764624
 10
-11.24016839974886
 20
6.832321917840215
 30
0.0
 10
-11.11710330785994
 20
6.768352866707191
 30
0.0
 10
-10.94129489974024
 20
6.662745134849568
 30
0.0
 10
-10.72945064108666
 20
6.496708013824386
 30
0.0
 10
-10.58777983516806
 20
6.362754569626087
 30
0.0
 10
-10.46068646237424
 20
6.213425036500066
 30
0.0
 10
-10.350114618007
 20
6.04292737950815
 30
0.0
 10
-10.2621092670274
 20
5.843683125400338
 30
0.0
 10
-10.19025522225957
 20
5.519832340867735
 30
0.0
 10
-10.2317781635411
 20
5.255139331431925
 30
0.0
 10
-10.31071723966591
 20
5.093045258355318
 30
0.0
  0
ARC
  5
DE
330
1F
100
AcDbEntity
  8
0
  6
Continuous
 62
     7
370
    25
100
AcDbCircle
 10
0.0
 20
0.0
 30
0.0
 40
11.5
100
AcDbArc
 50
153.7126339795
 51
154.8587945916
  0
SPLINE
  5
DF
330
1F
100
AcDbEntity
  8
0
  6
Continuous
 62
     7
370
    25
100
AcDbSpline
210
0.0
220
0.0
230
1.0
 70
     8
 71
     3
 72
    15
 73
    11
 74
     0
 42
0.000000001
 43
0.00000001
 40
0.0042015232046583
 40
0.0042015232046583
 40
0.0042015232046583
 40
0.0042015232046583
 40
0.2487189370081893
 40
0.3562549181492819
 40
0.4536397245480067
 40
0.5446781622345273
 40
0.6328586298973853
 40
0.7208393181416681
 40
0.8105246587062918
 40
1.0
 40
1.0
 40
1.0
 40
1.0
 10
-10.41053017336811
 20
4.885781565868737
 30
0.0
 10
-10.48804271388653
 20
4.723000509425524
 30
0.0
 10
-10.66909891143167
 20
4.525503174655934
 30
0.0
 10
-10.96709591455664
 20
4.379763267508105
 30
0.0
 10
-11.17774178396377
 20
4.324341861014441
 30
0.0
 10
-11.37998263722277
 20
4.304486859640041
 30
0.0
 10
-11.57597458930372
 20
4.310747018682893
 30
0.0
 10
-11.76903391187433
 20
4.337991108515184
 30
0.0
 10
-12.03092969520301
 20
4.400095167621481
 30
0.0
 10
-12.22311189430498
 20
4.471702372161393
 30
0.0
 10
-12.34985474214194
 20
4.528034484376949
 30
0.0
  0
LINE
  5
E0
330
1F
100
AcDbEntity
  8
0
  6
Continuous
 62
     7
370
    25
100
AcDbLine
 10
-12.3498547421
 20
4.5280344844
 30
0.0
 11
-12.3932612864
 21
4.5424789086
 31
0.0
  0
SPLINE
  5
E1
330
1F
100
AcDbEntity
  8
0
  6
Continuous
 62
     7
370
    25
100
AcDbSpline
210
0.0
220
0.0
230
1.0
 70
     8
 71
     3
 72
    15
 73
    11
 74
     0
 42
0.000000001
 43
0.00000001
 40
0.0
 40
0.0
 40
0.0
 40
0.0
 40
0.0694880382082891
 40
0.1287030146703751
 40
0.2042319888026078
 40
0.2960749668664955
 40
0.4042319522901585
 40
0.5287029471537796
 40
0.6694879528143929
 40
0.7372249036494715
 40
0.7372249036494715
 40
0.7372249036494715
 40
0.7372249036494715
 10
-12.39326128641369
 20
4.54247890863487
 30
0.0
 10
-12.48761033400777
 20
4.56786166983682
 30
0.0
 10
-12.66613470659335
 20
4.598744122556782
 30
0.0
 10
-12.95224683482601
 20
4.623015283850645
 30
0.0
 10
-13.27084396744117
 20
4.627090758325086
 30
0.0
 10
-13.65760015799539
 20
4.60436894733841
 30
0.0
 10
-14.10996876487656
 20
4.544969267394912
 30
0.0
 10
-14.62430700312276
 20
4.439370930335198
 30
0.0
 10
-15.07500913986436
 20
4.312423398902799
 30
0.0
 10
-15.35271314571451
 20
4.21886326213524
 30
0.0
 10
-15.44242615382622
 20
4.187060363026093
 30
0.0
  0
ARC
  5
E2
330
1F
100
AcDbEntity
  8
0
  6
Continuous
 62
     7
370
    25
100
AcDbCircle
 10
0.0
 20
0.0
 30
0.0
 40
16.0
100
AcDbArc
 50
164.8295600249
 51
169.4561542608
  0
SPLINE
  5
E3
330
1F
100
AcDbEntity
  8
0
  6
Continuous
 62
     7
370
    25
100
AcDbSpline
210
0.0
220
0.0
230
1.0
 70
     8
 71
     3
 72
    15
 73
    11
 74
     0
 42
0.000000001
 43
0.00000001
 40
0.2627750963505296
 40
0.2627750963505296
 40
0.2627750963505296
 40
0.2627750963505296
 40
0.3305120471856071
 40
0.4712970528462204
 40
0.5957680477098415
 40
0.7039250331335045
 40
0.7957680111973922
 40
0.8712969853296249
 40
0.9305119617917109
 40
1.0
 40
1.0
 40
1.0
 40
1.0
 10
-15.72984261570013
 20
2.927806565554501
 30
0.0
 10
-15.66281274912586
 20
2.860228128141126
 30
0.0
 10
-15.45320430733615
 20
2.655442105210676
 30
0.0
 10
-15.10221618304451
 20
2.345514003215296
 30
0.0
 10
-14.68463084414098
 20
2.027210191040818
 30
0.0
 10
-14.30283336776094
 20
1.777417546035349
 30
0.0
 10
-13.96423670491347
 20
1.589138679629454
 30
0.0
 10
-13.67542232492059
 20
1.454576440081655
 30
0.0
 10
-13.40711334243875
 20
1.352304600790786
 30
0.0
 10
-13.23286904651808
 20
1.302669906954893
 30
0.0
 10
-13.13685032458014
 20
1.284602467026946
 30
0.0
  0
LINE
  5
E4
330
1F
100
AcDbEntity
  8
0
  6
Continuous
 62
     7
370
    25
100
AcDbLine
 10
-13.1368503246
 20
1.284602467
 30
0.0
 11
-13.0914751787
 21
1.2787830499
 31
0.0
  0
SPLINE
  5
E5
330
1F
100
AcDbEntity
  8
0
  6
Continuous
 62
     7
370
    25
100
AcDbSpline
210
0.0
220
0.0
230
1.0
 70
     8
 71
     3
 72
    15
 73
    11
 74
     0
 42
0.000000001
 43
0.00000001
 40
0.0
 40
0.0
 40
0.0
 40
0.0
 40
0.1894753412937083
 40
0.2791606818583319
 40
0.3671413701026148
 40
0.4553218377654729
 40
0.5463602754519935
 40
0.6437450818507183
 40
0.7512810629918107
 40
0.9957984770099049
 40
0.9957984770099049
 40
0.9957984770099049
 40
0.9957984770099049
 10
-13.09147517872163
 20
1.278783049867307
 30
0.0
 10
-12.95284223111077
 20
1.274544868510802
 30
0.0
 10
-12.74862285110133
 20
1.255675999380579
 30
0.0
 10
-12.48571696230786
 20
1.197997501475949
 30
0.0
 10
-12.29995575544813
 20
1.138778277500739
 30
0.0
 10
-12.12065692705078
 20
1.059380764900631
 30
0.0
 10
-11.94705897668291
 20
0.9537430091757934
 30
0.0
 10
-11.78132005327148
 20
0.8124142298615983
 30
0.0
 10
-11.57606820648163
 20
0.5518110566243104
 30
0.0
 10
-11.49863309123184
 20
0.2953147663336726
 30
0.0
 10
-11.49942475887629
 20
0.1150226711234734
 30
0.0
  0
ARC
  5
E6
330
1F
100
AcDbEntity
  8
0
  6
Continuous
 62
     7
370
    25
100
AcDbCircle
 10
0.0
 20
0.0
 30
0.0
 40
11.5
100
AcDbArc
 50
179.4269196965
 51
180.5730803059
  0
SPLINE
  5
E7
330
1F
100
AcDbEntity
  8
0
  6
Continuous
 62
     7
370
    25
100
AcDbSpline
210
0.0
220
0.0
230
1.0
 70
     8
 71
     3
 72
    15
 73
    11
 74
     0
 42
0.000000001
 43
0.00000001
 40
0.0042015232046352
 40
0.0042015232046352
 40
0.0042015232046352
 40
0.0042015232046352
 40
0.2487189370081893
 40
0.3562549181492819
 40
0.4536397245480067
 40
0.5446781622345273
 40
0.6328586298973853
 40
0.7208393181416681
 40
0.8105246587062918
 40
1.0
 40
1.0
 40
1.0
 40
1.0
 10
-11.49942475887421
 20
-0.1150226715978117
 30
0.0
 10
-11.49863309132622
 20
-0.295314766646061
 30
0.0
 10
-11.57606820657961
 20
-0.5518110567484794
 30
0.0
 10
-11.78132005327149
 20
-0.8124142298613641
 30
0.0
 10
-11.94705897668293
 20
-0.9537430091755565
 30
0.0
 10
-12.1206569270508
 20
-1.059380764900391
 30
0.0
 10
-12.29995575544815
 20
-1.138778277500495
 30
0.0
 10
-12.48571696230788
 20
-1.197997501475701
 30
0.0
 10
-12.74862285110136
 20
-1.255675999380326
 30
0.0
 10
-12.95284223111079
 20
-1.274544868510542
 30
0.0
 10
-13.09147517872166
 20
-1.278783049867048
 30
0.0
  0
LINE
  5
E8
330
1F
100
AcDbEntity
  8
0
  6
Continuous
 62
     7
370
    25
100
AcDbLine
 10
-13.0914751787
 20
-1.2787830499
 30
0.0
 11
-13.1368503246
 21
-1.284602467
 31
0.0
  0
MTEXT
  5
EA
330
1F
100
AcDbEntity
  8
0
  6
Continuous
 62
     7
100
AcDbMText
 10
-15.7298426157
 20
-17.0195663917
 30
0.0
 40
4.83362
 41
0.0
 71
     1
 72
     1
  1
SOLIDWORKS Educational Product.
  7
SLDTEXTSTYLE0
 73
     1
 44
1.0
  0
MTEXT
  5
EB
330
1F
100
AcDbEntity
  8
0
  6
Continuous
 62
     7
100
AcDbMText
 10
-15.7298426157
 20
-24.2699963917
 30
0.0
 40
4.83362
 41
0.0
 71
     1
 72
     1
  1
For Instructional Use Only.
  7
SLDTEXTSTYLE0
 73
     1
 44
1.0
  0
ENDSEC
  0
SECTION
  2
OBJECTS
  0
DICTIONARY
  5
C
330
0
100
AcDbDictionary
281
     1
  3
ACAD_GROUP
350
D
  3
ACAD_LAYOUT
350
1A
  3
ACAD_MLINESTYLE
350
17
  3
ACAD_PLOTSETTINGS
350
19
  3
ACAD_PLOTSTYLENAME
350
E
  3
ACAD_SCALELIST
350
47
  0
DICTIONARY
  5
D
102
{ACAD_REACTORS
330
C
102
}
330
C
100
AcDbDictionary
281
     1
  0
DICTIONARY
  5
1A
102
{ACAD_REACTORS
330
C
102
}
330
C
100
AcDbDictionary
281
     1
  3
Layout1
350
1E
  3
Layout2
350
26
  3
Model
350
22
  0
DICTIONARY
  5
17
102
{ACAD_REACTORS
330
C
102
}
330
C
100
AcDbDictionary
281
     1
  3
Standard
350
18
  0
DICTIONARY
  5
19
102
{ACAD_REACTORS
330
C
102
}
330
C
100
AcDbDictionary
281
     1
  0
ACDBDICTIONARYWDFLT
  5
E
102
{ACAD_REACTORS
330
C
102
}
330
C
100
AcDbDictionary
281
     1
  3
Normal
350
F
100
AcDbDictionaryWithDefault
340
F
  0
DICTIONARY
  5
47
102
{ACAD_REACTORS
330
C
102
}
330
C
100
AcDbDictionary
281
     1
  3
A0
350
48
  3
A1
350
49
  3
A2
350
4A
  3
A3
350
4B
  3
A4
350
4C
  3
A5
350
4D
  3
A6
350
4E
  3
A7
350
4F
  3
A8
350
50
  3
A9
350
51
  3
B0
350
52
  3
B1
350
53
  3
B2
350
54
  3
B3
350
55
  3
B4
350
56
  3
B5
350
57
  3
B6
350
58
  3
B7
350
59
  3
B8
350
5A
  3
B9
350
5B
  3
C0
350
5C
  3
C1
350
5D
  3
C2
350
5E
  3
C3
350
5F
  3
C4
350
60
  3
C5
350
61
  3
C6
350
62
  3
C7
350
63
  3
C8
350
64
  3
C9
350
65
  3
D0
350
66
  3
D1
350
67
  3
D2
350
68
  0
LAYOUT
  5
1E
102
{ACAD_REACTORS
330
1A
102
}
330
1A
100
AcDbPlotSettings
  1

  2
none_device
  4

  6

 40
0.0
 41
0.0
 42
0.0
 43
0.0
 44
0.0
 45
0.0
 46
0.0
 47
0.0
 48
0.0
 49
0.0
140
0.0
141
0.0
142
1.0
143
1.0
 70
   688
 72
     1
 73
     0
 74
     5
  7

 75
    16
147
1.0
148
0.0
149
0.0
100
AcDbLayout
  1
Layout1
 70
     1
 71
     1
 10
0.0
 20
0.0
 11
420.0
 21
297.0
 12
0.0
 22
0.0
 32
0.0
 14
1.0000000000E+20
 24
1.0000000000E+20
 34
1.0000000000E+20
 15
-1.0000000000E+20
 25
-1.0000000000E+20
 35
-1.0000000000E+20
146
0.0
 13
0.0
 23
0.0
 33
0.0
 16
1.0
 26
0.0
 36
0.0
 17
0.0
 27
1.0
 37
0.0
 76
     0
330
1B
  0
LAYOUT
  5
26
102
{ACAD_REACTORS
330
1A
102
}
330
1A
100
AcDbPlotSettings
  1

  2
none_device
  4

  6

 40
0.0
 41
0.0
 42
0.0
 43
0.0
 44
0.0
 45
0.0
 46
0.0
 47
0.0
 48
0.0
 49
0.0
140
0.0
141
0.0
142
1.0
143
1.0
 70
   688
 72
     1
 73
     0
 74
     5
  7

 75
    16
147
1.0
148
0.0
149
0.0
100
AcDbLayout
  1
Layout2
 70
     1
 71
     2
 10
0.0
 20
0.0
 11
0.0
 21
0.0
 12
0.0
 22
0.0
 32
0.0
 14
0.0
 24
0.0
 34
0.0
 15
0.0
 25
0.0
 35
0.0
146
0.0
 13
0.0
 23
0.0
 33
0.0
 16
1.0
 26
0.0
 36
0.0
 17
0.0
 27
1.0
 37
0.0
 76
     0
330
23
  0
LAYOUT
  5
22
102
{ACAD_REACTORS
330
1A
102
}
330
1A
100
AcDbPlotSettings
  1

  2
none_device
  4
ANSI_A_(11.00_x_8.50_Inches)
  6

 40
6.35
 41
19.05
 42
6.35000508
 43
19.05000254
 44
279.4
 45
215.9
 46
133.34999746
 47
88.89999873
 48
0.0
 49
0.0
140
0.0
141
0.0
142
0.26296875
143
1.0
 70
  1696
 72
     0
 73
     0
 74
     0
  7

 75
     0
147
0.0179189148
148
-1300.4909072572
149
0.0
100
AcDbLayout
  1
Model
 70
     1
 71
     0
 10
0.0
 20
0.0
 11
420.0
 21
297.0
 12
0.0
 22
0.0
 32
0.0
 14
-15.7298426157
 24
-16.0
 34
0.0
 15
15.7298426157
 25
16.0
 35
0.0
146
0.0
 13
0.0
 23
0.0
 33
0.0
 16
1.0
 26
0.0
 36
0.0
 17
0.0
 27
1.0
 37
0.0
 76
     0
330
1F
331
29
  0
MLINESTYLE
  5
18
102
{ACAD_REACTORS
330
17
102
}
330
17
100
AcDbMlineStyle
  2
Standard
 70
     0
  3

 62
   256
 51
90.0
 52
90.0
 71
     2
 49
0.5
 62
   256
  6
BYLAYER
 49
-0.5
 62
   256
  6
BYLAYER
  0
ACDBPLACEHOLDER
  5
F
102
{ACAD_REACTORS
330
E
102
}
330
E
  0
SCALE
  5
48
102
{ACAD_REACTORS
330
47
102
}
330
47
100
AcDbScale
 70
     0
300
1:1
140
1.0
141
1.0
290
     1
  0
SCALE
  5
49
102
{ACAD_REACTORS
330
47
102
}
330
47
100
AcDbScale
 70
     0
300
1:2
140
1.0
141
2.0
290
     0
  0
SCALE
  5
4A
102
{ACAD_REACTORS
330
47
102
}
330
47
100
AcDbScale
 70
     0
300
1:4
140
1.0
141
4.0
290
     0
  0
SCALE
  5
4B
102
{ACAD_REACTORS
330
47
102
}
330
47
100
AcDbScale
 70
     0
300
1:5
140
1.0
141
5.0
290
     0
  0
SCALE
  5
4C
102
{ACAD_REACTORS
330
47
102
}
330
47
100
AcDbScale
 70
     0
300
1:8
140
1.0
141
8.0
290
     0
  0
SCALE
  5
4D
102
{ACAD_REACTORS
330
47
102
}
330
47
100
AcDbScale
 70
     0
300
1:10
140
1.0
141
10.0
290
     0
  0
SCALE
  5
4E
102
{ACAD_REACTORS
330
47
102
}
330
47
100
AcDbScale
 70
     0
300
1:16
140
1.0
141
16.0
290
     0
  0
SCALE
  5
4F
102
{ACAD_REACTORS
330
47
102
}
330
47
100
AcDbScale
 70
     0
300
1:20
140
1.0
141
20.0
290
     0
  0
SCALE
  5
50
102
{ACAD_REACTORS
330
47
102
}
330
47
100
AcDbScale
 70
     0
300
1:30
140
1.0
141
30.0
290
     0
  0
SCALE
  5
51
102
{ACAD_REACTORS
330
47
102
}
330
47
100
AcDbScale
 70
     0
300
1:40
140
1.0
141
40.0
290
     0
  0
SCALE
  5
52
102
{ACAD_REACTORS
330
47
102
}
330
47
100
AcDbScale
 70
     0
300
1:50
140
1.0
141
50.0
290
     0
  0
SCALE
  5
53
102
{ACAD_REACTORS
330
47
102
}
330
47
100
AcDbScale
 70
     0
300
1:100
140
1.0
141
100.0
290
     0
  0
SCALE
  5
54
102
{ACAD_REACTORS
330
47
102
}
330
47
100
AcDbScale
 70
     0
300
2:1
140
2.0
141
1.0
290
     0
  0
SCALE
  5
55
102
{ACAD_REACTORS
330
47
102
}
330
47
100
AcDbScale
 70
     0
300
4:1
140
4.0
141
1.0
290
     0
  0
SCALE
  5
56
102
{ACAD_REACTORS
330
47
102
}
330
47
100
AcDbScale
 70
     0
300
8:1
140
8.0
141
1.0
290
     0
  0
SCALE
  5
57
102
{ACAD_REACTORS
330
47
102
}
330
47
100
AcDbScale
 70
     0
300
10:1
140
10.0
141
1.0
290
     0
  0
SCALE
  5
58
102
{ACAD_REACTORS
330
47
102
}
330
47
100
AcDbScale
 70
     0
300
100:1
140
100.0
141
1.0
290
     0
  0
SCALE
  5
59
102
{ACAD_REACTORS
330
47
102
}
330
47
100
AcDbScale
 70
     0
300
1/128" = 1'-0"
140
0.0078125
141
12.0
290
     0
  0
SCALE
  5
5A
102
{ACAD_REACTORS
330
47
102
}
330
47
100
AcDbScale
 70
     0
300
1/64" = 1'-0"
140
0.015625
141
12.0
290
     0
  0
SCALE
  5
5B
102
{ACAD_REACTORS
330
47
102
}
330
47
100
AcDbScale
 70
     0
300
1/32" = 1'-0"
140
0.03125
141
12.0
290
     0
  0
SCALE
  5
5C
102
{ACAD_REACTORS
330
47
102
}
330
47
100
AcDbScale
 70
     0
300
1/16" = 1'-0"
140
0.0625
141
12.0
290
     0
  0
SCALE
  5
5D
102
{ACAD_REACTORS
330
47
102
}
330
47
100
AcDbScale
 70
     0
300
3/32" = 1'-0"
140
0.09375
141
12.0
290
     0
  0
SCALE
  5
5E
102
{ACAD_REACTORS
330
47
102
}
330
47
100
AcDbScale
 70
     0
300
1/8" = 1'-0"
140
0.125
141
12.0
290
     0
  0
SCALE
  5
5F
102
{ACAD_REACTORS
330
47
102
}
330
47
100
AcDbScale
 70
     0
300
3/16" = 1'-0"
140
0.1875
141
12.0
290
     0
  0
SCALE
  5
60
102
{ACAD_REACTORS
330
47
102
}
330
47
100
AcDbScale
 70
     0
300
1/4" = 1'-0"
140
0.25
141
12.0
290
     0
  0
SCALE
  5
61
102
{ACAD_REACTORS
330
47
102
}
330
47
100
AcDbScale
 70
     0
300
3/8" = 1'-0"
140
0.375
141
12.0
290
     0
  0
SCALE
  5
62
102
{ACAD_REACTORS
330
47
102
}
330
47
100
AcDbScale
 70
     0
300
1/2" = 1'-0"
140
0.5
141
12.0
290
     0
  0
SCALE
  5
63
102
{ACAD_REACTORS
330
47
102
}
330
47
100
AcDbScale
 70
     0
300
3/4" = 1'-0"
140
0.75
141
12.0
290
     0
  0
SCALE
  5
64
102
{ACAD_REACTORS
330
47
102
}
330
47
100
AcDbScale
 70
     0
300
1" = 1'-0"
140
1.0
141
12.0
290
     0
  0
SCALE
  5
65
102
{ACAD_REACTORS
330
47
102
}
330
47
100
AcDbScale
 70
     0
300
1-1/2" = 1'-0"
140
1.5
141
12.0
290
     0
  0
SCALE
  5
66
102
{ACAD_REACTORS
330
47
102
}
330
47
100
AcDbScale
 70
     0
300
3" = 1'-0"
140
3.0
141
12.0
290
     0
  0
SCALE
  5
67
102
{ACAD_REACTORS
330
47
102
}
330
47
100
AcDbScale
 70
     0
300
6" = 1'-0"
140
6.0
141
12.0
290
     0
  0
SCALE
  5
68
102
{ACAD_REACTORS
330
47
102
}
330
47
100
AcDbScale
 70
     0
300
1'-0" = 1'-0"
140
12.0
141
12.0
290
     0
  0
ENDSEC
  0
EOF
