0
SECTION
2
HEADER
9
$INSUNITS
70
4
9
$ACADVER
1
AC1014
9
$HANDSEED
5
FFFF
0
ENDSEC
0
SECTION
2
TABLES
0
TABLE
2
VPORT
5
8
100
AcDbSymbolTable
0
ENDTAB
0
TABLE
2
LTYPE
5
5
100
AcDbSymbolTable
0
LTYPE
5
14
100
AcDbSymbolTableRecord
100
AcDbLinetypeTableRecord
2
BYBLOCK
70
0
0
LTYPE
5
15
100
AcDbSymbolTableRecord
100
AcDbLinetypeTableRecord
2
BYLAYER
70
0
0
ENDTAB
0
TABLE
2
LAYER
5
2
100
AcDbSymbolTable
70
2
0
LAYER
5
50
100
AcDbSymbolTableRecord
100
AcDbLayerTableRecord
2
0
70
0
6
CONTINUOUS
0
ENDTAB
0
TABLE
2
STYLE
5
3
100
AcDbSymbolTable
70
1
0
STYLE
5
11
100
AcDbSymbolTableRecord
100
AcDbTextStyleTableRecord
2
STANDARD
70
0
0
ENDTAB
0
TABLE
2
VIEW
5
6
100
AcDbSymbolTable
70
0
0
ENDTAB
0
TABLE
2
UCS
5
7
100
AcDbSymbolTable
70
0
0
ENDTAB
0
TABLE
2
APPID
5
9
100
AcDbSymbolTable
70
2
0
APPID
5
12
100
AcDbSymbolTableRecord
100
AcDbRegAppTableRecord
2
ACAD
70
0
0
ENDTAB
0
TABLE
2
DIMSTYLE
5
A
100
AcDbSymbolTable
70
1
0
ENDTAB
0
TABLE
2
BLOCK_RECORD
5
1
100
AcDbSymbolTable
70
1
0
BLOCK_RECORD
5
1F
100
AcDbSymbolTableRecord
100
AcDbBlockTableRecord
2
*MODEL_SPACE
0
BLOCK_RECORD
5
1B
100
AcDbSymbolTableRecord
100
AcDbBlockTableRecord
2
*PAPER_SPACE
0
ENDTAB
0
ENDSEC
0
SECTION
2
BLOCKS
0
BLOCK
5
20
100
AcDbEntity
100
AcDbBlockBegin
2
*MODEL_SPACE
0
ENDBLK
5
21
100
AcDbEntity
100
AcDbBlockEnd
0
BLOCK
5
1C
100
AcDbEntity
100
AcDbBlockBegin
2
*PAPER_SPACE
0
ENDBLK
5
1D
100
AcDbEntity
100
AcDbBlockEnd
0
ENDSEC
0
SECTION
2
ENTITIES
0
LINE
5
100
100
AcDbEntity
8
0
100
AcDbLine
10
-20
20
28.499999999999996
30
0
11
-20
21
-28.499999999999996
31
0
0
ARC
5
101
100
AcDbEntity
8
0
100
AcDbCircle
10
-15.999999999999995
20
-28.499999999999986
30
0
40
4.0000000000000053
210
0
220
0
230
1
100
AcDbArc
50
180
51
269.99999999999994
0
LINE
5
102
100
AcDbEntity
8
0
100
AcDbLine
10
-15.999999999999998
20
-32.499999999999993
30
0
11
-7.8095246169504868
21
-32.5
31
0
0
ARC
5
103
100
AcDbEntity
8
0
100
AcDbCircle
10
16.000000000000004
20
-28.499999999999996
30
0
40
3.9999999999999991
210
0
220
0
230
1
100
AcDbArc
50
-90.000000000000099
51
0
0
ARC
5
104
100
AcDbEntity
8
0
100
AcDbCircle
10
16.000000000000007
20
28.499999999999996
30
0
40
3.9999999999999947
210
-0
220
0
230
1
100
AcDbArc
50
0
51
90.000000000000142
0
LINE
5
105
100
AcDbEntity
8
0
100
AcDbLine
10
15.999999999999996
20
32.499999999999993
30
0
11
-16
21
32.5
31
0
0
ARC
5
106
100
AcDbEntity
8
0
100
AcDbCircle
10
-16.000000000000004
20
28.499999999999996
30
0
40
4.0000000000000036
210
0
220
-0
230
1
100
AcDbArc
50
89.999999999999943
51
180
0
CIRCLE
5
107
100
AcDbEntity
8
0
100
AcDbCircle
10
0
20
13.900000000000002
30
0
40
0.49999999999999933
210
0
220
-0
230
1
0
CIRCLE
5
108
100
AcDbEntity
8
0
100
AcDbCircle
10
0
20
-13.900000000000002
30
0
40
0.49999999999999933
210
0
220
-0
230
1
0
LWPOLYLINE
5
109
100
AcDbEntity
8
0
100
AcDbPolyline
90
8
70
1
43
0.0
10
6.0000000000000009
20
12
42
-0.41421356237309243
10
6.5000000000000018
20
11.5
10
6.5000000000000018
20
-11.5
42
-0.41421356237309243
10
6.0000000000000009
20
-12
10
-6.0000000000000009
20
-12
42
-0.41421356237309243
10
-6.5000000000000018
20
-11.5
10
-6.5000000000000018
20
11.5
42
-0.41421356237309243
10
-6.0000000000000009
20
12
0
CIRCLE
5
110
100
AcDbEntity
8
0
100
AcDbCircle
10
-12.500000000000002
20
-12.5
30
0
40
1.399999999999999
210
0
220
0
230
1
0
CIRCLE
5
111
100
AcDbEntity
8
0
100
AcDbCircle
10
-12.500000000000004
20
25
30
0
40
3.1749999999999994
210
0
220
0
230
1
0
CIRCLE
5
112
100
AcDbEntity
8
0
100
AcDbCircle
10
-12.5
20
-25
30
0
40
3.1749999999999994
210
0
220
0
230
1
0
CIRCLE
5
113
100
AcDbEntity
8
0
100
AcDbCircle
10
-12.500000000000004
20
12.5
30
0
40
1.399999999999999
210
0
220
0
230
1
0
CIRCLE
5
114
100
AcDbEntity
8
0
100
AcDbCircle
10
-4.4408920985006262e-15
20
-25
30
0
40
1.1000000000000001
210
0
220
0
230
1
0
CIRCLE
5
115
100
AcDbEntity
8
0
100
AcDbCircle
10
12.500000000000002
20
-12.5
30
0
40
1.399999999999999
210
0
220
0
230
1
0
CIRCLE
5
116
100
AcDbEntity
8
0
100
AcDbCircle
10
12.499999999999996
20
25
30
0
40
3.1749999999999989
210
0
220
0
230
1
0
CIRCLE
5
117
100
AcDbEntity
8
0
100
AcDbCircle
10
12.5
20
-25
30
0
40
3.1749999999999989
210
0
220
0
230
1
0
CIRCLE
5
118
100
AcDbEntity
8
0
100
AcDbCircle
10
12.500000000000004
20
12.5
30
0
40
1.399999999999999
210
0
220
0
230
1
0
CIRCLE
5
119
100
AcDbEntity
8
0
100
AcDbCircle
10
-4.4408920985006262e-15
20
25
30
0
40
1.1000000000000001
210
0
220
0
230
1
0
LINE
5
120
100
AcDbEntity
8
0
100
AcDbLine
10
20
20
-28.499999999999996
30
0
11
20
21
28.499999999999996
31
0
0
LINE
5
121
100
AcDbEntity
8
0
100
AcDbLine
10
-7.8095246169504868
20
-32.5
30
0
11
-7.5999999999999996
21
-38.5
31
0
0
LINE
5
122
100
AcDbEntity
8
0
100
AcDbLine
10
-7.5999999999999996
20
-38.5
30
0
11
7.5999999999999996
21
-38.5
31
0
0
LINE
5
123
100
AcDbEntity
8
0
100
AcDbLine
10
7.5999999999999996
20
-38.5
30
0
11
7.8095246169504859
21
-32.5
31
0
0
LINE
5
124
100
AcDbEntity
8
0
100
AcDbLine
10
7.8095246169504859
20
-32.5
30
0
11
15.999999999999995
21
-32.499999999999993
31
0
0
ENDSEC
0
SECTION
2
OBJECTS
0
DICTIONARY
5
C
100
AcDbDictionary
3
ACAD_GROUP
350
D
3
ACAD_MLINESTYLE
350
17
0
DICTIONARY
5
D
100
AcDbDictionary
0
DICTIONARY
5
1A
330
C
100
AcDbDictionary
0
DICTIONARY
5
17
100
AcDbDictionary
0
ENDSEC
0
EOF
