  0
SECTION
  2
HEADER
  9
$ACADVER
  1
AC1015
  9
$ACADMAINTVER
 70
     6
  9
$DWGCODEPAGE
  3
ANSI_1252
  9
$INSBASE
 10
0.0
 20
0.0
 30
0.0
  9
$EXTMIN
 10
-22.0
 20
-22.0
 30
0.0
  9
$EXTMAX
 10
22.0
 20
22.0
 30
0.0
  9
$LIMMIN
 10
0.0
 20
0.0
  9
$LIMMAX
 10
420.0
 20
297.0
  9
$ORTHOMODE
 70
     0
  9
$REGENMODE
 70
     1
  9
$FILLMODE
 70
     1
  9
$QTEXTMODE
 70
     0
  9
$MIRRTEXT
 70
     1
  9
$LTSCALE
 40
1.0
  9
$ATTMODE
 70
     1
  9
$TEXTSIZE
 40
3.5
  9
$TRACEWID
 40
1.0
  9
$TEXTSTYLE
  7
Standard
  9
$CLAYER
  8
0
  9
$CELTYPE
  6
ByLayer
  9
$CECOLOR
 62
   256
  9
$CELTSCALE
 40
1.0
  9
$DISPSILH
 70
     0
  9
$DIMSCALE
 40
1.0
  9
$DIMASZ
 40
6.0
  9
$DIMEXO
 40
0.0
  9
$DIMDLI
 40
3.75
  9
$DIMRND
 40
0.0
  9
$DIMDLE
 40
0.0
  9
$DIMEXE
 40
1.0
  9
$DIMTP
 40
0.0
  9
$DIMTM
 40
0.0
  9
$DIMTXT
 40
3.5
  9
$DIMCEN
 40
2.5
  9
$DIMTSZ
 40
0.0
  9
$DIMTOL
 70
     0
  9
$DIMLIM
 70
     0
  9
$DIMTIH
 70
     1
  9
$DIMTOH
 70
     1
  9
$DIMSE1
 70
     0
  9
$DIMSE2
 70
     0
  9
$DIMTAD
 70
     1
  9
$DIMZIN
 70
     0
  9
$DIMBLK
  1

  9
$DIMASO
 70
     1
  9
$DIMSHO
 70
     1
  9
$DIMPOST
  1

  9
$DIMAPOST
  1

  9
$DIMALT
 70
     0
  9
$DIMALTD
 70
     3
  9
$DIMALTF
 40
0.0393700787
  9
$DIMLFAC
 40
1.0
  9
$DIMTOFL
 70
     1
  9
$DIMTVP
 40
0.0
  9
$DIMTIX
 70
     0
  9
$DIMSOXD
 70
     0
  9
$DIMSAH
 70
     0
  9
$DIMBLK1
  1

  9
$DIMBLK2
  1

  9
$DIMSTYLE
  2
ISO-25
  9
$DIMCLRD
 70
     0
  9
$DIMCLRE
 70
     0
  9
$DIMCLRT
 70
     0
  9
$DIMTFAC
 40
1.0
  9
$DIMGAP
 40
1.524
  9
$DIMJUST
 70
     0
  9
$DIMSD1
 70
     0
  9
$DIMSD2
 70
     0
  9
$DIMTOLJ
 70
     0
  9
$DIMTZIN
 70
     0
  9
$DIMALTZ
 70
     0
  9
$DIMALTTZ
 70
     0
  9
$DIMUPT
 70
     0
  9
$DIMDEC
 70
     2
  9
$DIMTDEC
 70
     2
  9
$DIMALTU
 70
     2
  9
$DIMALTTD
 70
     3
  9
$DIMTXSTY
  7
Standard
  9
$DIMAUNIT
 70
     0
  9
$DIMADEC
 70
     2
  9
$DIMALTRND
 40
0.0
  9
$DIMAZIN
 70
     0
  9
$DIMDSEP
 70
    44
  9
$DIMATFIT
 70
     3
  9
$DIMFRAC
 70
     0
  9
$DIMLDRBLK
  1

  9
$DIMLUNIT
 70
     2
  9
$DIMLWD
 70
    -2
  9
$DIMLWE
 70
    -2
  9
$DIMTMOVE
 70
     0
  9
$LUNITS
 70
     2
  9
$LUPREC
 70
     2
  9
$SKETCHINC
 40
1.0
  9
$FILLETRAD
 40
0.0
  9
$AUNITS
 70
     0
  9
$AUPREC
 70
     2
  9
$MENU
  1
.
  9
$ELEVATION
 40
0.0
  9
$PELEVATION
 40
0.0
  9
$THICKNESS
 40
0.0
  9
$LIMCHECK
 70
     0
  9
$CHAMFERA
 40
0.0
  9
$CHAMFERB
 40
0.0
  9
$CHAMFERC
 40
0.0
  9
$CHAMFERD
 40
0.0
  9
$SKPOLY
 70
     0
  9
$TDCREATE
 40
2459998.472057465
  9
$TDUCREATE
 40
2459998.680390798
  9
$TDUPDATE
 40
2459998.472082581
  9
$TDUUPDATE
 40
2459998.680415914
  9
$TDINDWG
 40
0.0000000116
  9
$TDUSRTIMER
 40
0.0000000116
  9
$USRTIMER
 70
     1
  9
$ANGBASE
 50
0.0
  9
$ANGDIR
 70
     0
  9
$PDMODE
 70
     0
  9
$PDSIZE
 40
-1.0
  9
$PLINEWID
 40
0.0
  9
$SPLFRAME
 70
     0
  9
$SPLINETYPE
 70
     6
  9
$SPLINESEGS
 70
     8
  9
$HANDSEED
  5
10E
  9
$SURFTAB1
 70
     6
  9
$SURFTAB2
 70
     6
  9
$SURFTYPE
 70
     6
  9
$SURFU
 70
     6
  9
$SURFV
 70
     6
  9
$UCSBASE
  2

  9
$UCSNAME
  2

  9
$UCSORG
 10
0.0
 20
0.0
 30
0.0
  9
$UCSXDIR
 10
1.0
 20
0.0
 30
0.0
  9
$UCSYDIR
 10
0.0
 20
1.0
 30
0.0
  9
$UCSORTHOREF
  2

  9
$UCSORTHOVIEW
 70
     0
  9
$UCSORGTOP
 10
0.0
 20
0.0
 30
0.0
  9
$UCSORGBOTTOM
 10
0.0
 20
0.0
 30
0.0
  9
$UCSORGLEFT
 10
0.0
 20
0.0
 30
0.0
  9
$UCSORGRIGHT
 10
0.0
 20
0.0
 30
0.0
  9
$UCSORGFRONT
 10
0.0
 20
0.0
 30
0.0
  9
$UCSORGBACK
 10
0.0
 20
0.0
 30
0.0
  9
$PUCSBASE
  2

  9
$PUCSNAME
  2

  9
$PUCSORG
 10
0.0
 20
0.0
 30
0.0
  9
$PUCSXDIR
 10
1.0
 20
0.0
 30
0.0
  9
$PUCSYDIR
 10
0.0
 20
1.0
 30
0.0
  9
$PUCSORTHOREF
  2

  9
$PUCSORTHOVIEW
 70
     0
  9
$PUCSORGTOP
 10
0.0
 20
0.0
 30
0.0
  9
$PUCSORGBOTTOM
 10
0.0
 20
0.0
 30
0.0
  9
$PUCSORGLEFT
 10
0.0
 20
0.0
 30
0.0
  9
$PUCSORGRIGHT
 10
0.0
 20
0.0
 30
0.0
  9
$PUCSORGFRONT
 10
0.0
 20
0.0
 30
0.0
  9
$PUCSORGBACK
 10
0.0
 20
0.0
 30
0.0
  9
$USERI1
 70
     0
  9
$USERI2
 70
     0
  9
$USERI3
 70
     0
  9
$USERI4
 70
     0
  9
$USERI5
 70
     0
  9
$USERR1
 40
0.0
  9
$USERR2
 40
0.0
  9
$USERR3
 40
0.0
  9
$USERR4
 40
0.0
  9
$USERR5
 40
0.0
  9
$WORLDVIEW
 70
     1
  9
$SHADEDGE
 70
     3
  9
$SHADEDIF
 70
    70
  9
$TILEMODE
 70
     1
  9
$MAXACTVP
 70
    64
  9
$PINSBASE
 10
0.0
 20
0.0
 30
0.0
  9
$PLIMCHECK
 70
     0
  9
$PEXTMIN
 10
1.0000000000E+20
 20
1.0000000000E+20
 30
1.0000000000E+20
  9
$PEXTMAX
 10
-1.0000000000E+20
 20
-1.0000000000E+20
 30
-1.0000000000E+20
  9
$PLIMMIN
 10
0.0
 20
0.0
  9
$PLIMMAX
 10
420.0
 20
297.0
  9
$UNITMODE
 70
     0
  9
$VISRETAIN
 70
     1
  9
$PLINEGEN
 70
     0
  9
$PSLTSCALE
 70
     1
  9
$TREEDEPTH
 70
  3020
  9
$CMLSTYLE
  2
Standard
  9
$CMLJUST
 70
     0
  9
$CMLSCALE
 40
20.0
  9
$PROXYGRAPHICS
 70
     1
  9
$MEASUREMENT
 70
     1
  9
$CELWEIGHT
370
    -1
  9
$ENDCAPS
280
     0
  9
$JOINSTYLE
280
     0
  9
$LWDISPLAY
290
     1
  9
$INSUNITS
 70
     4
  9
$HYPERLINKBASE
  1

  9
$STYLESHEET
  1

  9
$XEDIT
290
     1
  9
$CEPSNTYPE
380
     0
  9
$PSTYLEMODE
290
     1
  9
$FINGERPRINTGUID
  2
{24b08fd5-c973-479b-8c80-d13a0c1c8abe}
  9
$VERSIONGUID
  2
{FAEB1C32-E019-11D5-929B-00C0DF256EC4}
  9
$EXTNAMES
290
     1
  9
$PSVPSCALE
 40
0.0
  9
$OLESTARTUP
290
     0
  0
ENDSEC
  0
SECTION
  2
CLASSES
  0
CLASS
  1
ACDBDICTIONARYWDFLT
  2
AcDbDictionaryWithDefault
  3
ObjectDBX Classes
 90
        0
280
     0
281
     0
  0
CLASS
  1
VISUALSTYLE
  2
AcDbVisualStyle
  3
ObjectDBX Classes
 90
     4095
280
     0
281
     0
  0
CLASS
  1
MATERIAL
  2
AcDbMaterial
  3
ObjectDBX Classes
 90
     1153
280
     0
281
     0
  0
CLASS
  1
SCALE
  2
AcDbScale
  3
ObjectDBX Classes
 90
     1153
280
     0
281
     0
  0
CLASS
  1
TABLESTYLE
  2
AcDbTableStyle
  3
ObjectDBX Classes
 90
     4095
280
     0
281
     0
  0
CLASS
  1
MLEADERSTYLE
  2
AcDbMLeaderStyle
  3
ACDB_MLEADERSTYLE_CLASS
 90
     4095
280
     0
281
     0
  0
CLASS
  1
SUN
  2
AcDbSun
  3
SCENEOE
 90
     1153
280
     0
281
     0
  0
CLASS
  1
ACDBPLACEHOLDER
  2
AcDbPlaceHolder
  3
ObjectDBX Classes
 90
        0
280
     0
281
     0
  0
CLASS
  1
LAYOUT
  2
AcDbLayout
  3
ObjectDBX Classes
 90
        0
280
     0
281
     0
  0
ENDSEC
  0
SECTION
  2
TABLES
  0
TABLE
  2
VPORT
  5
8
330
0
100
AcDbSymbolTable
 70
     1
  0
VPORT
  5
29
330
8
100
AcDbSymbolTableRecord
100
AcDbViewportTableRecord
  2
*Active
 70
     0
 10
0.0
 20
0.0
 11
1.0
 21
1.0
 12
0.0
 22
0.0
 13
0.0
 23
0.0
 14
10.0
 24
10.0
 15
10.0
 25
10.0
 16
0.0
 26
0.0
 36
1.0
 17
0.0
 27
0.0
 37
0.0
 40
44.88
 41
1.0
 42
50.0
 43
0.0
 44
0.0
 50
0.0
 51
0.0
 71
     0
 72
   100
 73
     1
 74
     3
 75
     0
 76
     0
 77
     0
 78
     0
281
     0
 65
     1
110
0.0
120
0.0
130
0.0
111
1.0
121
0.0
131
0.0
112
0.0
122
1.0
132
0.0
 79
     0
146
0.0
  0
ENDTAB
  0
TABLE
  2
LTYPE
  5
5
330
0
100
AcDbSymbolTable
 70
     6
  0
LTYPE
  5
14
330
5
100
AcDbSymbolTableRecord
100
AcDbLinetypeTableRecord
  2
ByBlock
 70
     0
  3

 72
    65
 73
     0
 40
0.0
  0
LTYPE
  5
15
330
5
100
AcDbSymbolTableRecord
100
AcDbLinetypeTableRecord
  2
ByLayer
 70
     0
  3

 72
    65
 73
     0
 40
0.0
  0
LTYPE
  5
16
330
5
100
AcDbSymbolTableRecord
100
AcDbLinetypeTableRecord
  2
Continuous
 70
     0
  3
Solid line
 72
    65
 73
     0
 40
0.0
  0
LTYPE
  5
5E
330
5
100
AcDbSymbolTableRecord
100
AcDbLinetypeTableRecord
  2
HIDDEN
 70
     0
  3
Hidden __ __ __ __ __ __ __ __ __ __ __ __ __ __
 72
    65
 73
     2
 40
1.905
 49
1.27
 74
     0
 49
-0.635
 74
     0
  0
LTYPE
  5
5F
330
5
100
AcDbSymbolTableRecord
100
AcDbLinetypeTableRecord
  2
PHANTOM
 70
     0
  3
Phantom ______  __  __  ______  __  __  ______
 72
    65
 73
     6
 40
12.7
 49
6.35
 74
     0
 49
-1.27
 74
     0
 49
1.27
 74
     0
 49
-1.27
 74
     0
 49
1.27
 74
     0
 49
-1.27
 74
     0
  0
LTYPE
  5
60
330
5
100
AcDbSymbolTableRecord
100
AcDbLinetypeTableRecord
  2
CENTER
 70
     0
  3
Center ____ _ ____ _ ____ _ ____ _ ____ _ ____
 72
    65
 73
     4
 40
10.16
 49
6.35
 74
     0
 49
-1.27
 74
     0
 49
1.27
 74
     0
 49
-1.27
 74
     0
  0
LTYPE
  5
61
330
5
100
AcDbSymbolTableRecord
100
AcDbLinetypeTableRecord
  2
CENTERX2
 70
     0
  3
Center (2x) ________  __  ________  __  _____
 72
    65
 73
     4
 40
20.32
 49
12.7
 74
     0
 49
-2.54
 74
     0
 49
2.54
 74
     0
 49
-2.54
 74
     0
  0
LTYPE
  5
62
330
5
100
AcDbSymbolTableRecord
100
AcDbLinetypeTableRecord
  2
DOT2
 70
     0
  3
Dot (.5x) ........................................
 72
    65
 73
     2
 40
0.635
 49
0.0
 74
     0
 49
-0.635
 74
     0
  0
ENDTAB
  0
TABLE
  2
LAYER
  5
2
330
0
100
AcDbSymbolTable
 70
     1
  0
LAYER
  5
10
330
2
100
AcDbSymbolTableRecord
100
AcDbLayerTableRecord
  2
0
 70
     0
 62
     7
  6
Continuous
370
    -3
390
F
  0
ENDTAB
  0
TABLE
  2
STYLE
  5
3
330
0
100
AcDbSymbolTable
 70
     2
  0
STYLE
  5
11
330
3
100
AcDbSymbolTableRecord
100
AcDbTextStyleTableRecord
  2
Standard
 70
     0
 40
0.0
 41
1.0
 50
0.0
 71
     0
 42
3.5
  3
txt
  4

  0
STYLE
  5
10A
330
3
100
AcDbSymbolTableRecord
100
AcDbTextStyleTableRecord
  2
SLDTEXTSTYLE0
 70
     0
 40
0.0
 41
0.7
 50
0.0
 71
     0
 42
3.5
  3
TXT
  4

  0
ENDTAB
  0
TABLE
  2
VIEW
  5
6
330
0
100
AcDbSymbolTable
 70
     0
  0
ENDTAB
  0
TABLE
  2
UCS
  5
7
330
0
100
AcDbSymbolTable
 70
     0
  0
ENDTAB
  0
TABLE
  2
APPID
  5
9
330
0
100
AcDbSymbolTable
 70
     1
  0
APPID
  5
12
330
9
100
AcDbSymbolTableRecord
100
AcDbRegAppTableRecord
  2
ACAD
 70
     0
  0
ENDTAB
  0
TABLE
  2
DIMSTYLE
  5
A
330
0
100
AcDbSymbolTable
 70
     1
100
AcDbDimStyleTable
  0
DIMSTYLE
105
27
330
A
100
AcDbSymbolTableRecord
100
AcDbDimStyleTableRecord
  2
ISO-25
 70
     0
 41
2.5
 42
0.625
 43
3.75
 44
1.25
 73
     0
 74
     0
 77
     1
 78
     8
140
2.5
141
2.5
143
0.0393700787
147
0.625
171
     3
172
     1
178
     0
271
     2
272
     2
274
     3
278
    44
283
     0
284
     8
340
11
  0
ENDTAB
  0
TABLE
  2
BLOCK_RECORD
  5
1
330
0
100
AcDbSymbolTable
 70
     1
  0
BLOCK_RECORD
  5
1F
330
1
100
AcDbSymbolTableRecord
100
AcDbBlockTableRecord
  2
*Model_Space
340
22
  0
BLOCK_RECORD
  5
1B
330
1
100
AcDbSymbolTableRecord
100
AcDbBlockTableRecord
  2
*Paper_Space
340
1E
  0
BLOCK_RECORD
  5
23
330
1
100
AcDbSymbolTableRecord
100
AcDbBlockTableRecord
  2
*Paper_Space0
340
26
  0
ENDTAB
  0
ENDSEC
  0
SECTION
  2
BLOCKS
  0
BLOCK
  5
20
330
1F
100
AcDbEntity
  8
0
100
AcDbBlockBegin
  2
*Model_Space
 70
     0
 10
0.0
 20
0.0
 30
0.0
  3
*Model_Space
  1

  0
ENDBLK
  5
21
330
1F
100
AcDbEntity
  8
0
100
AcDbBlockEnd
  0
BLOCK
  5
1C
330
1B
100
AcDbEntity
 67
     1
  8
0
100
AcDbBlockBegin
  2
*Paper_Space
 70
     0
 10
0.0
 20
0.0
 30
0.0
  3
*Paper_Space
  1

  0
ENDBLK
  5
1D
330
1B
100
AcDbEntity
 67
     1
  8
0
100
AcDbBlockEnd
  0
BLOCK
  5
24
330
23
100
AcDbEntity
  8
0
100
AcDbBlockBegin
  2
*Paper_Space0
 70
     0
 10
0.0
 20
0.0
 30
0.0
  3
*Paper_Space0
  1

  0
ENDBLK
  5
25
330
23
100
AcDbEntity
  8
0
100
AcDbBlockEnd
  0
ENDSEC
  0
SECTION
  2
ENTITIES
  0
CIRCLE
  5
63
330
1F
100
AcDbEntity
  8
0
  6
Continuous
 62
     7
370
    25
100
AcDbCircle
 10
-12.7
 20
0.0
 30
0.0
 40
2.999999999999998
  0
CIRCLE
  5
64
330
1F
100
AcDbEntity
  8
0
  6
Continuous
 62
     7
370
    25
100
AcDbCircle
 10
0.0
 20
12.7
 30
0.0
 40
2.999999999999999
  0
CIRCLE
  5
65
330
1F
100
AcDbEntity
  8
0
  6
Continuous
 62
     7
370
    25
100
AcDbCircle
 10
12.7
 20
0.0
 30
0.0
 40
3.0
  0
CIRCLE
  5
66
330
1F
100
AcDbEntity
  8
0
  6
Continuous
 62
     7
370
    25
100
AcDbCircle
 10
0.0
 20
-12.7
 30
0.0
 40
2.999999999999999
  0
CIRCLE
  5
67
330
1F
100
AcDbEntity
  8
0
  6
Continuous
 62
     7
370
    25
100
AcDbCircle
 10
0.0
 20
0.0
 30
0.0
 40
3.0
  0
SPLINE
  5
68
330
1F
100
AcDbEntity
  8
0
  6
Continuous
 62
     7
370
    25
100
AcDbSpline
210
0.0
220
0.0
230
1.0
 70
     8
 71
     3
 72
    15
 73
    11
 74
     0
 42
0.00000001
 43
0.00000001
 40
0.0
 40
0.0
 40
0.0
 40
0.0
 40
0.0620908418279525
 40
0.1189941859631136
 40
0.193136179108945
 40
0.2845168281892573
 40
0.3931361368312883
 40
0.5189941071718175
 40
0.6620907405753791
 40
0.7278603056024612
 40
0.7278603056024612
 40
0.7278603056024612
 40
0.7278603056024612
 10
-18.36331113357082
 20
-4.121129516439326
 30
0.0
 10
-18.45767034982115
 20
-4.148490355429061
 30
0.0
 10
-18.63360492048966
 20
-4.216042608744117
 30
0.0
 10
-18.90970763158366
 20
-4.346972957559147
 30
0.0
 10
-19.21717295742804
 20
-4.51829904337394
 30
0.0
 10
-19.58157177988032
 20
-4.753640982833985
 30
0.0
 10
-19.99546980430749
 20
-5.061158815026652
 30
0.0
 10
-20.45066412546336
 20
-5.448148638596042
 30
0.0
 10
-20.83080146177759
 20
-5.816989834665033
 30
0.0
 10
-21.05724743780597
 20
-6.057509567062889
 30
0.0
 10
-21.1275053826844
 20
-6.134208694252393
 30
0.0
  0
ARC
  5
69
330
1F
100
AcDbEntity
  8
0
  6
Continuous
 62
     7
370
    25
100
AcDbCircle
 10
0.0
 20
0.0
 30
0.0
 40
22.0
100
AcDbArc
 50
196.1902487301
 51
199.8097512699
  0
SPLINE
  5
6A
330
1F
100
AcDbEntity
  8
0
  6
Continuous
 62
     7
370
    25
100
AcDbSpline
210
0.0
220
0.0
230
1.0
 70
     8
 71
     3
 72
    15
 73
    11
 74
     0
 42
0.00000001
 43
0.00000001
 40
0.2721396943975382
 40
0.2721396943975382
 40
0.2721396943975382
 40
0.2721396943975382
 40
0.3379092594246208
 40
0.4810058928281825
 40
0.6068638631687115
 40
0.7154831718107426
 40
0.806863820891055
 40
0.8810058140368864
 40
0.9379091581720475
 40
1.0
 40
1.0
 40
1.0
 40
1.0
 10
-20.69810830830583
 20
-7.455757000978598
 30
0.0
 10
-20.59618582108362
 20
-7.476511314472718
 30
0.0
 10
-20.27161322658005
 20
-7.537994260314646
 30
0.0
 10
-19.74727624581815
 20
-7.612953936028806
 30
0.0
 10
-19.15154939317872
 20
-7.658478771043911
 30
0.0
 10
-18.63594441089912
 20
-7.663982768649852
 30
0.0
 10
-18.20280904954449
 20
-7.640190143372001
 30
0.0
 10
-17.85336142918043
 20
-7.598072274253295
 30
0.0
 10
-17.5530307156014
 20
-7.541708049825074
 30
0.0
 10
-17.37099043977479
 20
-7.492947224757921
 30
0.0
 10
-17.27856993260386
 20
-7.459619652751153
 30
0.0
  0
LINE
  5
6B
330
1F
100
AcDbEntity
  8
0
  6
Continuous
 62
     7
370
    25
100
AcDbLine
 10
-17.2785699326
 20
-7.4596196528
 30
0.0
 11
-17.2022214441
 21
-7.4338165999
 31
0.0
  0
SPLINE
  5
6C
330
1F
100
AcDbEntity
  8
0
  6
Continuous
 62
     7
370
    25
100
AcDbSpline
210
0.0
220
0.0
230
1.0
 70
     8
 71
     3
 72
    15
 73
    11
 74
     0
 42
0.00000001
 43
0.00000001
 40
0.0
 40
0.0
 40
0.0
 40
0.0
 40
0.1340719621348738
 40
0.2208648061554332
 40
0.3076254987653428
 40
0.3966694098341904
 40
0.4912578970962597
 40
0.5957152317369413
 40
0.7147962534724208
 40
0.9952809336865825
 40
0.9952809336865825
 40
0.9952809336865825
 40
0.9952809336865825
 10
-17.20222144408284
 20
-7.433816599896134
 30
0.0
 10
-17.12804170037558
 20
-7.406736528864075
 30
0.0
 10
-17.00271020110184
 20
-7.371181240995813
 30
0.0
 10
-16.82488175408727
 20
-7.33600986557658
 30
0.0
 10
-16.67100095749952
 20
-7.318851242481417
 30
0.0
 10
-16.51150754574432
 20
-7.316727260093464
 30
0.0
 10
-16.34234910414946
 20
-7.334840229331671
 30
0.0
 10
-16.16032998485539
 20
-7.382579641631778
 30
0.0
 10
-15.89051645713865
 20
-7.511388069933449
 30
0.0
 10
-15.7223893334335
 20
-7.688586821652213
 30
0.0
 10
-15.64718072171734
 20
-7.836819218402123
 30
0.0
  0
ARC
  5
6D
330
1F
100
AcDbEntity
  8
0
  6
Continuous
 62
     7
370
    25
100
AcDbCircle
 10
0.0
 20
0.0
 30
0.0
 40
17.5
100
AcDbArc
 50
206.6037904932
 51
207.3962095062
  0
SPLINE
  5
6E
330
1F
100
AcDbEntity
  8
0
  6
Continuous
 62
     7
370
    25
100
AcDbSpline
210
0.0
220
0.0
230
1.0
 70
     8
 71
     3
 72
    15
 73
    11
 74
     0
 42
0.00000001
 43
0.00000001
 40
0.0047190662143818
 40
0.0047190662143818
 40
0.0047190662143818
 40
0.0047190662143818
 40
0.2852037465275792
 40
0.4042847682630587
 40
0.5087421029037403
 40
0.6033305901658097
 40
0.6923745012346572
 40
0.7791351938445668
 40
0.8659280378651262
 40
1.0
 40
1.0
 40
1.0
 40
1.0
 10
-15.53730199779242
 20
-8.052468356309346
 30
0.0
 10
-15.46158598245884
 20
-8.200442218070318
 30
0.0
 10
-15.4170518247278
 20
-8.440614731409372
 30
0.0
 10
-15.47143602968463
 20
-8.734610155228948
 30
0.0
 10
-15.53980218778869
 20
-8.909927238542119
 30
0.0
 10
-15.62457732512663
 20
-9.057425828727789
 30
0.0
 10
-15.72004353824175
 20
-9.185210263804816
 30
0.0
 10
-15.82437401877112
 20
-9.299616857747274
 30
0.0
 10
-15.95735319779406
 20
-9.422809877691094
 30
0.0
 10
-16.05978603684018
 20
-9.50330631668406
 30
0.0
 10
-16.12529603388397
 20
-9.547401723597936
 30
0.0
  0
LINE
  5
6F
330
1F
100
AcDbEntity
  8
0
  6
Continuous
 62
     7
370
    25
100
AcDbLine
 10
-16.1252960339
 20
-9.5474017236
 30
0.0
 11
-16.1910476577
 21
-9.5940022944
 31
0.0
  0
SPLINE
  5
70
330
1F
100
AcDbEntity
  8
0
  6
Continuous
 62
     7
370
    25
100
AcDbSpline
210
0.0
220
0.0
230
1.0
 70
     8
 71
     3
 72
    15
 73
    11
 74
     0
 42
0.00000001
 43
0.00000001
 40
0.0
 40
0.0
 40
0.0
 40
0.0
 40
0.0620908418279525
 40
0.1189941859631136
 40
0.193136179108945
 40
0.2845168281892573
 40
0.3931361368312883
 40
0.5189941071718175
 40
0.6620907405753791
 40
0.7278603056024612
 40
0.7278603056024612
 40
0.7278603056024612
 40
0.7278603056024612
 10
-16.19104765773791
 20
-9.594002294373979
 30
0.0
 10
-16.27233364099711
 20
-9.649182599983723
 30
0.0
 10
-16.41878256659031
 20
-9.767795382924058
 30
0.0
 10
-16.64091214627974
 20
-9.977637974266433
 30
0.0
 10
-16.88038637586233
 20
-10.23559077545888
 30
0.0
 10
-17.15422559170354
 20
-10.57201968940787
 30
0.0
 10
-17.45283776869581
 20
-10.99238805107787
 30
0.0
 10
-17.76616686187855
 20
-11.50110002550359
 30
0.0
 10
-18.01372075485638
 20
-11.96935774562062
 30
0.0
 10
-18.15475899115354
 20
-12.26808125931576
 30
0.0
 10
-18.19787693369639
 20
-12.36273736298078
 30
0.0
  0
ARC
  5
71
330
1F
100
AcDbEntity
  8
0
  6
Continuous
 62
     7
370
    25
100
AcDbCircle
 10
0.0
 20
0.0
 30
0.0
 40
22.0
100
AcDbArc
 50
214.1902487301
 51
217.8097512699
  0
SPLINE
  5
72
330
1F
100
AcDbEntity
  8
0
  6
Continuous
 62
     7
370
    25
100
AcDbSpline
210
0.0
220
0.0
230
1.0
 70
     8
 71
     3
 72
    15
 73
    11
 74
     0
 42
0.00000001
 43
0.00000001
 40
0.272139694397537
 40
0.272139694397537
 40
0.272139694397537
 40
0.272139694397537
 40
0.3379092594246208
 40
0.4810058928281825
 40
0.6068638631687115
 40
0.7154831718107426
 40
0.806863820891055
 40
0.8810058140368864
 40
0.9379091581720475
 40
1.0
 40
1.0
 40
1.0
 40
1.0
 10
-17.38111516236474
 20
-13.4869134983737
 30
0.0
 10
-17.27776768115879
 20
-13.47515624280289
 30
0.0
 10
-16.95008152501594
 20
-13.43333155147691
 30
0.0
 10
-16.4282436090393
 20
-13.34259340168955
 30
0.0
 10
-15.84760575621879
 20
-13.20180037121285
 30
0.0
 10
-15.3555354491903
 20
-13.04770428209286
 30
0.0
 10
-14.95095156688776
 20
-12.89122996325927
 30
0.0
 10
-14.63162226776123
 20
-12.74318823604509
 30
0.0
 10
-14.3634082887914
 20
-12.59677537868803
 30
0.0
 10
-14.20534562184384
 20
-12.49414753937686
 30
0.0
 10
-14.12774728239097
 20
-12.43389162750296
 30
0.0
  0
LINE
  5
73
330
1F
100
AcDbEntity
  8
0
  6
Continuous
 62
     7
370
    25
100
AcDbLine
 10
-14.1277472824
 20
-12.4338916275
 30
0.0
 11
-14.0631091367
 21
-12.3857584855
 31
0.0
  0
SPLINE
  5
74
330
1F
100
AcDbEntity
  8
0
  6
Continuous
 62
     7
370
    25
100
AcDbSpline
210
0.0
220
0.0
230
1.0
 70
     8
 71
     3
 72
    15
 73
    11
 74
     0
 42
0.00000001
 43
0.00000001
 40
0.0
 40
0.0
 40
0.0
 40
0.0
 40
0.1340719621348738
 40
0.2208648061554332
 40
0.3076254987653428
 40
0.3966694098341904
 40
0.4912578970962597
 40
0.5957152317369413
 40
0.7147962534724208
 40
0.9952809336866265
 40
0.9952809336866265
 40
0.9952809336866265
 40
0.9952809336866265
 10
-14.06310913671272
 20
-12.38575848549705
 30
0.0
 10
-14.00092821024061
 20
-12.33708100603635
 30
0.0
 10
-13.89271805935046
 20
-12.26453635461441
 30
0.0
 10
-13.73446170875469
 20
-12.17613437662408
 30
0.0
 10
-13.59341468056371
 20
-12.11226377506521
 30
0.0
 10
-13.44238377866141
 20
-12.06095757305145
 30
0.0
 10
-13.27590732518309
 20
-12.0259111972801
 30
0.0
 10
-13.08804456598596
 20
-12.0150670752692
 30
0.0
 10
-12.79163265890239
 20
-12.05419420498251
 30
0.0
 10
-12.5769768366735
 20
-12.17076609404376
 30
0.0
 10
-12.45964286670667
 20
-12.2885027417552
 30
0.0
  0
ARC
  5
75
330
1F
100
AcDbEntity
  8
0
  6
Continuous
 62
     7
370
    25
100
AcDbCircle
 10
0.0
 20
0.0
 30
0.0
 40
17.50000000000001
100
AcDbArc
 50
224.6037904932
 51
225.3962095062
  0
SPLINE
  5
76
330
1F
100
AcDbEntity
  8
0
  6
Continuous
 62
     7
370
    25
100
AcDbSpline
210
0.0
220
0.0
230
1.0
 70
     8
 71
     3
 72
    15
 73
    11
 74
     0
 42
0.00000001
 43
0.00000001
 40
0.0047190662146957
 40
0.0047190662146957
 40
0.0047190662146957
 40
0.0047190662146957
 40
0.2852037465275792
 40
0.4042847682630587
 40
0.5087421029037403
 40
0.6033305901658097
 40
0.6923745012346572
 40
0.7791351938445668
 40
0.8659280378651262
 40
1.0
 40
1.0
 40
1.0
 40
1.0
 10
-12.28850274187969
 20
-12.45964286658261
 30
0.0
 10
-12.17076609410157
 20
-12.57697683656726
 30
0.0
 10
-12.0541942049904
 20
-12.79163265884413
 30
0.0
 10
-12.01506707526943
 20
-13.08804456598574
 30
0.0
 10
-12.02591119728035
 20
-13.27590732518287
 30
0.0
 10
-12.0609575730517
 20
-13.44238377866119
 30
0.0
 10
-12.11226377506545
 20
-13.59341468056349
 30
0.0
 10
-12.17613437662433
 20
-13.73446170875447
 30
0.0
 10
-12.26453635461466
 20
-13.89271805935024
 30
0.0
 10
-12.3370810060366
 20
-14.00092821024038
 30
0.0
 10
-12.3857584854973
 20
-14.06310913671249
 30
0.0
  0
LINE
  5
77
330
1F
100
AcDbEntity
  8
0
  6
Continuous
 62
     7
370
    25
100
AcDbLine
 10
-12.3857584855
 20
-14.0631091367
 30
0.0
 11
-12.4338916275
 21
-14.1277472824
 31
0.0
  0
SPLINE
  5
78
330
1F
100
AcDbEntity
  8
0
  6
Continuous
 62
     7
370
    25
100
AcDbSpline
210
0.0
220
0.0
230
1.0
 70
     8
 71
     3
 72
    15
 73
    11
 74
     0
 42
0.00000001
 43
0.00000001
 40
0.0
 40
0.0
 40
0.0
 40
0.0
 40
0.0620908418279525
 40
0.1189941859631136
 40
0.193136179108945
 40
0.2845168281892573
 40
0.3931361368312883
 40
0.5189941071718175
 40
0.6620907405753791
 40
0.7278603056024626
 40
0.7278603056024626
 40
0.7278603056024626
 40
0.7278603056024626
 10
-12.43389162750321
 20
-14.12774728239074
 30
0.0
 10
-12.49414753937712
 20
-14.20534562184361
 30
0.0
 10
-12.59677537868829
 20
-14.36340828879117
 30
0.0
 10
-12.74318823604535
 20
-14.631622267761
 30
0.0
 10
-12.89122996325955
 20
-14.95095156688753
 30
0.0
 10
-13.04770428209314
 20
-15.35553544919006
 30
0.0
 10
-13.20180037121314
 20
-15.84760575621855
 30
0.0
 10
-13.34259340168985
 20
-16.42824360903905
 30
0.0
 10
-13.43333155147721
 20
-16.9500815250157
 30
0.0
 10
-13.47515624280321
 20
-17.27776768115854
 30
0.0
 10
-13.48691349837402
 20
-17.38111516236449
 30
0.0
  0
ARC
  5
79
330
1F
100
AcDbEntity
  8
0
  6
Continuous
 62
     7
370
    25
100
AcDbCircle
 10
0.0
 20
0.0
 30
0.0
 40
22.0
100
AcDbArc
 50
232.1902487301
 51
235.8097512699
  0
SPLINE
  5
7A
330
1F
100
AcDbEntity
  8
0
  6
Continuous
 62
     7
370
    25
100
AcDbSpline
210
0.0
220
0.0
230
1.0
 70
     8
 71
     3
 72
    15
 73
    11
 74
     0
 42
0.00000001
 43
0.00000001
 40
0.2721396943975381
 40
0.2721396943975381
 40
0.2721396943975381
 40
0.2721396943975381
 40
0.3379092594246208
 40
0.4810058928281825
 40
0.6068638631687115
 40
0.7154831718107426
 40
0.806863820891055
 40
0.8810058140368864
 40
0.9379091581720475
 40
1.0
 40
1.0
 40
1.0
 40
1.0
 10
-12.36273736298112
 20
-18.19787693369616
 30
0.0
 10
-12.26808125931609
 20
-18.15475899115331
 30
0.0
 10
-11.96935774562095
 20
-18.01372075485615
 30
0.0
 10
-11.50110002550391
 20
-17.76616686187834
 30
0.0
 10
-10.99238805107819
 20
-17.45283776869561
 30
0.0
 10
-10.57201968940818
 20
-17.15422559170335
 30
0.0
 10
-10.23559077545918
 20
-16.88038637586214
 30
0.0
 10
-9.977637974266736
 20
-16.64091214627955
 30
0.0
 10
-9.767795382924355
 20
-16.41878256659013
 30
0.0
 10
-9.649182599984016
 20
-16.27233364099693
 30
0.0
 10
-9.594002294374272
 20
-16.19104765773773
 30
0.0
  0
LINE
  5
7B
330
1F
100
AcDbEntity
  8
0
  6
Continuous
 62
     7
370
    25
100
AcDbLine
 10
-9.5940022944
 20
-16.1910476577
 30
0.0
 11
-9.5474017236
 21
-16.1252960339
 31
0.0
  0
SPLINE
  5
7C
330
1F
100
AcDbEntity
  8
0
  6
Continuous
 62
     7
370
    25
100
AcDbSpline
210
0.0
220
0.0
230
1.0
 70
     8
 71
     3
 72
    15
 73
    11
 74
     0
 42
0.00000001
 43
0.00000001
 40
0.0
 40
0.0
 40
0.0
 40
0.0
 40
0.1340719621348738
 40
0.2208648061554332
 40
0.3076254987653428
 40
0.3966694098341904
 40
0.4912578970962597
 40
0.5957152317369413
 40
0.7147962534724208
 40
0.9952809336861425
 40
0.9952809336861425
 40
0.9952809336861425
 40
0.9952809336861425
 10
-9.547401723598227
 20
-16.12529603388379
 30
0.0
 10
-9.503306316684355
 20
-16.05978603684001
 30
0.0
 10
-9.422809877691384
 20
-15.95735319779389
 30
0.0
 10
-9.29961685774756
 20
-15.82437401877095
 30
0.0
 10
-9.185210263805102
 20
-15.72004353824159
 30
0.0
 10
-9.05742582872807
 20
-15.62457732512646
 30
0.0
 10
-8.909927238542403
 20
-15.53980218778853
 30
0.0
 10
-8.734610155229227
 20
-15.47143602968447
 30
0.0
 10
-8.440614731467685
 20
-15.41705182473839
 30
0.0
 10
-8.200442218190185
 20
-15.4615859824365
 30
0.0
 10
-8.052468356467068
 20
-15.53730199771171
 30
0.0
  0
ARC
  5
7D
330
1F
100
AcDbEntity
  8
0
  6
Continuous
 62
     7
370
    25
100
AcDbCircle
 10
0.0
 20
0.0
 30
0.0
 40
17.5
100
AcDbArc
 50
242.6037904932
 51
243.3962095062
  0
SPLINE
  5
7E
330
1F
100
AcDbEntity
  8
0
  6
Continuous
 62
     7
370
    25
100
AcDbSpline
210
0.0
220
0.0
230
1.0
 70
     8
 71
     3
 72
    15
 73
    11
 74
     0
 42
0.00000001
 43
0.00000001
 40
0.0047190662148491
 40
0.0047190662148491
 40
0.0047190662148491
 40
0.0047190662148491
 40
0.2852037465275792
 40
0.4042847682630587
 40
0.5087421029037403
 40
0.6033305901658097
 40
0.6923745012346572
 40
0.7791351938445668
 40
0.8659280378651262
 40
1.0
 40
1.0
 40
1.0
 40
1.0
 10
-7.836819218558669
 20
-15.64718072163791
 30
0.0
 10
-7.688586821739912
 20
-15.72238933335042
 30
0.0
 10
-7.511388069958909
 20
-15.89051645708574
 30
0.0
 10
-7.382579641632057
 20
-16.16032998485527
 30
0.0
 10
-7.334840229331951
 20
-16.34234910414934
 30
0.0
 10
-7.316727260093749
 20
-16.5115075457442
 30
0.0
 10
-7.318851242481702
 20
-16.67100095749939
 30
0.0
 10
-7.33600986557687
 20
-16.82488175408714
 30
0.0
 10
-7.371181240996106
 20
-17.00271020110171
 30
0.0
 10
-7.406736528864368
 20
-17.12804170037545
 30
0.0
 10
-7.43381659989643
 20
-17.20222144408271
 30
0.0
  0
LINE
  5
7F
330
1F
100
AcDbEntity
  8
0
  6
Continuous
 62
     7
370
    25
100
AcDbLine
 10
-7.4338165999
 20
-17.2022214441
 30
0.0
 11
-7.4596196528
 21
-17.2785699326
 31
0.0
  0
SPLINE
  5
80
330
1F
100
AcDbEntity
  8
0
  6
Continuous
 62
     7
370
    25
100
AcDbSpline
210
0.0
220
0.0
230
1.0
 70
     8
 71
     3
 72
    15
 73
    11
 74
     0
 42
0.00000001
 43
0.00000001
 40
0.0
 40
0.0
 40
0.0
 40
0.0
 40
0.0620908418279525
 40
0.1189941859631136
 40
0.193136179108945
 40
0.2845168281892573
 40
0.3931361368312883
 40
0.5189941071718175
 40
0.6620907405753791
 40
0.7278603056024597
 40
0.7278603056024597
 40
0.7278603056024597
 40
0.7278603056024597
 10
-7.45961965275145
 20
-17.27856993260373
 30
0.0
 10
-7.492947224758221
 20
-17.37099043977467
 30
0.0
 10
-7.541708049825376
 20
-17.55303071560127
 30
0.0
 10
-7.598072274253601
 20
-17.8533614291803
 30
0.0
 10
-7.640190143372315
 20
-18.20280904954436
 30
0.0
 10
-7.663982768650171
 20
-18.63594441089899
 30
0.0
 10
-7.658478771044241
 20
-19.15154939317859
 30
0.0
 10
-7.612953936029144
 20
-19.74727624581801
 30
0.0
 10
-7.537994260314997
 20
-20.27161322657992
 30
0.0
 10
-7.476511314473075
 20
-20.59618582108349
 30
0.0
 10
-7.455757000978955
 20
-20.69810830830569
 30
0.0
  0
ARC
  5
81
330
1F
100
AcDbEntity
  8
0
  6
Continuous
 62
     7
370
    25
100
AcDbCircle
 10
0.0
 20
0.0
 30
0.0
 40
22.0
100
AcDbArc
 50
250.1902487301
 51
253.8097512699
  0
SPLINE
  5
82
330
1F
100
AcDbEntity
  8
0
  6
Continuous
 62
     7
370
    25
100
AcDbSpline
210
0.0
220
0.0
230
1.0
 70
     8
 71
     3
 72
    15
 73
    11
 74
     0
 42
0.00000001
 43
0.00000001
 40
0.2721396943975387
 40
0.2721396943975387
 40
0.2721396943975387
 40
0.2721396943975387
 40
0.3379092594246208
 40
0.4810058928281825
 40
0.6068638631687115
 40
0.7154831718107426
 40
0.806863820891055
 40
0.8810058140368864
 40
0.9379091581720475
 40
1.0
 40
1.0
 40
1.0
 40
1.0
 10
-6.134208694252758
 20
-21.12750538268429
 30
0.0
 10
-6.057509567063251
 20
-21.05724743780587
 30
0.0
 10
-5.816989834665391
 20
-20.83080146177749
 30
0.0
 10
-5.448148638596395
 20
-20.45066412546327
 30
0.0
 10
-5.061158815026996
 20
-19.9954698043074
 30
0.0
 10
-4.753640982834322
 20
-19.58157177988024
 30
0.0
 10
-4.518299043374269
 20
-19.21717295742796
 30
0.0
 10
-4.346972957559473
 20
-18.90970763158359
 30
0.0
 10
-4.216042608744437
 20
-18.63360492048959
 30
0.0
 10
-4.148490355429378
 20
-18.45767034982108
 30
0.0
 10
-4.121129516439642
 20
-18.36331113357074
 30
0.0
  0
LINE
  5
83
330
1F
100
AcDbEntity
  8
0
  6
Continuous
 62
     7
370
    25
100
AcDbLine
 10
-4.1211295164
 20
-18.3633111336
 30
0.0
 11
-4.0971281091
 21
-18.2863772549
 31
0.0
  0
SPLINE
  5
84
330
1F
100
AcDbEntity
  8
0
  6
Continuous
 62
     7
370
    25
100
AcDbSpline
210
0.0
220
0.0
230
1.0
 70
     8
 71
     3
 72
    15
 73
    11
 74
     0
 42
0.00000001
 43
0.00000001
 40
0.0
 40
0.0
 40
0.0
 40
0.0
 40
0.1340719621348738
 40
0.2208648061554332
 40
0.3076254987653428
 40
0.3966694098341904
 40
0.4912578970962597
 40
0.5957152317369413
 40
0.7147962534724208
 40
0.9952809336860412
 40
0.9952809336860412
 40
0.9952809336860412
 40
0.9952809336860412
 10
-4.097128109118629
 20
-18.28637725493009
 30
0.0
 10
-4.075434587422484
 20
-18.21044731524887
 30
0.0
 10
-4.03053141262699
 20
-18.08815312855594
 30
0.0
 10
-3.954460714463454
 20
-17.92361367706359
 30
0.0
 10
-3.877893469302222
 20
-17.78903591191116
 30
0.0
 10
-3.78586393188231
 20
-17.6587545857866
 30
0.0
 10
-3.671781394679775
 20
-17.53254906798782
 30
0.0
 10
-3.526171244871198
 20
-17.41335302968087
 30
0.0
 10
-3.263370624895789
 20
-17.27078099497261
 30
0.0
 10
-3.021191179549418
 20
-17.23891810766462
 30
0.0
 10
-2.857062138649953
 20
-17.26520187938423
 30
0.0
  0
ARC
  5
85
330
1F
100
AcDbEntity
  8
0
  6
Continuous
 62
     7
370
    25
100
AcDbCircle
 10
0.0
 20
0.0
 30
0.0
 40
17.5
100
AcDbArc
 50
260.6037904932
 51
261.3962095062
  0
SPLINE
  5
86
330
1F
100
AcDbEntity
  8
0
  6
Continuous
 62
     7
370
    25
100
AcDbSpline
210
0.0
220
0.0
230
1.0
 70
     8
 71
     3
 72
    15
 73
    11
 74
     0
 42
0.00000001
 43
0.00000001
 40
0.0047190662150085
 40
0.0047190662150085
 40
0.0047190662150085
 40
0.0047190662150085
 40
0.2852037465275792
 40
0.4042847682630587
 40
0.5087421029037403
 40
0.6033305901658097
 40
0.6923745012346572
 40
0.7791351938445668
 40
0.8659280378651262
 40
1.0
 40
1.0
 40
1.0
 40
1.0
 10
-2.618013227794734
 20
-17.30306350734053
 30
0.0
 10
-2.453795101731796
 20
-17.32878481785733
 30
0.0
 10
-2.233314935721623
 20
-17.43392578876939
 30
0.0
 10
-2.027433875214654
 20
-17.6507297091674
 30
0.0
 10
-1.925783994899509
 20
-17.80908788896011
 30
0.0
 10
-1.856284704281268
 20
-17.96436991181205
 30
0.0
 10
-1.809018556848628
 20
-18.1167135070216
 30
0.0
 10
-1.777785595900371
 20
-18.26836514748555
 30
0.0
 10
-1.75628354946909
 20
-18.44835860352149
 30
0.0
 10
-1.751369074478874
 20
-18.578543130794
 30
0.0
 10
-1.754200951051729
 20
-18.65746046158169
 30
0.0
  0
LINE
  5
87
330
1F
100
AcDbEntity
  8
0
  6
Continuous
 62
     7
370
    25
100
AcDbLine
 10
-1.7542009511
 20
-18.6574604616
 30
0.0
 11
-1.7551481322
 21
-18.7380457709
 31
0.0
  0
SPLINE
  5
88
330
1F
100
AcDbEntity
  8
0
  6
Continuous
 62
     7
370
    25
100
AcDbSpline
210
0.0
220
0.0
230
1.0
 70
     8
 71
     3
 72
    15
 73
    11
 74
     0
 42
0.00000001
 43
0.00000001
 40
0.0
 40
0.0
 40
0.0
 40
0.0
 40
0.0620908418279525
 40
0.1189941859631136
 40
0.193136179108945
 40
0.2845168281892573
 40
0.3931361368312883
 40
0.5189941071718175
 40
0.6620907405753791
 40
0.7278603056024613
 40
0.7278603056024613
 40
0.7278603056024613
 40
0.7278603056024613
 10
-1.755148132161967
 20
-18.73804577093785
 30
0.0
 10
-1.75828502934673
 20
-18.83624168265342
 30
0.0
 10
-1.748405790875653
 20
-19.02444019681197
 30
0.0
 10
-1.709204059375362
 20
-19.32748918222796
 30
0.0
 10
-1.641275279916799
 20
-19.67284875600357
 30
0.0
 10
-1.530057223703753
 20
-20.09213728940941
 30
0.0
 10
-1.365491909006166
 20
-20.58080593884344
 30
0.0
 10
-1.138105496540712
 20
-21.13330789629238
 30
0.0
 10
-0.9047855706587168
 20
-21.60881818489201
 30
0.0
 10
-0.7460133667647586
 20
-21.89850579077607
 30
0.0
 10
-0.6947790610143204
 20
-21.98902640082948
 30
0.0
  0
ARC
  5
89
330
1F
100
AcDbEntity
  8
0
  6
Continuous
 62
     7
370
    25
100
AcDbCircle
 10
0.0
 20
0.0
 30
0.0
 40
22.0
100
AcDbArc
 50
268.1902487301
 51
271.8097512699
  0
SPLINE
  5
8A
330
1F
100
AcDbEntity
  8
0
  6
Continuous
 62
     7
370
    25
100
AcDbSpline
210
0.0
220
0.0
230
1.0
 70
     8
 71
     3
 72
    15
 73
    11
 74
     0
 42
0.00000001
 43
0.00000001
 40
0.272139694397538
 40
0.272139694397538
 40
0.272139694397538
 40
0.272139694397538
 40
0.3379092594246208
 40
0.4810058928281825
 40
0.6068638631687115
 40
0.7154831718107426
 40
0.806863820891055
 40
0.8810058140368864
 40
0.9379091581720475
 40
1.0
 40
1.0
 40
1.0
 40
1.0
 10
0.6947790610143241
 20
-21.98902640082948
 30
0.0
 10
0.7460133667647628
 20
-21.89850579077607
 30
0.0
 10
0.9047855706587214
 20
-21.60881818489201
 30
0.0
 10
1.138105496540717
 20
-21.13330789629238
 30
0.0
 10
1.365491909006171
 20
-20.58080593884344
 30
0.0
 10
1.530057223703759
 20
-20.09213728940941
 30
0.0
 10
1.641275279916804
 20
-19.67284875600357
 30
0.0
 10
1.709204059375366
 20
-19.32748918222796
 30
0.0
 10
1.748405790875658
 20
-19.02444019681197
 30
0.0
 10
1.758285029346734
 20
-18.83624168265341
 30
0.0
 10
1.755148132161972
 20
-18.73804577093785
 30
0.0
  0
LINE
  5
8B
330
1F
100
AcDbEntity
  8
0
  6
Continuous
 62
     7
370
    25
100
AcDbLine
 10
1.7551481322
 20
-18.7380457709
 30
0.0
 11
1.7542009511
 21
-18.6574604616
 31
0.0
  0
SPLINE
  5
8C
330
1F
100
AcDbEntity
  8
0
  6
Continuous
 62
     7
370
    25
100
AcDbSpline
210
0.0
220
0.0
230
1.0
 70
     8
 71
     3
 72
    15
 73
    11
 74
     0
 42
0.00000001
 43
0.00000001
 40
0.0
 40
0.0
 40
0.0
 40
0.0
 40
0.1340719621348738
 40
0.2208648061554332
 40
0.3076254987653428
 40
0.3966694098341904
 40
0.4912578970962597
 40
0.5957152317369413
 40
0.7147962534724208
 40
0.9952809337710536
 40
0.9952809337710536
 40
0.9952809337710536
 40
0.9952809337710536
 10
1.754200951051734
 20
-18.65746046158169
 30
0.0
 10
1.751369074478878
 20
-18.57854313079401
 30
0.0
 10
1.756283549469094
 20
-18.44835860352149
 30
0.0
 10
1.777785595900375
 20
-18.26836514748555
 30
0.0
 10
1.809018556848632
 20
-18.1167135070216
 30
0.0
 10
1.856284704281272
 20
-17.96436991181204
 30
0.0
 10
1.925783994899513
 20
-17.80908788896011
 30
0.0
 10
2.027433875214658
 20
-17.65072970916739
 30
0.0
 10
2.233314935715934
 20
-17.4339257887754
 30
0.0
 10
2.453795101716418
 20
-17.32878481786466
 30
0.0
 10
2.618013227770256
 20
-17.30306350734436
 30
0.0
  0
ARC
  5
8D
330
1F
100
AcDbEntity
  8
0
  6
Continuous
 62
     7
370
    25
100
AcDbCircle
 10
0.0
 20
0.0
 30
0.0
 40
17.5
100
AcDbArc
 50
278.6037904937
 51
279.3962095062
  0
SPLINE
  5
8E
330
1F
100
AcDbEntity
  8
0
  6
Continuous
 62
     7
370
    25
100
AcDbSpline
210
0.0
220
0.0
230
1.0
 70
     8
 71
     3
 72
    15
 73
    11
 74
     0
 42
0.00000001
 43
0.00000001
 40
0.0047190662149369
 40
0.0047190662149369
 40
0.0047190662149369
 40
0.0047190662149369
 40
0.2852037465275792
 40
0.4042847682630587
 40
0.5087421029037403
 40
0.6033305901658097
 40
0.6923745012346572
 40
0.7791351938445668
 40
0.8659280378651262
 40
1.0
 40
1.0
 40
1.0
 40
1.0
 10
2.857062138475877
 20
-17.26520187941211
 30
0.0
 10
3.02119117942914
 20
-17.23891810764887
 30
0.0
 10
3.263370624843911
 20
-17.27078099494464
 30
0.0
 10
3.526171244870952
 20
-17.41335302968092
 30
0.0
 10
3.671781394679526
 20
-17.53254906798787
 30
0.0
 10
3.78586393188206
 20
-17.65875458578665
 30
0.0
 10
3.877893469301969
 20
-17.78903591191121
 30
0.0
 10
3.9544607144632
 20
-17.92361367706365
 30
0.0
 10
4.030531412626734
 20
-18.088153128556
 30
0.0
 10
4.075434587422223
 20
-18.21044731524892
 30
0.0
 10
4.09712810911837
 20
-18.28637725493015
 30
0.0
  0
LINE
  5
8F
330
1F
100
AcDbEntity
  8
0
  6
Continuous
 62
     7
370
    25
100
AcDbLine
 10
4.0971281091
 20
-18.2863772549
 30
0.0
 11
4.1211295164
 21
-18.3633111336
 31
0.0
  0
SPLINE
  5
90
330
1F
100
AcDbEntity
  8
0
  6
Continuous
 62
     7
370
    25
100
AcDbSpline
210
0.0
220
0.0
230
1.0
 70
     8
 71
     3
 72
    15
 73
    11
 74
     0
 42
0.00000001
 43
0.00000001
 40
0.0
 40
0.0
 40
0.0
 40
0.0
 40
0.0620908418279525
 40
0.1189941859631136
 40
0.193136179108945
 40
0.2845168281892573
 40
0.3931361368312883
 40
0.5189941071718175
 40
0.6620907405753791
 40
0.7278603056024604
 40
0.7278603056024604
 40
0.7278603056024604
 40
0.7278603056024604
 10
4.121129516439381
 20
-18.3633111335708
 30
0.0
 10
4.148490355429117
 20
-18.45767034982114
 30
0.0
 10
4.216042608744175
 20
-18.63360492048965
 30
0.0
 10
4.346972957559204
 20
-18.90970763158365
 30
0.0
 10
4.518299043373998
 20
-19.21717295742803
 30
0.0
 10
4.753640982834045
 20
-19.58157177988031
 30
0.0
 10
5.061158815026713
 20
-19.99546980430748
 30
0.0
 10
5.448148638596104
 20
-20.45066412546334
 30
0.0
 10
5.816989834665096
 20
-20.83080146177757
 30
0.0
 10
6.057509567062951
 20
-21.05724743780595
 30
0.0
 10
6.134208694252455
 20
-21.12750538268438
 30
0.0
  0
ARC
  5
91
330
1F
100
AcDbEntity
  8
0
  6
Continuous
 62
     7
370
    25
100
AcDbCircle
 10
0.0
 20
0.0
 30
0.0
 40
22.0
100
AcDbArc
 50
286.1902487301
 51
289.8097512699
  0
SPLINE
  5
92
330
1F
100
AcDbEntity
  8
0
  6
Continuous
 62
     7
370
    25
100
AcDbSpline
210
0.0
220
0.0
230
1.0
 70
     8
 71
     3
 72
    15
 73
    11
 74
     0
 42
0.00000001
 43
0.00000001
 40
0.2721396943975384
 40
0.2721396943975384
 40
0.2721396943975384
 40
0.2721396943975384
 40
0.3379092594246208
 40
0.4810058928281825
 40
0.6068638631687115
 40
0.7154831718107426
 40
0.806863820891055
 40
0.8810058140368864
 40
0.9379091581720475
 40
1.0
 40
1.0
 40
1.0
 40
1.0
 10
7.455757000978661
 20
-20.6981083083058
 30
0.0
 10
7.476511314472781
 20
-20.5961858210836
 30
0.0
 10
7.537994260314707
 20
-20.27161322658003
 30
0.0
 10
7.612953936028865
 20
-19.74727624581812
 30
0.0
 10
7.658478771043969
 20
-19.1515493931787
 30
0.0
 10
7.663982768649909
 20
-18.6359444108991
 30
0.0
 10
7.640190143372057
 20
-18.20280904954446
 30
0.0
 10
7.598072274253349
 20
-17.85336142918041
 30
0.0
 10
7.541708049825128
 20
-17.55303071560138
 30
0.0
 10
7.492947224757972
 20
-17.37099043977478
 30
0.0
 10
7.459619652751204
 20
-17.27856993260383
 30
0.0
  0
LINE
  5
93
330
1F
100
AcDbEntity
  8
0
  6
Continuous
 62
     7
370
    25
100
AcDbLine
 10
7.4596196528
 20
-17.2785699326
 30
0.0
 11
7.4338165999
 21
-17.2022214441
 31
0.0
  0
SPLINE
  5
94
330
1F
100
AcDbEntity
  8
0
  6
Continuous
 62
     7
370
    25
100
AcDbSpline
210
0.0
220
0.0
230
1.0
 70
     8
 71
     3
 72
    15
 73
    11
 74
     0
 42
0.00000001
 43
0.00000001
 40
0.0
 40
0.0
 40
0.0
 40
0.0
 40
0.1340719621348738
 40
0.2208648061554332
 40
0.3076254987653428
 40
0.3966694098341904
 40
0.4912578970962597
 40
0.5957152317369413
 40
0.7147962534724208
 40
0.9952809336862696
 40
0.9952809336862696
 40
0.9952809336862696
 40
0.9952809336862696
 10
7.433816599896186
 20
-17.20222144408282
 30
0.0
 10
7.406736528864126
 20
-17.12804170037555
 30
0.0
 10
7.371181240995865
 20
-17.00271020110181
 30
0.0
 10
7.336009865576631
 20
-16.82488175408725
 30
0.0
 10
7.318851242481466
 20
-16.6710009574995
 30
0.0
 10
7.316727260093515
 20
-16.5115075457443
 30
0.0
 10
7.334840229331719
 20
-16.34234910414944
 30
0.0
 10
7.382579641631827
 20
-16.16032998485537
 30
0.0
 10
7.511388069933418
 20
-15.89051645713879
 30
0.0
 10
7.688586821651984
 20
-15.72238933343374
 30
0.0
 10
7.836819218401677
 20
-15.64718072171756
 30
0.0
  0
ARC
  5
95
330
1F
100
AcDbEntity
  8
0
  6
Continuous
 62
     7
370
    25
100
AcDbCircle
 10
0.0
 20
0.0
 30
0.0
 40
17.5
100
AcDbArc
 50
296.6037904932
 51
297.3962095062
  0
SPLINE
  5
96
330
1F
100
AcDbEntity
  8
0
  6
Continuous
 62
     7
370
    25
100
AcDbSpline
210
0.0
220
0.0
230
1.0
 70
     8
 71
     3
 72
    15
 73
    11
 74
     0
 42
0.00000001
 43
0.00000001
 40
0.004719066214591
 40
0.004719066214591
 40
0.004719066214591
 40
0.004719066214591
 40
0.2852037465275792
 40
0.4042847682630587
 40
0.5087421029037403
 40
0.6033305901658097
 40
0.6923745012346572
 40
0.7791351938445668
 40
0.8659280378651262
 40
1.0
 40
1.0
 40
1.0
 40
1.0
 10
8.052468356309738
 20
-15.53730199779221
 30
0.0
 10
8.200442218070634
 20
-15.46158598245876
 30
0.0
 10
8.440614731409555
 20
-15.41705182472779
 30
0.0
 10
8.73461015522901
 20
-15.4714360296846
 30
0.0
 10
8.909927238542181
 20
-15.53980218778865
 30
0.0
 10
9.05742582872785
 20
-15.6245773251266
 30
0.0
 10
9.185210263804876
 20
-15.72004353824172
 30
0.0
 10
9.299616857747337
 20
-15.82437401877108
 30
0.0
 10
9.422809877691156
 20
-15.95735319779402
 30
0.0
 10
9.503306316684126
 20
-16.05978603684014
 30
0.0
 10
9.547401723598
 20
-16.12529603388393
 30
0.0
  0
LINE
  5
97
330
1F
100
AcDbEntity
  8
0
  6
Continuous
 62
     7
370
    25
100
AcDbLine
 10
9.5474017236
 20
-16.1252960339
 30
0.0
 11
9.5940022944
 21
-16.1910476577
 31
0.0
  0
SPLINE
  5
98
330
1F
100
AcDbEntity
  8
0
  6
Continuous
 62
     7
370
    25
100
AcDbSpline
210
0.0
220
0.0
230
1.0
 70
     8
 71
     3
 72
    15
 73
    11
 74
     0
 42
0.00000001
 43
0.00000001
 40
0.0
 40
0.0
 40
0.0
 40
0.0
 40
0.0620908418279525
 40
0.1189941859631136
 40
0.193136179108945
 40
0.2845168281892573
 40
0.3931361368312883
 40
0.5189941071718175
 40
0.6620907405753791
 40
0.7278603056024614
 40
0.7278603056024614
 40
0.7278603056024614
 40
0.7278603056024614
 10
9.594002294374043
 20
-16.19104765773787
 30
0.0
 10
9.649182599983787
 20
-16.27233364099707
 30
0.0
 10
9.767795382924122
 20
-16.41878256659027
 30
0.0
 10
9.977637974266498
 20
-16.6409121462797
 30
0.0
 10
10.23559077545894
 20
-16.88038637586229
 30
0.0
 10
10.57201968940793
 20
-17.1542255917035
 30
0.0
 10
10.99238805107794
 20
-17.45283776869577
 30
0.0
 10
11.50110002550366
 20
-17.7661668618785
 30
0.0
 10
11.96935774562069
 20
-18.01372075485633
 30
0.0
 10
12.26808125931583
 20
-18.15475899115349
 30
0.0
 10
12.36273736298085
 20
-18.19787693369634
 30
0.0
  0
ARC
  5
99
330
1F
100
AcDbEntity
  8
0
  6
Continuous
 62
     7
370
    25
100
AcDbCircle
 10
0.0
 20
0.0
 30
0.0
 40
22.0
100
AcDbArc
 50
304.1902487301
 51
307.8097512699
  0
SPLINE
  5
9A
330
1F
100
AcDbEntity
  8
0
  6
Continuous
 62
     7
370
    25
100
AcDbSpline
210
0.0
220
0.0
230
1.0
 70
     8
 71
     3
 72
    15
 73
    11
 74
     0
 42
0.00000001
 43
0.00000001
 40
0.2721396943975384
 40
0.2721396943975384
 40
0.2721396943975384
 40
0.2721396943975384
 40
0.3379092594246208
 40
0.4810058928281825
 40
0.6068638631687115
 40
0.7154831718107426
 40
0.806863820891055
 40
0.8810058140368864
 40
0.9379091581720475
 40
1.0
 40
1.0
 40
1.0
 40
1.0
 10
13.48691349837377
 20
-17.38111516236468
 30
0.0
 10
13.47515624280296
 20
-17.27776768115872
 30
0.0
 10
13.43333155147697
 20
-16.95008152501589
 30
0.0
 10
13.34259340168962
 20
-16.42824360903925
 30
0.0
 10
13.20180037121291
 20
-15.84760575621874
 30
0.0
 10
13.04770428209292
 20
-15.35553544919024
 30
0.0
 10
12.89122996325934
 20
-14.95095156688771
 30
0.0
 10
12.74318823604514
 20
-14.63162226776118
 30
0.0
 10
12.59677537868809
 20
-14.36340828879135
 30
0.0
 10
12.49414753937692
 20
-14.20534562184379
 30
0.0
 10
12.43389162750301
 20
-14.12774728239091
 30
0.0
  0
LINE
  5
9B
330
1F
100
AcDbEntity
  8
0
  6
Continuous
 62
     7
370
    25
100
AcDbLine
 10
12.4338916275
 20
-14.1277472824
 30
0.0
 11
12.3857584855
 21
-14.0631091367
 31
0.0
  0
SPLINE
  5
9C
330
1F
100
AcDbEntity
  8
0
  6
Continuous
 62
     7
370
    25
100
AcDbSpline
210
0.0
220
0.0
230
1.0
 70
     8
 71
     3
 72
    15
 73
    11
 74
     0
 42
0.00000001
 43
0.00000001
 40
0.0
 40
0.0
 40
0.0
 40
0.0
 40
0.1340719621348738
 40
0.2208648061554332
 40
0.3076254987653428
 40
0.3966694098341904
 40
0.4912578970962597
 40
0.5957152317369413
 40
0.7147962534724208
 40
0.9952809336865454
 40
0.9952809336865454
 40
0.9952809336865454
 40
0.9952809336865454
 10
12.3857584854971
 20
-14.06310913671267
 30
0.0
 10
12.33708100603641
 20
-14.00092821024056
 30
0.0
 10
12.26453635461447
 20
-13.89271805935041
 30
0.0
 10
12.17613437662414
 20
-13.73446170875465
 30
0.0
 10
12.11226377506526
 20
-13.59341468056366
 30
0.0
 10
12.0609575730515
 20
-13.44238377866136
 30
0.0
 10
12.02591119728016
 20
-13.27590732518304
 30
0.0
 10
12.01506707526925
 20
-13.08804456598591
 30
0.0
 10
12.05419420498255
 20
-12.79163265890239
 30
0.0
 10
12.17076609404376
 20
-12.57697683667354
 30
0.0
 10
12.28850274175515
 20
-12.45964286670672
 30
0.0
  0
ARC
  5
9D
330
1F
100
AcDbEntity
  8
0
  6
Continuous
 62
     7
370
    25
100
AcDbCircle
 10
0.0
 20
0.0
 30
0.0
 40
17.5
100
AcDbArc
 50
314.6037904932
 51
315.3962095062
  0
SPLINE
  5
9E
330
1F
100
AcDbEntity
  8
0
  6
Continuous
 62
     7
370
    25
100
AcDbSpline
210
0.0
220
0.0
230
1.0
 70
     8
 71
     3
 72
    15
 73
    11
 74
     0
 42
0.00000001
 43
0.00000001
 40
0.0047190662152133
 40
0.0047190662152133
 40
0.0047190662152133
 40
0.0047190662152133
 40
0.2852037465275792
 40
0.4042847682630587
 40
0.5087421029037403
 40
0.6033305901658097
 40
0.6923745012346572
 40
0.7791351938445668
 40
0.8659280378651262
 40
1.0
 40
1.0
 40
1.0
 40
1.0
 10
12.45964286658331
 20
-12.28850274187899
 30
0.0
 10
12.57697683656786
 20
-12.17076609410122
 30
0.0
 10
12.79163265884448
 20
-12.0541942049903
 30
0.0
 10
13.08804456598579
 20
-12.01506707526938
 30
0.0
 10
13.27590732518292
 20
-12.02591119728029
 30
0.0
 10
13.44238377866124
 20
-12.06095757305164
 30
0.0
 10
13.59341468056353
 20
-12.1122637750654
 30
0.0
 10
13.73446170875452
 20
-12.17613437662428
 30
0.0
 10
13.89271805935029
 20
-12.26453635461461
 30
0.0
 10
14.00092821024043
 20
-12.33708100603655
 30
0.0
 10
14.06310913671254
 20
-12.38575848549725
 30
0.0
  0
LINE
  5
9F
330
1F
100
AcDbEntity
  8
0
  6
Continuous
 62
     7
370
    25
100
AcDbLine
 10
14.0631091367
 20
-12.3857584855
 30
0.0
 11
14.1277472824
 21
-12.4338916275
 31
0.0
  0
SPLINE
  5
A0
330
1F
100
AcDbEntity
  8
0
  6
Continuous
 62
     7
370
    25
100
AcDbSpline
210
0.0
220
0.0
230
1.0
 70
     8
 71
     3
 72
    15
 73
    11
 74
     0
 42
0.00000001
 43
0.00000001
 40
0.0
 40
0.0
 40
0.0
 40
0.0
 40
0.0620908418279525
 40
0.1189941859631136
 40
0.193136179108945
 40
0.2845168281892573
 40
0.3931361368312883
 40
0.5189941071718175
 40
0.6620907405753791
 40
0.7278603056024613
 40
0.7278603056024613
 40
0.7278603056024613
 40
0.7278603056024613
 10
14.12774728239079
 20
-12.43389162750316
 30
0.0
 10
14.20534562184366
 20
-12.49414753937706
 30
0.0
 10
14.36340828879122
 20
-12.59677537868823
 30
0.0
 10
14.63162226776105
 20
-12.74318823604529
 30
0.0
 10
14.95095156688758
 20
-12.89122996325949
 30
0.0
 10
15.35553544919011
 20
-13.04770428209308
 30
0.0
 10
15.8476057562186
 20
-13.20180037121307
 30
0.0
 10
16.42824360903911
 20
-13.34259340168978
 30
0.0
 10
16.95008152501575
 20
-13.43333155147715
 30
0.0
 10
17.27776768115859
 20
-13.47515624280314
 30
0.0
 10
17.38111516236454
 20
-13.48691349837395
 30
0.0
  0
ARC
  5
A1
330
1F
100
AcDbEntity
  8
0
  6
Continuous
 62
     7
370
    25
100
AcDbCircle
 10
0.0
 20
0.0
 30
0.0
 40
22.0
100
AcDbArc
 50
322.1902487301
 51
325.8097512699
  0
SPLINE
  5
A2
330
1F
100
AcDbEntity
  8
0
  6
Continuous
 62
     7
370
    25
100
AcDbSpline
210
0.0
220
0.0
230
1.0
 70
     8
 71
     3
 72
    15
 73
    11
 74
     0
 42
0.00000001
 43
0.00000001
 40
0.2721396943975388
 40
0.2721396943975388
 40
0.2721396943975388
 40
0.2721396943975388
 40
0.3379092594246208
 40
0.4810058928281825
 40
0.6068638631687115
 40
0.7154831718107426
 40
0.806863820891055
 40
0.8810058140368864
 40
0.9379091581720475
 40
1.0
 40
1.0
 40
1.0
 40
1.0
 10
18.19787693369621
 20
-12.36273736298104
 30
0.0
 10
18.15475899115336
 20
-12.26808125931602
 30
0.0
 10
18.0137207548562
 20
-11.96935774562087
 30
0.0
 10
17.76616686187839
 20
-11.50110002550384
 30
0.0
 10
17.45283776869566
 20
-10.99238805107812
 30
0.0
 10
17.15422559170339
 20
-10.57201968940811
 30
0.0
 10
16.88038637586218
 20
-10.23559077545911
 30
0.0
 10
16.6409121462796
 20
-9.97763797426667
 30
0.0
 10
16.41878256659017
 20
-9.767795382924291
 30
0.0
 10
16.27233364099697
 20
-9.64918259998395
 30
0.0
 10
16.19104765773777
 20
-9.594002294374208
 30
0.0
  0
LINE
  5
A3
330
1F
100
AcDbEntity
  8
0
  6
Continuous
 62
     7
370
    25
100
AcDbLine
 10
16.1910476577
 20
-9.5940022944
 30
0.0
 11
16.1252960339
 21
-9.5474017236
 31
0.0
  0
SPLINE
  5
A4
330
1F
100
AcDbEntity
  8
0
  6
Continuous
 62
     7
370
    25
100
AcDbSpline
210
0.0
220
0.0
230
1.0
 70
     8
 71
     3
 72
    15
 73
    11
 74
     0
 42
0.00000001
 43
0.00000001
 40
0.0
 40
0.0
 40
0.0
 40
0.0
 40
0.1340719621348738
 40
0.2208648061554332
 40
0.3076254987653428
 40
0.3966694098341904
 40
0.4912578970962597
 40
0.5957152317369413
 40
0.7147962534724208
 40
0.9952809336858882
 40
0.9952809336858882
 40
0.9952809336858882
 40
0.9952809336858882
 10
16.12529603388383
 20
-9.547401723598165
 30
0.0
 10
16.05978603684005
 20
-9.503306316684291
 30
0.0
 10
15.95735319779392
 20
-9.422809877691321
 30
0.0
 10
15.82437401877098
 20
-9.299616857747498
 30
0.0
 10
15.72004353824162
 20
-9.185210263805041
 30
0.0
 10
15.6245773251265
 20
-9.057425828728007
 30
0.0
 10
15.53980218778856
 20
-8.90992723854234
 30
0.0
 10
15.4714360296845
 20
-8.734610155229165
 30
0.0
 10
15.41705182473845
 20
-8.44061473146777
 30
0.0
 10
15.46158598243648
 20
-8.20044221819043
 30
0.0
 10
15.53730199771153
 20
-8.052468356467408
 30
0.0
  0
ARC
  5
A5
330
1F
100
AcDbEntity
  8
0
  6
Continuous
 62
     7
370
    25
100
AcDbCircle
 10
0.0
 20
0.0
 30
0.0
 40
17.5
100
AcDbArc
 50
332.6037904932
 51
333.3962095062
  0
SPLINE
  5
A6
330
1F
100
AcDbEntity
  8
0
  6
Continuous
 62
     7
370
    25
100
AcDbSpline
210
0.0
220
0.0
230
1.0
 70
     8
 71
     3
 72
    15
 73
    11
 74
     0
 42
0.00000001
 43
0.00000001
 40
0.0047190662144342
 40
0.0047190662144342
 40
0.0047190662144342
 40
0.0047190662144342
 40
0.2852037465275792
 40
0.4042847682630587
 40
0.5087421029037403
 40
0.6033305901658097
 40
0.6923745012346572
 40
0.7791351938445668
 40
0.8659280378651262
 40
1.0
 40
1.0
 40
1.0
 40
1.0
 10
15.64718072163761
 20
-7.836819218559275
 30
0.0
 10
15.7223893333501
 20
-7.688586821740227
 30
0.0
 10
15.89051645708555
 20
-7.511388069958961
 30
0.0
 10
16.1603299848553
 20
-7.382579641632002
 30
0.0
 10
16.34234910414936
 20
-7.334840229331896
 30
0.0
 10
16.51150754574423
 20
-7.316727260093693
 30
0.0
 10
16.67100095749943
 20
-7.318851242481645
 30
0.0
 10
16.82488175408718
 20
-7.336009865576814
 30
0.0
 10
17.00271020110174
 20
-7.371181240996048
 30
0.0
 10
17.12804170037548
 20
-7.40673652886431
 30
0.0
 10
17.20222144408274
 20
-7.433816599896371
 30
0.0
  0
LINE
  5
A7
330
1F
100
AcDbEntity
  8
0
  6
Continuous
 62
     7
370
    25
100
AcDbLine
 10
17.2022214441
 20
-7.4338165999
 30
0.0
 11
17.2785699326
 21
-7.4596196528
 31
0.0
  0
SPLINE
  5
A8
330
1F
100
AcDbEntity
  8
0
  6
Continuous
 62
     7
370
    25
100
AcDbSpline
210
0.0
220
0.0
230
1.0
 70
     8
 71
     3
 72
    15
 73
    11
 74
     0
 42
0.00000001
 43
0.00000001
 40
0.0
 40
0.0
 40
0.0
 40
0.0
 40
0.0620908418279525
 40
0.1189941859631136
 40
0.193136179108945
 40
0.2845168281892573
 40
0.3931361368312883
 40
0.5189941071718175
 40
0.6620907405753791
 40
0.7278603056024602
 40
0.7278603056024602
 40
0.7278603056024602
 40
0.7278603056024602
 10
17.27856993260376
 20
-7.459619652751391
 30
0.0
 10
17.3709904397747
 20
-7.492947224758161
 30
0.0
 10
17.5530307156013
 20
-7.541708049825315
 30
0.0
 10
17.85336142918033
 20
-7.598072274253541
 30
0.0
 10
18.20280904954438
 20
-7.640190143372253
 30
0.0
 10
18.63594441089903
 20
-7.663982768650107
 30
0.0
 10
19.15154939317862
 20
-7.658478771044175
 30
0.0
 10
19.74727624581804
 20
-7.612953936029076
 30
0.0
 10
20.27161322657994
 20
-7.537994260314926
 30
0.0
 10
20.59618582108352
 20
-7.476511314473004
 30
0.0
 10
20.69810830830572
 20
-7.455757000978884
 30
0.0
  0
ARC
  5
A9
330
1F
100
AcDbEntity
  8
0
  6
Continuous
 62
     7
370
    25
100
AcDbCircle
 10
0.0
 20
0.0
 30
0.0
 40
22.0
100
AcDbArc
 50
340.1902487301
 51
343.8097512699
  0
SPLINE
  5
AA
330
1F
100
AcDbEntity
  8
0
  6
Continuous
 62
     7
370
    25
100
AcDbSpline
210
0.0
220
0.0
230
1.0
 70
     8
 71
     3
 72
    15
 73
    11
 74
     0
 42
0.00000001
 43
0.00000001
 40
0.2721396943975382
 40
0.2721396943975382
 40
0.2721396943975382
 40
0.2721396943975382
 40
0.3379092594246208
 40
0.4810058928281825
 40
0.6068638631687115
 40
0.7154831718107426
 40
0.806863820891055
 40
0.8810058140368864
 40
0.9379091581720475
 40
1.0
 40
1.0
 40
1.0
 40
1.0
 10
21.12750538268432
 20
-6.134208694252685
 30
0.0
 10
21.05724743780589
 20
-6.057509567063178
 30
0.0
 10
20.83080146177751
 20
-5.816989834665318
 30
0.0
 10
20.45066412546329
 20
-5.448148638596324
 30
0.0
 10
19.99546980430743
 20
-5.061158815026928
 30
0.0
 10
19.58157177988026
 20
-4.753640982834255
 30
0.0
 10
19.21717295742798
 20
-4.518299043374204
 30
0.0
 10
18.90970763158361
 20
-4.346972957559408
 30
0.0
 10
18.63360492048961
 20
-4.216042608744372
 30
0.0
 10
18.45767034982109
 20
-4.148490355429314
 30
0.0
 10
18.36331113357076
 20
-4.121129516439578
 30
0.0
  0
LINE
  5
AB
330
1F
100
AcDbEntity
  8
0
  6
Continuous
 62
     7
370
    25
100
AcDbLine
 10
18.3633111336
 20
-4.1211295164
 30
0.0
 11
18.2863772549
 21
-4.0971281091
 31
0.0
  0
SPLINE
  5
AC
330
1F
100
AcDbEntity
  8
0
  6
Continuous
 62
     7
370
    25
100
AcDbSpline
210
0.0
220
0.0
230
1.0
 70
     8
 71
     3
 72
    15
 73
    11
 74
     0
 42
0.00000001
 43
0.00000001
 40
0.0
 40
0.0
 40
0.0
 40
0.0
 40
0.1340719621348738
 40
0.2208648061554332
 40
0.3076254987653428
 40
0.3966694098341904
 40
0.4912578970962597
 40
0.5957152317369413
 40
0.7147962534724208
 40
0.9952809336869033
 40
0.9952809336869033
 40
0.9952809336869033
 40
0.9952809336869033
 10
18.28637725493012
 20
-4.097128109118565
 30
0.0
 10
18.21044731524889
 20
-4.07543458742242
 30
0.0
 10
18.08815312855596
 20
-4.030531412626928
 30
0.0
 10
17.9236136770636
 20
-3.954460714463392
 30
0.0
 10
17.78903591191118
 20
-3.877893469302161
 30
0.0
 10
17.65875458578661
 20
-3.785863931882248
 30
0.0
 10
17.53254906798783
 20
-3.671781394679714
 30
0.0
 10
17.41335302968088
 20
-3.526171244871137
 30
0.0
 10
17.27078099497238
 20
-3.26337062489528
 30
0.0
 10
17.2389181076645
 20
-3.021191179548312
 30
0.0
 10
17.26520187938448
 20
-2.85706213864838
 30
0.0
  0
ARC
  5
AD
330
1F
100
AcDbEntity
  8
0
  6
Continuous
 62
     7
370
    25
100
AcDbCircle
 10
0.0
 20
0.0
 30
0.0
 40
17.5
100
AcDbArc
 50
350.6037904932
 51
351.3962095062
  0
SPLINE
  5
AE
330
1F
100
AcDbEntity
  8
0
  6
Continuous
 62
     7
370
    25
100
AcDbSpline
210
0.0
220
0.0
230
1.0
 70
     8
 71
     3
 72
    15
 73
    11
 74
     0
 42
0.00000001
 43
0.00000001
 40
0.0047190662146713
 40
0.0047190662146713
 40
0.0047190662146713
 40
0.0047190662146713
 40
0.2852037465275792
 40
0.4042847682630587
 40
0.5087421029037403
 40
0.6033305901658097
 40
0.6923745012346572
 40
0.7791351938445668
 40
0.8659280378651262
 40
1.0
 40
1.0
 40
1.0
 40
1.0
 10
17.30306350734043
 20
-2.618013227795386
 30
0.0
 10
17.32878481785715
 20
-2.453795101732227
 30
0.0
 10
17.43392578876924
 20
-2.233314935721821
 30
0.0
 10
17.65072970916739
 20
-2.027433875214716
 30
0.0
 10
17.80908788896011
 20
-1.925783994899571
 30
0.0
 10
17.96436991181204
 20
-1.85628470428133
 30
0.0
 10
18.11671350702159
 20
-1.809018556848692
 30
0.0
 10
18.26836514748555
 20
-1.777785595900434
 30
0.0
 10
18.44835860352148
 20
-1.756283549469155
 30
0.0
 10
18.578543130794
 20
-1.751369074478939
 30
0.0
 10
18.65746046158168
 20
-1.754200951051794
 30
0.0
  0
LINE
  5
AF
330
1F
100
AcDbEntity
  8
0
  6
Continuous
 62
     7
370
    25
100
AcDbLine
 10
18.6574604616
 20
-1.7542009511
 30
0.0
 11
18.7380457709
 21
-1.7551481322
 31
0.0
  0
SPLINE
  5
B0
330
1F
100
AcDbEntity
  8
0
  6
Continuous
 62
     7
370
    25
100
AcDbSpline
210
0.0
220
0.0
230
1.0
 70
     8
 71
     3
 72
    15
 73
    11
 74
     0
 42
0.00000001
 43
0.00000001
 40
0.0
 40
0.0
 40
0.0
 40
0.0
 40
0.0620908418279525
 40
0.1189941859631136
 40
0.193136179108945
 40
0.2845168281892573
 40
0.3931361368312883
 40
0.5189941071718175
 40
0.6620907405753791
 40
0.727860305602461
 40
0.727860305602461
 40
0.727860305602461
 40
0.727860305602461
 10
18.73804577093784
 20
-1.755148132162032
 30
0.0
 10
18.83624168265341
 20
-1.758285029346796
 30
0.0
 10
19.02444019681196
 20
-1.748405790875719
 30
0.0
 10
19.32748918222795
 20
-1.709204059375429
 30
0.0
 10
19.67284875600357
 20
-1.641275279916868
 30
0.0
 10
20.0921372894094
 20
-1.530057223703823
 30
0.0
 10
20.58080593884343
 20
-1.365491909006238
 30
0.0
 10
21.13330789629238
 20
-1.138105496540786
 30
0.0
 10
21.608818184892
 20
-0.9047855706587923
 30
0.0
 10
21.89850579077606
 20
-0.7460133667648355
 30
0.0
 10
21.98902640082948
 20
-0.6947790610143979
 30
0.0
  0
ARC
  5
B1
330
1F
100
AcDbEntity
  8
0
  6
Continuous
 62
     7
370
    25
100
AcDbCircle
 10
0.0
 20
0.0
 30
0.0
 40
22.0
100
AcDbArc
 50
358.1902487301
 51
1.8097512699
  0
SPLINE
  5
B2
330
1F
100
AcDbEntity
  8
0
  6
Continuous
 62
     7
370
    25
100
AcDbSpline
210
0.0
220
0.0
230
1.0
 70
     8
 71
     3
 72
    15
 73
    11
 74
     0
 42
0.00000001
 43
0.00000001
 40
0.272139694397538
 40
0.272139694397538
 40
0.272139694397538
 40
0.272139694397538
 40
0.3379092594246208
 40
0.4810058928281825
 40
0.6068638631687115
 40
0.7154831718107426
 40
0.806863820891055
 40
0.8810058140368864
 40
0.9379091581720475
 40
1.0
 40
1.0
 40
1.0
 40
1.0
 10
21.98902640082948
 20
0.6947790610142475
 30
0.0
 10
21.89850579077607
 20
0.7460133667646863
 30
0.0
 10
21.60881818489201
 20
0.904785570658646
 30
0.0
 10
21.13330789629238
 20
1.138105496540643
 30
0.0
 10
20.58080593884344
 20
1.365491909006099
 30
0.0
 10
20.09213728940942
 20
1.530057223703688
 30
0.0
 10
19.67284875600358
 20
1.641275279916735
 30
0.0
 10
19.32748918222797
 20
1.709204059375299
 30
0.0
 10
19.02444019681197
 20
1.748405790875591
 30
0.0
 10
18.83624168265342
 20
1.758285029346668
 30
0.0
 10
18.73804577093785
 20
1.755148132161906
 30
0.0
  0
LINE
  5
B3
330
1F
100
AcDbEntity
  8
0
  6
Continuous
 62
     7
370
    25
100
AcDbLine
 10
18.7380457709
 20
1.7551481322
 30
0.0
 11
18.6574604616
 21
1.7542009511
 31
0.0
  0
SPLINE
  5
B4
330
1F
100
AcDbEntity
  8
0
  6
Continuous
 62
     7
370
    25
100
AcDbSpline
210
0.0
220
0.0
230
1.0
 70
     8
 71
     3
 72
    15
 73
    11
 74
     0
 42
0.00000001
 43
0.00000001
 40
0.0
 40
0.0
 40
0.0
 40
0.0
 40
0.1340719621348738
 40
0.2208648061554332
 40
0.3076254987653428
 40
0.3966694098341904
 40
0.4912578970962597
 40
0.5957152317369413
 40
0.7147962534724208
 40
0.9952809337713205
 40
0.9952809337713205
 40
0.9952809337713205
 40
0.9952809337713205
 10
18.65746046158169
 20
1.754200951051669
 30
0.0
 10
18.57854313079401
 20
1.751369074478814
 30
0.0
 10
18.44835860352149
 20
1.75628354946903
 30
0.0
 10
18.26836514748556
 20
1.777785595900311
 30
0.0
 10
18.11671350702161
 20
1.809018556848569
 30
0.0
 10
17.96436991181205
 20
1.856284704281209
 30
0.0
 10
17.80908788896012
 20
1.925783994899451
 30
0.0
 10
17.6507297091674
 20
2.027433875214597
 30
0.0
 10
17.43392578877529
 20
2.233314935715982
 30
0.0
 10
17.32878481786453
 20
2.453795101716652
 30
0.0
 10
17.30306350734429
 20
2.618013227770665
 30
0.0
  0
ARC
  5
B5
330
1F
100
AcDbEntity
  8
0
  6
Continuous
 62
     7
370
    25
100
AcDbCircle
 10
0.0
 20
0.0
 30
0.0
 40
17.5
100
AcDbArc
 50
8.6037904937
 51
9.3962095062
  0
SPLINE
  5
B6
330
1F
100
AcDbEntity
  8
0
  6
Continuous
 62
     7
370
    25
100
AcDbSpline
210
0.0
220
0.0
230
1.0
 70
     8
 71
     3
 72
    15
 73
    11
 74
     0
 42
0.00000001
 43
0.00000001
 40
0.0047190662141735
 40
0.0047190662141735
 40
0.0047190662141735
 40
0.0047190662141735
 40
0.2852037465275792
 40
0.4042847682630587
 40
0.5087421029037403
 40
0.6033305901658097
 40
0.6923745012346572
 40
0.7791351938445668
 40
0.8659280378651262
 40
1.0
 40
1.0
 40
1.0
 40
1.0
 10
17.26520187941231
 20
2.857062138474602
 30
0.0
 10
17.23891810764875
 20
3.021191179428278
 30
0.0
 10
17.27078099494441
 20
3.263370624843578
 30
0.0
 10
17.41335302968091
 20
3.526171244871018
 30
0.0
 10
17.53254906798786
 20
3.671781394679592
 30
0.0
 10
17.65875458578664
 20
3.785863931882127
 30
0.0
 10
17.7890359119112
 20
3.877893469302036
 30
0.0
 10
17.92361367706363
 20
3.954460714463268
 30
0.0
 10
18.08815312855599
 20
4.030531412626802
 30
0.0
 10
18.21044731524891
 20
4.075434587422293
 30
0.0
 10
18.28637725493014
 20
4.097128109118438
 30
0.0
  0
LINE
  5
B7
330
1F
100
AcDbEntity
  8
0
  6
Continuous
 62
     7
370
    25
100
AcDbLine
 10
18.2863772549
 20
4.0971281091
 30
0.0
 11
18.3633111336
 21
4.1211295164
 31
0.0
  0
SPLINE
  5
B8
330
1F
100
AcDbEntity
  8
0
  6
Continuous
 62
     7
370
    25
100
AcDbSpline
210
0.0
220
0.0
230
1.0
 70
     8
 71
     3
 72
    15
 73
    11
 74
     0
 42
0.00000001
 43
0.00000001
 40
0.0
 40
0.0
 40
0.0
 40
0.0
 40
0.0620908418279525
 40
0.1189941859631136
 40
0.193136179108945
 40
0.2845168281892573
 40
0.3931361368312883
 40
0.5189941071718175
 40
0.6620907405753791
 40
0.7278603056024598
 40
0.7278603056024598
 40
0.7278603056024598
 40
0.7278603056024598
 10
18.36331113357079
 20
4.12112951643945
 30
0.0
 10
18.45767034982113
 20
4.148490355429186
 30
0.0
 10
18.63360492048964
 20
4.216042608744244
 30
0.0
 10
18.90970763158364
 20
4.346972957559276
 30
0.0
 10
19.21717295742801
 20
4.51829904337407
 30
0.0
 10
19.58157177988029
 20
4.753640982834118
 30
0.0
 10
19.99546980430746
 20
5.061158815026789
 30
0.0
 10
20.45066412546333
 20
5.448148638596181
 30
0.0
 10
20.83080146177755
 20
5.816989834665174
 30
0.0
 10
21.05724743780593
 20
6.057509567063029
 30
0.0
 10
21.12750538268435
 20
6.134208694252533
 30
0.0
  0
ARC
  5
B9
330
1F
100
AcDbEntity
  8
0
  6
Continuous
 62
     7
370
    25
100
AcDbCircle
 10
0.0
 20
0.0
 30
0.0
 40
22.0
100
AcDbArc
 50
16.1902487301
 51
19.8097512699
  0
SPLINE
  5
BA
330
1F
100
AcDbEntity
  8
0
  6
Continuous
 62
     7
370
    25
100
AcDbSpline
210
0.0
220
0.0
230
1.0
 70
     8
 71
     3
 72
    15
 73
    11
 74
     0
 42
0.00000001
 43
0.00000001
 40
0.2721396943975394
 40
0.2721396943975394
 40
0.2721396943975394
 40
0.2721396943975394
 40
0.3379092594246208
 40
0.4810058928281825
 40
0.6068638631687115
 40
0.7154831718107426
 40
0.806863820891055
 40
0.8810058140368864
 40
0.9379091581720475
 40
1.0
 40
1.0
 40
1.0
 40
1.0
 10
20.69810830830578
 20
7.455757000978739
 30
0.0
 10
20.59618582108358
 20
7.476511314472859
 30
0.0
 10
20.27161322658
 20
7.537994260314784
 30
0.0
 10
19.7472762458181
 20
7.612953936028941
 30
0.0
 10
19.15154939317868
 20
7.658478771044043
 30
0.0
 10
18.63594441089908
 20
7.663982768649979
 30
0.0
 10
18.20280904954444
 20
7.640190143372126
 30
0.0
 10
17.85336142918039
 20
7.598072274253417
 30
0.0
 10
17.55303071560135
 20
7.541708049825195
 30
0.0
 10
17.37099043977475
 20
7.492947224758038
 30
0.0
 10
17.27856993260382
 20
7.45961965275127
 30
0.0
  0
LINE
  5
BB
330
1F
100
AcDbEntity
  8
0
  6
Continuous
 62
     7
370
    25
100
AcDbLine
 10
17.2785699326
 20
7.4596196528
 30
0.0
 11
17.2022214441
 21
7.4338165999
 31
0.0
  0
SPLINE
  5
BC
330
1F
100
AcDbEntity
  8
0
  6
Continuous
 62
     7
370
    25
100
AcDbSpline
210
0.0
220
0.0
230
1.0
 70
     8
 71
     3
 72
    15
 73
    11
 74
     0
 42
0.00000001
 43
0.00000001
 40
0.0
 40
0.0
 40
0.0
 40
0.0
 40
0.1340719621348738
 40
0.2208648061554332
 40
0.3076254987653428
 40
0.3966694098341904
 40
0.4912578970962597
 40
0.5957152317369413
 40
0.7147962534724208
 40
0.9952809336871229
 40
0.9952809336871229
 40
0.9952809336871229
 40
0.9952809336871229
 10
17.20222144408279
 20
7.433816599896252
 30
0.0
 10
17.12804170037553
 20
7.406736528864193
 30
0.0
 10
17.00271020110179
 20
7.37118124099593
 30
0.0
 10
16.82488175408722
 20
7.336009865576695
 30
0.0
 10
16.67100095749948
 20
7.31885124248153
 30
0.0
 10
16.51150754574427
 20
7.316727260093577
 30
0.0
 10
16.34234910414942
 20
7.334840229331782
 30
0.0
 10
16.16032998485535
 20
7.38257964163189
 30
0.0
 10
15.89051645713831
 20
7.511388069933696
 30
0.0
 10
15.72238933343299
 20
7.6885868216528
 30
0.0
 10
15.64718072171685
 20
7.836819218403089
 30
0.0
  0
ARC
  5
BD
330
1F
100
AcDbEntity
  8
0
  6
Continuous
 62
     7
370
    25
100
AcDbCircle
 10
0.0
 20
0.0
 30
0.0
 40
17.5
100
AcDbArc
 50
26.6037904932
 51
27.3962095062
  0
SPLINE
  5
BE
330
1F
100
AcDbEntity
  8
0
  6
Continuous
 62
     7
370
    25
100
AcDbSpline
210
0.0
220
0.0
230
1.0
 70
     8
 71
     3
 72
    15
 73
    11
 74
     0
 42
0.00000001
 43
0.00000001
 40
0.0047190662147969
 40
0.0047190662147969
 40
0.0047190662147969
 40
0.0047190662147969
 40
0.2852037465275792
 40
0.4042847682630587
 40
0.5087421029037403
 40
0.6033305901658097
 40
0.6923745012346572
 40
0.7791351938445668
 40
0.8659280378651262
 40
1.0
 40
1.0
 40
1.0
 40
1.0
 10
15.53730199779201
 20
8.052468356310118
 30
0.0
 10
15.46158598245868
 20
8.200442218070933
 30
0.0
 10
15.41705182472778
 20
8.44061473140973
 30
0.0
 10
15.47143602968456
 20
8.734610155229063
 30
0.0
 10
15.53980218778862
 20
8.909927238542236
 30
0.0
 10
15.62457732512656
 20
9.057425828727903
 30
0.0
 10
15.72004353824169
 20
9.18521026380493
 30
0.0
 10
15.82437401877105
 20
9.29961685774739
 30
0.0
 10
15.95735319779399
 20
9.422809877691211
 30
0.0
 10
16.05978603684011
 20
9.50330631668418
 30
0.0
 10
16.12529603388389
 20
9.547401723598055
 30
0.0
  0
LINE
  5
BF
330
1F
100
AcDbEntity
  8
0
  6
Continuous
 62
     7
370
    25
100
AcDbLine
 10
16.1252960339
 20
9.5474017236
 30
0.0
 11
16.1910476577
 21
9.5940022944
 31
0.0
  0
SPLINE
  5
C0
330
1F
100
AcDbEntity
  8
0
  6
Continuous
 62
     7
370
    25
100
AcDbSpline
210
0.0
220
0.0
230
1.0
 70
     8
 71
     3
 72
    15
 73
    11
 74
     0
 42
0.00000001
 43
0.00000001
 40
0.0
 40
0.0
 40
0.0
 40
0.0
 40
0.0620908418279525
 40
0.1189941859631136
 40
0.193136179108945
 40
0.2845168281892573
 40
0.3931361368312883
 40
0.5189941071718175
 40
0.6620907405753791
 40
0.7278603056024611
 40
0.7278603056024611
 40
0.7278603056024611
 40
0.7278603056024611
 10
16.19104765773784
 20
9.594002294374098
 30
0.0
 10
16.27233364099704
 20
9.649182599983844
 30
0.0
 10
16.41878256659024
 20
9.76779538292418
 30
0.0
 10
16.64091214627966
 20
9.977637974266557
 30
0.0
 10
16.88038637586225
 20
10.235590775459
 30
0.0
 10
17.15422559170345
 20
10.57201968940799
 30
0.0
 10
17.45283776869573
 20
10.992388051078
 30
0.0
 10
17.76616686187846
 20
11.50110002550372
 30
0.0
 10
18.01372075485629
 20
11.96935774562075
 30
0.0
 10
18.15475899115344
 20
12.2680812593159
 30
0.0
 10
18.1978769336963
 20
12.36273736298092
 30
0.0
  0
ARC
  5
C1
330
1F
100
AcDbEntity
  8
0
  6
Continuous
 62
     7
370
    25
100
AcDbCircle
 10
0.0
 20
0.0
 30
0.0
 40
22.0
100
AcDbArc
 50
34.1902487301
 51
37.8097512699
  0
SPLINE
  5
C2
330
1F
100
AcDbEntity
  8
0
  6
Continuous
 62
     7
370
    25
100
AcDbSpline
210
0.0
220
0.0
230
1.0
 70
     8
 71
     3
 72
    15
 73
    11
 74
     0
 42
0.00000001
 43
0.00000001
 40
0.2721396943975379
 40
0.2721396943975379
 40
0.2721396943975379
 40
0.2721396943975379
 40
0.3379092594246208
 40
0.4810058928281825
 40
0.6068638631687115
 40
0.7154831718107426
 40
0.806863820891055
 40
0.8810058140368864
 40
0.9379091581720475
 40
1.0
 40
1.0
 40
1.0
 40
1.0
 10
17.38111516236463
 20
13.48691349837383
 30
0.0
 10
17.27776768115868
 20
13.47515624280302
 30
0.0
 10
16.95008152501584
 20
13.43333155147703
 30
0.0
 10
16.4282436090392
 20
13.34259340168967
 30
0.0
 10
15.84760575621869
 20
13.20180037121297
 30
0.0
 10
15.3555354491902
 20
13.04770428209298
 30
0.0
 10
14.95095156688766
 20
12.89122996325939
 30
0.0
 10
14.63162226776113
 20
12.74318823604519
 30
0.0
 10
14.36340828879131
 20
12.59677537868814
 30
0.0
 10
14.20534562184374
 20
12.49414753937697
 30
0.0
 10
14.12774728239087
 20
12.43389162750306
 30
0.0
  0
LINE
  5
C3
330
1F
100
AcDbEntity
  8
0
  6
Continuous
 62
     7
370
    25
100
AcDbLine
 10
14.1277472824
 20
12.4338916275
 30
0.0
 11
14.0631091367
 21
12.3857584855
 31
0.0
  0
SPLINE
  5
C4
330
1F
100
AcDbEntity
  8
0
  6
Continuous
 62
     7
370
    25
100
AcDbSpline
210
0.0
220
0.0
230
1.0
 70
     8
 71
     3
 72
    15
 73
    11
 74
     0
 42
0.00000001
 43
0.00000001
 40
0.0
 40
0.0
 40
0.0
 40
0.0
 40
0.1340719621348738
 40
0.2208648061554332
 40
0.3076254987653428
 40
0.3966694098341904
 40
0.4912578970962597
 40
0.5957152317369413
 40
0.7147962534724208
 40
0.9952809336863186
 40
0.9952809336863186
 40
0.9952809336863186
 40
0.9952809336863186
 10
14.06310913671262
 20
12.38575848549715
 30
0.0
 10
14.00092821024052
 20
12.33708100603645
 30
0.0
 10
13.89271805935037
 20
12.26453635461452
 30
0.0
 10
13.7344617087546
 20
12.17613437662418
 30
0.0
 10
13.59341468056362
 20
12.1122637750653
 30
0.0
 10
13.44238377866132
 20
12.06095757305155
 30
0.0
 10
13.275907325183
 20
12.0259111972802
 30
0.0
 10
13.08804456598587
 20
12.01506707526929
 30
0.0
 10
12.79163265890248
 20
12.05419420498258
 30
0.0
 10
12.57697683667374
 20
12.17076609404367
 30
0.0
 10
12.45964286670696
 20
12.28850274175491
 30
0.0
  0
ARC
  5
C5
330
1F
100
AcDbEntity
  8
0
  6
Continuous
 62
     7
370
    25
100
AcDbCircle
 10
0.0
 20
0.0
 30
0.0
 40
17.50000000000001
100
AcDbArc
 50
44.6037904932
 51
45.3962095062
  0
SPLINE
  5
C6
330
1F
100
AcDbEntity
  8
0
  6
Continuous
 62
     7
370
    25
100
AcDbSpline
210
0.0
220
0.0
230
1.0
 70
     8
 71
     3
 72
    15
 73
    11
 74
     0
 42
0.00000001
 43
0.00000001
 40
0.0047190662145951
 40
0.0047190662145951
 40
0.0047190662145951
 40
0.0047190662145951
 40
0.2852037465275792
 40
0.4042847682630587
 40
0.5087421029037403
 40
0.6033305901658097
 40
0.6923745012346572
 40
0.7791351938445668
 40
0.8659280378651262
 40
1.0
 40
1.0
 40
1.0
 40
1.0
 10
12.28850274187973
 20
12.45964286658258
 30
0.0
 10
12.17076609410154
 20
12.57697683656724
 30
0.0
 10
12.05419420499031
 20
12.79163265884416
 30
0.0
 10
12.01506707526934
 20
13.08804456598583
 30
0.0
 10
12.02591119728025
 20
13.27590732518296
 30
0.0
 10
12.0609575730516
 20
13.44238377866128
 30
0.0
 10
12.11226377506535
 20
13.59341468056358
 30
0.0
 10
12.17613437662423
 20
13.73446170875457
 30
0.0
 10
12.26453635461456
 20
13.89271805935033
 30
0.0
 10
12.3370810060365
 20
14.00092821024048
 30
0.0
 10
12.3857584854972
 20
14.06310913671259
 30
0.0
  0
LINE
  5
C7
330
1F
100
AcDbEntity
  8
0
  6
Continuous
 62
     7
370
    25
100
AcDbLine
 10
12.3857584855
 20
14.0631091367
 30
0.0
 11
12.4338916275
 21
14.1277472824
 31
0.0
  0
SPLINE
  5
C8
330
1F
100
AcDbEntity
  8
0
  6
Continuous
 62
     7
370
    25
100
AcDbSpline
210
0.0
220
0.0
230
1.0
 70
     8
 71
     3
 72
    15
 73
    11
 74
     0
 42
0.00000001
 43
0.00000001
 40
0.0
 40
0.0
 40
0.0
 40
0.0
 40
0.0620908418279525
 40
0.1189941859631136
 40
0.193136179108945
 40
0.2845168281892573
 40
0.3931361368312883
 40
0.5189941071718175
 40
0.6620907405753791
 40
0.7278603056024601
 40
0.7278603056024601
 40
0.7278603056024601
 40
0.7278603056024601
 10
12.43389162750311
 20
14.12774728239083
 30
0.0
 10
12.49414753937702
 20
14.20534562184371
 30
0.0
 10
12.59677537868818
 20
14.36340828879127
 30
0.0
 10
12.74318823604525
 20
14.6316222677611
 30
0.0
 10
12.89122996325944
 20
14.95095156688762
 30
0.0
 10
13.04770428209303
 20
15.35553544919016
 30
0.0
 10
13.20180037121302
 20
15.84760575621865
 30
0.0
 10
13.34259340168973
 20
16.42824360903915
 30
0.0
 10
13.43333155147709
 20
16.9500815250158
 30
0.0
 10
13.47515624280308
 20
17.27776768115864
 30
0.0
 10
13.48691349837389
 20
17.38111516236459
 30
0.0
  0
ARC
  5
C9
330
1F
100
AcDbEntity
  8
0
  6
Continuous
 62
     7
370
    25
100
AcDbCircle
 10
0.0
 20
0.0
 30
0.0
 40
22.0
100
AcDbArc
 50
52.1902487301
 51
55.8097512699
  0
SPLINE
  5
CA
330
1F
100
AcDbEntity
  8
0
  6
Continuous
 62
     7
370
    25
100
AcDbSpline
210
0.0
220
0.0
230
1.0
 70
     8
 71
     3
 72
    15
 73
    11
 74
     0
 42
0.00000001
 43
0.00000001
 40
0.2721396943975392
 40
0.2721396943975392
 40
0.2721396943975392
 40
0.2721396943975392
 40
0.3379092594246208
 40
0.4810058928281825
 40
0.6068638631687115
 40
0.7154831718107426
 40
0.806863820891055
 40
0.8810058140368864
 40
0.9379091581720475
 40
1.0
 40
1.0
 40
1.0
 40
1.0
 10
12.36273736298098
 20
18.19787693369625
 30
0.0
 10
12.26808125931595
 20
18.1547589911534
 30
0.0
 10
11.96935774562081
 20
18.01372075485624
 30
0.0
 10
11.50110002550378
 20
17.76616686187843
 30
0.0
 10
10.99238805107806
 20
17.4528377686957
 30
0.0
 10
10.57201968940805
 20
17.15422559170343
 30
0.0
 10
10.23559077545906
 20
16.88038637586222
 30
0.0
 10
9.977637974266614
 20
16.64091214627964
 30
0.0
 10
9.767795382924234
 20
16.41878256659021
 30
0.0
 10
9.649182599983899
 20
16.272333640997
 30
0.0
 10
9.594002294374155
 20
16.19104765773781
 30
0.0
  0
LINE
  5
CB
330
1F
100
AcDbEntity
  8
0
  6
Continuous
 62
     7
370
    25
100
AcDbLine
 10
9.5940022944
 20
16.1910476577
 30
0.0
 11
9.5474017236
 21
16.1252960339
 31
0.0
  0
SPLINE
  5
CC
330
1F
100
AcDbEntity
  8
0
  6
Continuous
 62
     7
370
    25
100
AcDbSpline
210
0.0
220
0.0
230
1.0
 70
     8
 71
     3
 72
    15
 73
    11
 74
     0
 42
0.00000001
 43
0.00000001
 40
0.0
 40
0.0
 40
0.0
 40
0.0
 40
0.1340719621348738
 40
0.2208648061554332
 40
0.3076254987653428
 40
0.3966694098341904
 40
0.4912578970962597
 40
0.5957152317369413
 40
0.7147962534724208
 40
0.9952809336867967
 40
0.9952809336867967
 40
0.9952809336867967
 40
0.9952809336867967
 10
9.54740172359811
 20
16.12529603388387
 30
0.0
 10
9.503306316684238
 20
16.05978603684009
 30
0.0
 10
9.422809877691268
 20
15.95735319779396
 30
0.0
 10
9.299616857747445
 20
15.82437401877102
 30
0.0
 10
9.185210263804988
 20
15.72004353824166
 30
0.0
 10
9.057425828727956
 20
15.62457732512654
 30
0.0
 10
8.90992723854229
 20
15.5398021877886
 30
0.0
 10
8.734610155229115
 20
15.47143602968454
 30
0.0
 10
8.440614731467187
 20
15.41705182473838
 30
0.0
 10
8.200442218189286
 20
15.46158598243672
 30
0.0
 10
8.05246835646592
 20
15.5373019977123
 30
0.0
  0
ARC
  5
CD
330
1F
100
AcDbEntity
  8
0
  6
Continuous
 62
     7
370
    25
100
AcDbCircle
 10
0.0
 20
0.0
 30
0.0
 40
17.5
100
AcDbArc
 50
62.6037904932
 51
63.3962095062
  0
SPLINE
  5
CE
330
1F
100
AcDbEntity
  8
0
  6
Continuous
 62
     7
370
    25
100
AcDbSpline
210
0.0
220
0.0
230
1.0
 70
     8
 71
     3
 72
    15
 73
    11
 74
     0
 42
0.00000001
 43
0.00000001
 40
0.0047190662141473
 40
0.0047190662141473
 40
0.0047190662141473
 40
0.0047190662141473
 40
0.2852037465275792
 40
0.4042847682630587
 40
0.5087421029037403
 40
0.6033305901658097
 40
0.6923745012346572
 40
0.7791351938445668
 40
0.8659280378651262
 40
1.0
 40
1.0
 40
1.0
 40
1.0
 10
7.836819218559672
 20
15.64718072163741
 30
0.0
 10
7.688586821740423
 20
15.72238933334989
 30
0.0
 10
7.511388069958976
 20
15.89051645708542
 30
0.0
 10
7.382579641631944
 20
16.16032998485533
 30
0.0
 10
7.334840229331836
 20
16.34234910414939
 30
0.0
 10
7.316727260093633
 20
16.51150754574425
 30
0.0
 10
7.318851242481585
 20
16.67100095749944
 30
0.0
 10
7.336009865576752
 20
16.8248817540872
 30
0.0
 10
7.371181240995987
 20
17.00271020110176
 30
0.0
 10
7.406736528864247
 20
17.1280417003755
 30
0.0
 10
7.433816599896308
 20
17.20222144408276
 30
0.0
  0
LINE
  5
CF
330
1F
100
AcDbEntity
  8
0
  6
Continuous
 62
     7
370
    25
100
AcDbLine
 10
7.4338165999
 20
17.2022214441
 30
0.0
 11
7.4596196528
 21
17.2785699326
 31
0.0
  0
SPLINE
  5
D0
330
1F
100
AcDbEntity
  8
0
  6
Continuous
 62
     7
370
    25
100
AcDbSpline
210
0.0
220
0.0
230
1.0
 70
     8
 71
     3
 72
    15
 73
    11
 74
     0
 42
0.00000001
 43
0.00000001
 40
0.0
 40
0.0
 40
0.0
 40
0.0
 40
0.0620908418279525
 40
0.1189941859631136
 40
0.193136179108945
 40
0.2845168281892573
 40
0.3931361368312883
 40
0.5189941071718175
 40
0.6620907405753791
 40
0.7278603056024601
 40
0.7278603056024601
 40
0.7278603056024601
 40
0.7278603056024601
 10
7.459619652751328
 20
17.27856993260379
 30
0.0
 10
7.492947224758097
 20
17.37099043977473
 30
0.0
 10
7.541708049825252
 20
17.55303071560132
 30
0.0
 10
7.598072274253476
 20
17.85336142918036
 30
0.0
 10
7.640190143372187
 20
18.20280904954441
 30
0.0
 10
7.66398276865004
 20
18.63594441089905
 30
0.0
 10
7.658478771044105
 20
19.15154939317865
 30
0.0
 10
7.612953936029005
 20
19.74727624581807
 30
0.0
 10
7.537994260314854
 20
20.27161322657997
 30
0.0
 10
7.47651131447293
 20
20.59618582108355
 30
0.0
 10
7.455757000978811
 20
20.69810830830575
 30
0.0
  0
ARC
  5
D1
330
1F
100
AcDbEntity
  8
0
  6
Continuous
 62
     7
370
    25
100
AcDbCircle
 10
0.0
 20
0.0
 30
0.0
 40
22.0
100
AcDbArc
 50
70.1902487301
 51
73.8097512699
  0
SPLINE
  5
D2
330
1F
100
AcDbEntity
  8
0
  6
Continuous
 62
     7
370
    25
100
AcDbSpline
210
0.0
220
0.0
230
1.0
 70
     8
 71
     3
 72
    15
 73
    11
 74
     0
 42
0.00000001
 43
0.00000001
 40
0.272139694397539
 40
0.272139694397539
 40
0.272139694397539
 40
0.272139694397539
 40
0.3379092594246208
 40
0.4810058928281825
 40
0.6068638631687115
 40
0.7154831718107426
 40
0.806863820891055
 40
0.8810058140368864
 40
0.9379091581720475
 40
1.0
 40
1.0
 40
1.0
 40
1.0
 10
6.134208694252608
 20
21.12750538268433
 30
0.0
 10
6.057509567063102
 20
21.05724743780591
 30
0.0
 10
5.816989834665243
 20
20.83080146177753
 30
0.0
 10
5.44814863859625
 20
20.45066412546331
 30
0.0
 10
5.061158815026855
 20
19.99546980430744
 30
0.0
 10
4.753640982834184
 20
19.58157177988028
 30
0.0
 10
4.518299043374134
 20
19.21717295742799
 30
0.0
 10
4.346972957559339
 20
18.90970763158363
 30
0.0
 10
4.216042608744305
 20
18.63360492048962
 30
0.0
 10
4.148490355429248
 20
18.45767034982111
 30
0.0
 10
4.121129516439511
 20
18.36331113357078
 30
0.0
  0
LINE
  5
D3
330
1F
100
AcDbEntity
  8
0
  6
Continuous
 62
     7
370
    25
100
AcDbLine
 10
4.1211295164
 20
18.3633111336
 30
0.0
 11
4.0971281091
 21
18.2863772549
 31
0.0
  0
SPLINE
  5
D4
330
1F
100
AcDbEntity
  8
0
  6
Continuous
 62
     7
370
    25
100
AcDbSpline
210
0.0
220
0.0
230
1.0
 70
     8
 71
     3
 72
    15
 73
    11
 74
     0
 42
0.00000001
 43
0.00000001
 40
0.0
 40
0.0
 40
0.0
 40
0.0
 40
0.1340719621348738
 40
0.2208648061554332
 40
0.3076254987653428
 40
0.3966694098341904
 40
0.4912578970962597
 40
0.5957152317369413
 40
0.7147962534724208
 40
0.9952809336862918
 40
0.9952809336862918
 40
0.9952809336862918
 40
0.9952809336862918
 10
4.097128109118499
 20
18.28637725493013
 30
0.0
 10
4.075434587422355
 20
18.2104473152489
 30
0.0
 10
4.030531412626862
 20
18.08815312855597
 30
0.0
 10
3.954460714463327
 20
17.92361367706362
 30
0.0
 10
3.877893469302096
 20
17.78903591191119
 30
0.0
 10
3.785863931882185
 20
17.65875458578662
 30
0.0
 10
3.671781394679651
 20
17.53254906798784
 30
0.0
 10
3.526171244871075
 20
17.41335302968089
 30
0.0
 10
3.263370624895537
 20
17.27078099497257
 30
0.0
 10
3.021191179548992
 20
17.23891810766461
 30
0.0
 10
2.857062138649391
 20
17.26520187938432
 30
0.0
  0
ARC
  5
D5
330
1F
100
AcDbEntity
  8
0
  6
Continuous
 62
     7
370
    25
100
AcDbCircle
 10
0.0
 20
0.0
 30
0.0
 40
17.5
100
AcDbArc
 50
80.6037904932
 51
81.3687356181
  0
LINE
  5
D6
330
1F
100
AcDbEntity
  8
0
  6
Continuous
 62
     7
370
    25
100
AcDbLine
 10
2.6263099151
 20
17.3018061551
 30
0.0
 11
2.6180132278
 21
17.3030635073
 31
0.0
  0
SPLINE
  5
D7
330
1F
100
AcDbEntity
  8
0
  6
Continuous
 62
     7
370
    25
100
AcDbSpline
210
0.0
220
0.0
230
1.0
 70
     8
 71
     3
 72
    15
 73
    11
 74
     0
 42
0.00000001
 43
0.00000001
 40
0.0047190662145539
 40
0.0047190662145539
 40
0.0047190662145539
 40
0.0047190662145539
 40
0.2852037465275792
 40
0.4042847682630587
 40
0.5087421029037403
 40
0.6033305901658097
 40
0.6923745012346572
 40
0.7791351938445668
 40
0.8659280378651262
 40
1.0
 40
1.0
 40
1.0
 40
1.0
 10
2.618013227795531
 20
17.3030635073404
 30
0.0
 10
2.453795101732297
 20
17.32878481785709
 30
0.0
 10
2.233314935721808
 20
17.4339257887692
 30
0.0
 10
2.027433875214654
 20
17.6507297091674
 30
0.0
 10
1.925783994899509
 20
17.80908788896011
 30
0.0
 10
1.856284704281268
 20
17.96436991181205
 30
0.0
 10
1.809018556848628
 20
18.1167135070216
 30
0.0
 10
1.777785595900371
 20
18.26836514748555
 30
0.0
 10
1.75628354946909
 20
18.44835860352149
 30
0.0
 10
1.751369074478874
 20
18.578543130794
 30
0.0
 10
1.754200951051729
 20
18.65746046158169
 30
0.0
  0
LINE
  5
D8
330
1F
100
AcDbEntity
  8
0
  6
Continuous
 62
     7
370
    25
100
AcDbLine
 10
1.7542009511
 20
18.6574604616
 30
0.0
 11
1.7551481322
 21
18.7380457709
 31
0.0
  0
SPLINE
  5
D9
330
1F
100
AcDbEntity
  8
0
  6
Continuous
 62
     7
370
    25
100
AcDbSpline
210
0.0
220
0.0
230
1.0
 70
     8
 71
     3
 72
    15
 73
    11
 74
     0
 42
0.00000001
 43
0.00000001
 40
0.0
 40
0.0
 40
0.0
 40
0.0
 40
0.0620908418279525
 40
0.1189941859631136
 40
0.193136179108945
 40
0.2845168281892573
 40
0.3931361368312883
 40
0.5189941071718175
 40
0.6620907405753791
 40
0.7278603056024613
 40
0.7278603056024613
 40
0.7278603056024613
 40
0.7278603056024613
 10
1.755148132161967
 20
18.73804577093785
 30
0.0
 10
1.75828502934673
 20
18.83624168265342
 30
0.0
 10
1.748405790875653
 20
19.02444019681197
 30
0.0
 10
1.709204059375362
 20
19.32748918222796
 30
0.0
 10
1.641275279916799
 20
19.67284875600357
 30
0.0
 10
1.530057223703753
 20
20.09213728940941
 30
0.0
 10
1.365491909006166
 20
20.58080593884344
 30
0.0
 10
1.138105496540712
 20
21.13330789629238
 30
0.0
 10
0.9047855706587168
 20
21.60881818489201
 30
0.0
 10
0.7460133667647586
 20
21.89850579077607
 30
0.0
 10
0.6947790610143204
 20
21.98902640082948
 30
0.0
  0
ARC
  5
DA
330
1F
100
AcDbEntity
  8
0
  6
Continuous
 62
     7
370
    25
100
AcDbCircle
 10
0.0
 20
0.0
 30
0.0
 40
22.0
100
AcDbArc
 50
88.1902487301
 51
91.8097512699
  0
SPLINE
  5
DB
330
1F
100
AcDbEntity
  8
0
  6
Continuous
 62
     7
370
    25
100
AcDbSpline
210
0.0
220
0.0
230
1.0
 70
     8
 71
     3
 72
    15
 73
    11
 74
     0
 42
0.00000001
 43
0.00000001
 40
0.272139694397538
 40
0.272139694397538
 40
0.272139694397538
 40
0.272139694397538
 40
0.3379092594246208
 40
0.4810058928281825
 40
0.6068638631687115
 40
0.7154831718107426
 40
0.806863820891055
 40
0.8810058140368864
 40
0.9379091581720475
 40
1.0
 40
1.0
 40
1.0
 40
1.0
 10
-0.6947790610143241
 20
21.98902640082948
 30
0.0
 10
-0.7460133667647628
 20
21.89850579077607
 30
0.0
 10
-0.9047855706587214
 20
21.60881818489201
 30
0.0
 10
-1.138105496540717
 20
21.13330789629238
 30
0.0
 10
-1.365491909006171
 20
20.58080593884344
 30
0.0
 10
-1.530057223703759
 20
20.09213728940941
 30
0.0
 10
-1.641275279916804
 20
19.67284875600357
 30
0.0
 10
-1.709204059375366
 20
19.32748918222796
 30
0.0
 10
-1.748405790875658
 20
19.02444019681197
 30
0.0
 10
-1.758285029346734
 20
18.83624168265341
 30
0.0
 10
-1.755148132161972
 20
18.73804577093785
 30
0.0
  0
LINE
  5
DC
330
1F
100
AcDbEntity
  8
0
  6
Continuous
 62
     7
370
    25
100
AcDbLine
 10
-1.7551481322
 20
18.7380457709
 30
0.0
 11
-1.7542009511
 21
18.6574604616
 31
0.0
  0
SPLINE
  5
DD
330
1F
100
AcDbEntity
  8
0
  6
Continuous
 62
     7
370
    25
100
AcDbSpline
210
0.0
220
0.0
230
1.0
 70
     8
 71
     3
 72
    15
 73
    11
 74
     0
 42
0.00000001
 43
0.00000001
 40
0.0
 40
0.0
 40
0.0
 40
0.0
 40
0.1340719621348738
 40
0.2208648061554332
 40
0.3076254987653428
 40
0.3966694098341904
 40
0.4912578970962597
 40
0.5957152317369413
 40
0.7147962534724208
 40
0.9952809337710556
 40
0.9952809337710556
 40
0.9952809337710556
 40
0.9952809337710556
 10
-1.754200951051734
 20
18.65746046158169
 30
0.0
 10
-1.751369074478878
 20
18.57854313079401
 30
0.0
 10
-1.756283549469094
 20
18.44835860352149
 30
0.0
 10
-1.777785595900375
 20
18.26836514748555
 30
0.0
 10
-1.809018556848632
 20
18.1167135070216
 30
0.0
 10
-1.856284704281272
 20
17.96436991181204
 30
0.0
 10
-1.925783994899513
 20
17.80908788896011
 30
0.0
 10
-2.027433875214658
 20
17.65072970916739
 30
0.0
 10
-2.233314935715935
 20
17.4339257887754
 30
0.0
 10
-2.45379510171642
 20
17.32878481786466
 30
0.0
 10
-2.61801322777026
 20
17.30306350734436
 30
0.0
  0
LINE
  5
DE
330
1F
100
AcDbEntity
  8
0
  6
Continuous
 62
     7
370
    25
100
AcDbLine
 10
-2.6180132278
 20
17.3030635073
 30
0.0
 11
-2.6263099151
 21
17.3018061551
 31
0.0
  0
ARC
  5
DF
330
1F
100
AcDbEntity
  8
0
  6
Continuous
 62
     7
370
    25
100
AcDbCircle
 10
0.0
 20
0.0
 30
0.0
 40
17.5
100
AcDbArc
 50
98.6312643819
 51
99.3962095062
  0
SPLINE
  5
E0
330
1F
100
AcDbEntity
  8
0
  6
Continuous
 62
     7
370
    25
100
AcDbSpline
210
0.0
220
0.0
230
1.0
 70
     8
 71
     3
 72
    15
 73
    11
 74
     0
 42
0.00000001
 43
0.00000001
 40
0.0047190662147097
 40
0.0047190662147097
 40
0.0047190662147097
 40
0.0047190662147097
 40
0.2852037465275792
 40
0.4042847682630587
 40
0.5087421029037403
 40
0.6033305901658097
 40
0.6923745012346572
 40
0.7791351938445668
 40
0.8659280378651262
 40
1.0
 40
1.0
 40
1.0
 40
1.0
 10
-2.857062138475365
 20
17.26520187941219
 30
0.0
 10
-3.02119117942875
 20
17.23891810764886
 30
0.0
 10
-3.26337062484368
 20
17.27078099494459
 30
0.0
 10
-3.526171244870838
 20
17.41335302968094
 30
0.0
 10
-3.671781394679412
 20
17.53254906798789
 30
0.0
 10
-3.785863931881945
 20
17.65875458578668
 30
0.0
 10
-3.877893469301852
 20
17.78903591191124
 30
0.0
 10
-3.954460714463084
 20
17.92361367706367
 30
0.0
 10
-4.030531412626615
 20
18.08815312855603
 30
0.0
 10
-4.075434587422105
 20
18.21044731524895
 30
0.0
 10
-4.09712810911825
 20
18.28637725493018
 30
0.0
  0
LINE
  5
E1
330
1F
100
AcDbEntity
  8
0
  6
Continuous
 62
     7
370
    25
100
AcDbLine
 10
-4.0971281091
 20
18.2863772549
 30
0.0
 11
-4.1211295164
 21
18.3633111336
 31
0.0
  0
SPLINE
  5
E2
330
1F
100
AcDbEntity
  8
0
  6
Continuous
 62
     7
370
    25
100
AcDbSpline
210
0.0
220
0.0
230
1.0
 70
     8
 71
     3
 72
    15
 73
    11
 74
     0
 42
0.00000001
 43
0.00000001
 40
0.0
 40
0.0
 40
0.0
 40
0.0
 40
0.0620908418279525
 40
0.1189941859631136
 40
0.193136179108945
 40
0.2845168281892573
 40
0.3931361368312883
 40
0.5189941071718175
 40
0.6620907405753791
 40
0.7278603056024608
 40
0.7278603056024608
 40
0.7278603056024608
 40
0.7278603056024608
 10
-4.121129516439262
 20
18.36331113357083
 30
0.0
 10
-4.148490355428996
 20
18.45767034982117
 30
0.0
 10
-4.216042608744051
 20
18.63360492048968
 30
0.0
 10
-4.346972957559081
 20
18.90970763158368
 30
0.0
 10
-4.518299043373872
 20
19.21717295742805
 30
0.0
 10
-4.753640982833916
 20
19.58157177988033
 30
0.0
 10
-5.061158815026582
 20
19.99546980430751
 30
0.0
 10
-5.448148638595971
 20
20.45066412546338
 30
0.0
 10
-5.816989834664961
 20
20.83080146177761
 30
0.0
 10
-6.057509567062815
 20
21.05724743780599
 30
0.0
 10
-6.134208694252319
 20
21.12750538268442
 30
0.0
  0
ARC
  5
E3
330
1F
100
AcDbEntity
  8
0
  6
Continuous
 62
     7
370
    25
100
AcDbCircle
 10
0.0
 20
0.0
 30
0.0
 40
22.0
100
AcDbArc
 50
106.1902487301
 51
109.8097512699
  0
SPLINE
  5
E4
330
1F
100
AcDbEntity
  8
0
  6
Continuous
 62
     7
370
    25
100
AcDbSpline
210
0.0
220
0.0
230
1.0
 70
     8
 71
     3
 72
    15
 73
    11
 74
     0
 42
0.00000001
 43
0.00000001
 40
0.272139694397539
 40
0.272139694397539
 40
0.272139694397539
 40
0.272139694397539
 40
0.3379092594246208
 40
0.4810058928281825
 40
0.6068638631687115
 40
0.7154831718107426
 40
0.806863820891055
 40
0.8810058140368864
 40
0.9379091581720475
 40
1.0
 40
1.0
 40
1.0
 40
1.0
 10
-7.455757000978527
 20
20.69810830830584
 30
0.0
 10
-7.476511314472646
 20
20.59618582108364
 30
0.0
 10
-7.537994260314575
 20
20.27161322658007
 30
0.0
 10
-7.612953936028736
 20
19.74727624581817
 30
0.0
 10
-7.658478771043844
 20
19.15154939317875
 30
0.0
 10
-7.663982768649787
 20
18.63594441089916
 30
0.0
 10
-7.640190143371937
 20
18.20280904954451
 30
0.0
 10
-7.598072274253232
 20
17.85336142918046
 30
0.0
 10
-7.541708049825013
 20
17.55303071560143
 30
0.0
 10
-7.492947224757859
 20
17.37099043977482
 30
0.0
 10
-7.459619652751091
 20
17.27856993260389
 30
0.0
  0
LINE
  5
E5
330
1F
100
AcDbEntity
  8
0
  6
Continuous
 62
     7
370
    25
100
AcDbLine
 10
-7.4596196528
 20
17.2785699326
 30
0.0
 11
-7.4338165999
 21
17.2022214441
 31
0.0
  0
SPLINE
  5
E6
330
1F
100
AcDbEntity
  8
0
  6
Continuous
 62
     7
370
    25
100
AcDbSpline
210
0.0
220
0.0
230
1.0
 70
     8
 71
     3
 72
    15
 73
    11
 74
     0
 42
0.00000001
 43
0.00000001
 40
0.0
 40
0.0
 40
0.0
 40
0.0
 40
0.1340719621348738
 40
0.2208648061554332
 40
0.3076254987653428
 40
0.3966694098341904
 40
0.4912578970962597
 40
0.5957152317369413
 40
0.7147962534724208
 40
0.9952809336861144
 40
0.9952809336861144
 40
0.9952809336861144
 40
0.9952809336861144
 10
-7.433816599896073
 20
17.20222144408286
 30
0.0
 10
-7.406736528864015
 20
17.1280417003756
 30
0.0
 10
-7.371181240995754
 20
17.00271020110187
 30
0.0
 10
-7.336009865576521
 20
16.82488175408729
 30
0.0
 10
-7.318851242481357
 20
16.67100095749955
 30
0.0
 10
-7.316727260093407
 20
16.51150754574435
 30
0.0
 10
-7.334840229331613
 20
16.34234910414949
 30
0.0
 10
-7.382579641631722
 20
16.16032998485542
 30
0.0
 10
-7.511388069933274
 20
15.89051645713892
 30
0.0
 10
-7.688586821651743
 20
15.72238933343392
 30
0.0
 10
-7.836819218401328
 20
15.64718072171774
 30
0.0
  0
ARC
  5
E7
330
1F
100
AcDbEntity
  8
0
  6
Continuous
 62
     7
370
    25
100
AcDbCircle
 10
0.0
 20
0.0
 30
0.0
 40
17.5
100
AcDbArc
 50
116.6037904932
 51
117.3962095062
  0
SPLINE
  5
E8
330
1F
100
AcDbEntity
  8
0
  6
Continuous
 62
     7
370
    25
100
AcDbSpline
210
0.0
220
0.0
230
1.0
 70
     8
 71
     3
 72
    15
 73
    11
 74
     0
 42
0.00000001
 43
0.00000001
 40
0.0047190662148792
 40
0.0047190662148792
 40
0.0047190662148792
 40
0.0047190662148792
 40
0.2852037465275792
 40
0.4042847682630587
 40
0.5087421029037403
 40
0.6033305901658097
 40
0.6923745012346572
 40
0.7791351938445668
 40
0.8659280378651262
 40
1.0
 40
1.0
 40
1.0
 40
1.0
 10
-8.052468356310081
 20
15.53730199779204
 30
0.0
 10
-8.200442218070865
 20
15.46158598245875
 30
0.0
 10
-8.440614731409608
 20
15.41705182472788
 30
0.0
 10
-8.734610155228895
 20
15.47143602968466
 30
0.0
 10
-8.909927238542066
 20
15.53980218778872
 30
0.0
 10
-9.057425828727734
 20
15.62457732512666
 30
0.0
 10
-9.185210263804759
 20
15.72004353824179
 30
0.0
 10
-9.29961685774722
 20
15.82437401877115
 30
0.0
 10
-9.422809877691037
 20
15.95735319779409
 30
0.0
 10
-9.503306316684004
 20
16.05978603684022
 30
0.0
 10
-9.547401723597877
 20
16.125296033884
 30
0.0
  0
LINE
  5
E9
330
1F
100
AcDbEntity
  8
0
  6
Continuous
 62
     7
370
    25
100
AcDbLine
 10
-9.5474017236
 20
16.1252960339
 30
0.0
 11
-9.5940022944
 21
16.1910476577
 31
0.0
  0
SPLINE
  5
EA
330
1F
100
AcDbEntity
  8
0
  6
Continuous
 62
     7
370
    25
100
AcDbSpline
210
0.0
220
0.0
230
1.0
 70
     8
 71
     3
 72
    15
 73
    11
 74
     0
 42
0.00000001
 43
0.00000001
 40
0.0
 40
0.0
 40
0.0
 40
0.0
 40
0.0620908418279525
 40
0.1189941859631136
 40
0.193136179108945
 40
0.2845168281892573
 40
0.3931361368312883
 40
0.5189941071718175
 40
0.6620907405753791
 40
0.7278603056024621
 40
0.7278603056024621
 40
0.7278603056024621
 40
0.7278603056024621
 10
-9.594002294373922
 20
16.19104765773794
 30
0.0
 10
-9.649182599983666
 20
16.27233364099714
 30
0.0
 10
-9.767795382924
 20
16.41878256659034
 30
0.0
 10
-9.977637974266374
 20
16.64091214627977
 30
0.0
 10
-10.23559077545882
 20
16.88038637586236
 30
0.0
 10
-10.5720196894078
 20
17.15422559170358
 30
0.0
 10
-10.99238805107781
 20
17.45283776869585
 30
0.0
 10
-11.50110002550352
 20
17.76616686187858
 30
0.0
 10
-11.96935774562056
 20
18.01372075485642
 30
0.0
 10
-12.2680812593157
 20
18.15475899115357
 30
0.0
 10
-12.36273736298072
 20
18.19787693369642
 30
0.0
  0
ARC
  5
EB
330
1F
100
AcDbEntity
  8
0
  6
Continuous
 62
     7
370
    25
100
AcDbCircle
 10
0.0
 20
0.0
 30
0.0
 40
22.0
100
AcDbArc
 50
124.1902487301
 51
127.8097512699
  0
SPLINE
  5
EC
330
1F
100
AcDbEntity
  8
0
  6
Continuous
 62
     7
370
    25
100
AcDbSpline
210
0.0
220
0.0
230
1.0
 70
     8
 71
     3
 72
    15
 73
    11
 74
     0
 42
0.00000001
 43
0.00000001
 40
0.2721396943975385
 40
0.2721396943975385
 40
0.2721396943975385
 40
0.2721396943975385
 40
0.3379092594246208
 40
0.4810058928281825
 40
0.6068638631687115
 40
0.7154831718107426
 40
0.806863820891055
 40
0.8810058140368864
 40
0.9379091581720475
 40
1.0
 40
1.0
 40
1.0
 40
1.0
 10
-13.48691349837364
 20
17.38111516236478
 30
0.0
 10
-13.47515624280283
 20
17.27776768115883
 30
0.0
 10
-13.43333155147685
 20
16.95008152501599
 30
0.0
 10
-13.34259340168949
 20
16.42824360903935
 30
0.0
 10
-13.20180037121279
 20
15.84760575621883
 30
0.0
 10
-13.04770428209281
 20
15.35553544919034
 30
0.0
 10
-12.89122996325922
 20
14.9509515668878
 30
0.0
 10
-12.74318823604503
 20
14.63162226776127
 30
0.0
 10
-12.59677537868798
 20
14.36340828879145
 30
0.0
 10
-12.49414753937681
 20
14.20534562184388
 30
0.0
 10
-12.43389162750291
 20
14.12774728239101
 30
0.0
  0
LINE
  5
ED
330
1F
100
AcDbEntity
  8
0
  6
Continuous
 62
     7
370
    25
100
AcDbLine
 10
-12.4338916275
 20
14.1277472824
 30
0.0
 11
-12.3857584855
 21
14.0631091367
 31
0.0
  0
SPLINE
  5
EE
330
1F
100
AcDbEntity
  8
0
  6
Continuous
 62
     7
370
    25
100
AcDbSpline
210
0.0
220
0.0
230
1.0
 70
     8
 71
     3
 72
    15
 73
    11
 74
     0
 42
0.00000001
 43
0.00000001
 40
0.0
 40
0.0
 40
0.0
 40
0.0
 40
0.1340719621348738
 40
0.2208648061554332
 40
0.3076254987653428
 40
0.3966694098341904
 40
0.4912578970962597
 40
0.5957152317369413
 40
0.7147962534724208
 40
0.9952809336864956
 40
0.9952809336864956
 40
0.9952809336864956
 40
0.9952809336864956
 10
-12.385758485497
 20
14.06310913671276
 30
0.0
 10
-12.3370810060363
 20
14.00092821024065
 30
0.0
 10
-12.26453635461436
 20
13.89271805935051
 30
0.0
 10
-12.17613437662403
 20
13.73446170875473
 30
0.0
 10
-12.11226377506516
 20
13.59341468056375
 30
0.0
 10
-12.0609575730514
 20
13.44238377866145
 30
0.0
 10
-12.02591119728006
 20
13.27590732518313
 30
0.0
 10
-12.01506707526915
 20
13.088044565986
 30
0.0
 10
-12.05419420498245
 20
12.79163265890251
 30
0.0
 10
-12.17076609404364
 20
12.57697683667368
 30
0.0
 10
-12.28850274175499
 20
12.45964286670688
 30
0.0
  0
ARC
  5
EF
330
1F
100
AcDbEntity
  8
0
  6
Continuous
 62
     7
370
    25
100
AcDbCircle
 10
0.0
 20
0.0
 30
0.0
 40
17.5
100
AcDbArc
 50
134.6037904932
 51
135.3962095062
  0
SPLINE
  5
F0
330
1F
100
AcDbEntity
  8
0
  6
Continuous
 62
     7
370
    25
100
AcDbSpline
210
0.0
220
0.0
230
1.0
 70
     8
 71
     3
 72
    15
 73
    11
 74
     0
 42
0.00000001
 43
0.00000001
 40
0.0047190662144345
 40
0.0047190662144345
 40
0.0047190662144345
 40
0.0047190662144345
 40
0.2852037465275792
 40
0.4042847682630587
 40
0.5087421029037403
 40
0.6033305901658097
 40
0.6923745012346572
 40
0.7791351938445668
 40
0.8659280378651262
 40
1.0
 40
1.0
 40
1.0
 40
1.0
 10
-12.45964286658224
 20
12.28850274188006
 30
0.0
 10
-12.57697683656693
 20
12.17076609410176
 30
0.0
 10
-12.79163265884394
 20
12.05419420499046
 30
0.0
 10
-13.0880445659857
 20
12.01506707526948
 30
0.0
 10
-13.27590732518283
 20
12.02591119728039
 30
0.0
 10
-13.44238377866115
 20
12.06095757305174
 30
0.0
 10
-13.59341468056345
 20
12.1122637750655
 30
0.0
 10
-13.73446170875443
 20
12.17613437662438
 30
0.0
 10
-13.8927180593502
 20
12.26453635461471
 30
0.0
 10
-14.00092821024034
 20
12.33708100603665
 30
0.0
 10
-14.06310913671245
 20
12.38575848549735
 30
0.0
  0
LINE
  5
F1
330
1F
100
AcDbEntity
  8
0
  6
Continuous
 62
     7
370
    25
100
AcDbLine
 10
-14.0631091367
 20
12.3857584855
 30
0.0
 11
-14.1277472824
 21
12.4338916275
 31
0.0
  0
SPLINE
  5
F2
330
1F
100
AcDbEntity
  8
0
  6
Continuous
 62
     7
370
    25
100
AcDbSpline
210
0.0
220
0.0
230
1.0
 70
     8
 71
     3
 72
    15
 73
    11
 74
     0
 42
0.00000001
 43
0.00000001
 40
0.0
 40
0.0
 40
0.0
 40
0.0
 40
0.0620908418279525
 40
0.1189941859631136
 40
0.193136179108945
 40
0.2845168281892573
 40
0.3931361368312883
 40
0.5189941071718175
 40
0.6620907405753791
 40
0.727860305602461
 40
0.727860305602461
 40
0.727860305602461
 40
0.727860305602461
 10
-14.12774728239069
 20
12.43389162750326
 30
0.0
 10
-14.20534562184357
 20
12.49414753937717
 30
0.0
 10
-14.36340828879113
 20
12.59677537868834
 30
0.0
 10
-14.63162226776095
 20
12.7431882360454
 30
0.0
 10
-14.95095156688748
 20
12.8912299632596
 30
0.0
 10
-15.35553544919001
 20
13.04770428209319
 30
0.0
 10
-15.8476057562185
 20
13.20180037121319
 30
0.0
 10
-16.428243609039
 20
13.34259340168991
 30
0.0
 10
-16.95008152501565
 20
13.43333155147727
 30
0.0
 10
-17.27776768115849
 20
13.47515624280327
 30
0.0
 10
-17.38111516236444
 20
13.48691349837408
 30
0.0
  0
ARC
  5
F3
330
1F
100
AcDbEntity
  8
0
  6
Continuous
 62
     7
370
    25
100
AcDbCircle
 10
0.0
 20
0.0
 30
0.0
 40
22.0
100
AcDbArc
 50
142.1902487301
 51
145.8097512699
  0
SPLINE
  5
F4
330
1F
100
AcDbEntity
  8
0
  6
Continuous
 62
     7
370
    25
100
AcDbSpline
210
0.0
220
0.0
230
1.0
 70
     8
 71
     3
 72
    15
 73
    11
 74
     0
 42
0.00000001
 43
0.00000001
 40
0.2721396943975389
 40
0.2721396943975389
 40
0.2721396943975389
 40
0.2721396943975389
 40
0.3379092594246208
 40
0.4810058928281825
 40
0.6068638631687115
 40
0.7154831718107426
 40
0.806863820891055
 40
0.8810058140368864
 40
0.9379091581720475
 40
1.0
 40
1.0
 40
1.0
 40
1.0
 10
-18.19787693369612
 20
12.36273736298117
 30
0.0
 10
-18.15475899115327
 20
12.26808125931615
 30
0.0
 10
-18.01372075485612
 20
11.96935774562101
 30
0.0
 10
-17.7661668618783
 20
11.50110002550397
 30
0.0
 10
-17.45283776869557
 20
10.99238805107825
 30
0.0
 10
-17.15422559170331
 20
10.57201968940824
 30
0.0
 10
-16.88038637586211
 20
10.23559077545924
 30
0.0
 10
-16.64091214627953
 20
9.977637974266793
 30
0.0
 10
-16.4187825665901
 20
9.76779538292441
 30
0.0
 10
-16.2723336409969
 20
9.649182599984075
 30
0.0
 10
-16.1910476577377
 20
9.594002294374327
 30
0.0
  0
LINE
  5
F5
330
1F
100
AcDbEntity
  8
0
  6
Continuous
 62
     7
370
    25
100
AcDbLine
 10
-16.1910476577
 20
9.5940022944
 30
0.0
 11
-16.1252960339
 21
9.5474017236
 31
0.0
  0
SPLINE
  5
F6
330
1F
100
AcDbEntity
  8
0
  6
Continuous
 62
     7
370
    25
100
AcDbSpline
210
0.0
220
0.0
230
1.0
 70
     8
 71
     3
 72
    15
 73
    11
 74
     0
 42
0.00000001
 43
0.00000001
 40
0.0
 40
0.0
 40
0.0
 40
0.0
 40
0.1340719621348738
 40
0.2208648061554332
 40
0.3076254987653428
 40
0.3966694098341904
 40
0.4912578970962597
 40
0.5957152317369413
 40
0.7147962534724208
 40
0.9952809336863062
 40
0.9952809336863062
 40
0.9952809336863062
 40
0.9952809336863062
 10
-16.12529603388376
 20
9.547401723598282
 30
0.0
 10
-16.05978603683998
 20
9.503306316684409
 30
0.0
 10
-15.95735319779386
 20
9.422809877691437
 30
0.0
 10
-15.82437401877092
 20
9.299616857747614
 30
0.0
 10
-15.72004353824156
 20
9.185210263805155
 30
0.0
 10
-15.62457732512643
 20
9.057425828728123
 30
0.0
 10
-15.5398021877885
 20
8.909927238542457
 30
0.0
 10
-15.47143602968444
 20
8.73461015522928
 30
0.0
 10
-15.41705182473834
 20
8.44061473146764
 30
0.0
 10
-15.46158598243652
 20
8.200442218190041
 30
0.0
 10
-15.53730199771181
 20
8.052468356466859
 30
0.0
  0
ARC
  5
F7
330
1F
100
AcDbEntity
  8
0
  6
Continuous
 62
     7
370
    25
100
AcDbCircle
 10
0.0
 20
0.0
 30
0.0
 40
17.5
100
AcDbArc
 50
152.6037904932
 51
153.3962095062
  0
SPLINE
  5
F8
330
1F
100
AcDbEntity
  8
0
  6
Continuous
 62
     7
370
    25
100
AcDbSpline
210
0.0
220
0.0
230
1.0
 70
     8
 71
     3
 72
    15
 73
    11
 74
     0
 42
0.00000001
 43
0.00000001
 40
0.0047190662149519
 40
0.0047190662149519
 40
0.0047190662149519
 40
0.0047190662149519
 40
0.2852037465275792
 40
0.4042847682630587
 40
0.5087421029037403
 40
0.6033305901658097
 40
0.6923745012346572
 40
0.7791351938445668
 40
0.8659280378651262
 40
1.0
 40
1.0
 40
1.0
 40
1.0
 10
-15.64718072163796
 20
7.836819218558562
 30
0.0
 10
-15.72238933335048
 20
7.688586821739876
 30
0.0
 10
-15.89051645708577
 20
7.511388069958939
 30
0.0
 10
-16.16032998485525
 20
7.382579641632114
 30
0.0
 10
-16.34234910414931
 20
7.334840229332008
 30
0.0
 10
-16.51150754574417
 20
7.316727260093807
 30
0.0
 10
-16.67100095749937
 20
7.31885124248176
 30
0.0
 10
-16.82488175408712
 20
7.33600986557693
 30
0.0
 10
-17.00271020110169
 20
7.371181240996165
 30
0.0
 10
-17.12804170037542
 20
7.406736528864428
 30
0.0
 10
-17.20222144408268
 20
7.433816599896489
 30
0.0
  0
LINE
  5
F9
330
1F
100
AcDbEntity
  8
0
  6
Continuous
 62
     7
370
    25
100
AcDbLine
 10
-17.2022214441
 20
7.4338165999
 30
0.0
 11
-17.2785699326
 21
7.4596196528
 31
0.0
  0
SPLINE
  5
FA
330
1F
100
AcDbEntity
  8
0
  6
Continuous
 62
     7
370
    25
100
AcDbSpline
210
0.0
220
0.0
230
1.0
 70
     8
 71
     3
 72
    15
 73
    11
 74
     0
 42
0.00000001
 43
0.00000001
 40
0.0
 40
0.0
 40
0.0
 40
0.0
 40
0.0620908418279525
 40
0.1189941859631136
 40
0.193136179108945
 40
0.2845168281892573
 40
0.3931361368312883
 40
0.5189941071718175
 40
0.6620907405753791
 40
0.7278603056024603
 40
0.7278603056024603
 40
0.7278603056024603
 40
0.7278603056024603
 10
-17.2785699326037
 20
7.45961965275151
 30
0.0
 10
-17.37099043977464
 20
7.492947224758281
 30
0.0
 10
-17.55303071560124
 20
7.541708049825437
 30
0.0
 10
-17.85336142918027
 20
7.598072274253664
 30
0.0
 10
-18.20280904954433
 20
7.640190143372379
 30
0.0
 10
-18.63594441089896
 20
7.663982768650236
 30
0.0
 10
-19.15154939317857
 20
7.658478771044307
 30
0.0
 10
-19.74727624581799
 20
7.612953936029213
 30
0.0
 10
-20.27161322657989
 20
7.537994260315068
 30
0.0
 10
-20.59618582108347
 20
7.476511314473147
 30
0.0
 10
-20.69810830830567
 20
7.455757000979029
 30
0.0
  0
ARC
  5
FB
330
1F
100
AcDbEntity
  8
0
  6
Continuous
 62
     7
370
    25
100
AcDbCircle
 10
0.0
 20
0.0
 30
0.0
 40
22.0
100
AcDbArc
 50
160.1902487301
 51
163.8097512699
  0
SPLINE
  5
FC
330
1F
100
AcDbEntity
  8
0
  6
Continuous
 62
     7
370
    25
100
AcDbSpline
210
0.0
220
0.0
230
1.0
 70
     8
 71
     3
 72
    15
 73
    11
 74
     0
 42
0.00000001
 43
0.00000001
 40
0.2721396943975382
 40
0.2721396943975382
 40
0.2721396943975382
 40
0.2721396943975382
 40
0.3379092594246208
 40
0.4810058928281825
 40
0.6068638631687115
 40
0.7154831718107426
 40
0.806863820891055
 40
0.8810058140368864
 40
0.9379091581720475
 40
1.0
 40
1.0
 40
1.0
 40
1.0
 10
-21.12750538268427
 20
6.134208694252833
 30
0.0
 10
-21.05724743780585
 20
6.057509567063326
 30
0.0
 10
-20.83080146177747
 20
5.816989834665463
 30
0.0
 10
-20.45066412546325
 20
5.448148638596466
 30
0.0
 10
-19.99546980430739
 20
5.061158815027066
 30
0.0
 10
-19.58157177988022
 20
4.753640982834392
 30
0.0
 10
-19.21717295742794
 20
4.518299043374336
 30
0.0
 10
-18.90970763158358
 20
4.346972957559538
 30
0.0
 10
-18.63360492048957
 20
4.216042608744503
 30
0.0
 10
-18.45767034982106
 20
4.148490355429443
 30
0.0
 10
-18.36331113357073
 20
4.121129516439706
 30
0.0
  0
LINE
  5
FD
330
1F
100
AcDbEntity
  8
0
  6
Continuous
 62
     7
370
    25
100
AcDbLine
 10
-18.3633111336
 20
4.1211295164
 30
0.0
 11
-18.2863772549
 21
4.0971281091
 31
0.0
  0
SPLINE
  5
FE
330
1F
100
AcDbEntity
  8
0
  6
Continuous
 62
     7
370
    25
100
AcDbSpline
210
0.0
220
0.0
230
1.0
 70
     8
 71
     3
 72
    15
 73
    11
 74
     0
 42
0.00000001
 43
0.00000001
 40
0.0
 40
0.0
 40
0.0
 40
0.0
 40
0.1340719621348738
 40
0.2208648061554332
 40
0.3076254987653428
 40
0.3966694098341904
 40
0.4912578970962597
 40
0.5957152317369413
 40
0.7147962534724208
 40
0.9952809336857514
 40
0.9952809336857514
 40
0.9952809336857514
 40
0.9952809336857514
 10
-18.28637725493008
 20
4.097128109118692
 30
0.0
 10
-18.21044731524886
 20
4.075434587422547
 30
0.0
 10
-18.08815312855593
 20
4.030531412627053
 30
0.0
 10
-17.92361367706357
 20
3.954460714463517
 30
0.0
 10
-17.78903591191115
 20
3.877893469302285
 30
0.0
 10
-17.65875458578658
 20
3.785863931882371
 30
0.0
 10
-17.53254906798781
 20
3.671781394679837
 30
0.0
 10
-17.41335302968086
 20
3.526171244871259
 30
0.0
 10
-17.27078099497268
 20
3.263370624896001
 30
0.0
 10
-17.23891810766466
 20
3.021191179549829
 30
0.0
 10
-17.26520187938414
 20
2.857062138650523
 30
0.0
  0
ARC
  5
FF
330
1F
100
AcDbEntity
  8
0
  6
Continuous
 62
     7
370
    25
100
AcDbCircle
 10
0.0
 20
0.0
 30
0.0
 40
17.5
100
AcDbArc
 50
170.6037904932
 51
171.3962095062
  0
SPLINE
  5
100
330
1F
100
AcDbEntity
  8
0
  6
Continuous
 62
     7
370
    25
100
AcDbSpline
210
0.0
220
0.0
230
1.0
 70
     8
 71
     3
 72
    15
 73
    11
 74
     0
 42
0.00000001
 43
0.00000001
 40
0.0047190662143006
 40
0.0047190662143006
 40
0.0047190662143006
 40
0.0047190662143006
 40
0.2852037465275792
 40
0.4042847682630587
 40
0.5087421029037403
 40
0.6033305901658097
 40
0.6923745012346572
 40
0.7791351938445668
 40
0.8659280378651262
 40
1.0
 40
1.0
 40
1.0
 40
1.0
 10
-17.3030635073403
 20
2.618013227796159
 30
0.0
 10
-17.32878481785693
 20
2.453795101732758
 30
0.0
 10
-17.43392578876907
 20
2.233314935722094
 30
0.0
 10
-17.65072970916738
 20
2.027433875214839
 30
0.0
 10
-17.80908788896009
 20
1.925783994899695
 30
0.0
 10
-17.96436991181202
 20
1.856284704281456
 30
0.0
 10
-18.11671350702158
 20
1.809018556848818
 30
0.0
 10
-18.26836514748554
 20
1.777785595900562
 30
0.0
 10
-18.44835860352147
 20
1.756283549469284
 30
0.0
 10
-18.57854313079399
 20
1.751369074479068
 30
0.0
 10
-18.65746046158167
 20
1.754200951051924
 30
0.0
  0
LINE
  5
101
330
1F
100
AcDbEntity
  8
0
  6
Continuous
 62
     7
370
    25
100
AcDbLine
 10
-18.6574604616
 20
1.7542009511
 30
0.0
 11
-18.7380457709
 21
1.7551481322
 31
0.0
  0
SPLINE
  5
102
330
1F
100
AcDbEntity
  8
0
  6
Continuous
 62
     7
370
    25
100
AcDbSpline
210
0.0
220
0.0
230
1.0
 70
     8
 71
     3
 72
    15
 73
    11
 74
     0
 42
0.00000001
 43
0.00000001
 40
0.0
 40
0.0
 40
0.0
 40
0.0
 40
0.0620908418279525
 40
0.1189941859631136
 40
0.193136179108945
 40
0.2845168281892573
 40
0.3931361368312883
 40
0.5189941071718175
 40
0.6620907405753791
 40
0.727860305602461
 40
0.727860305602461
 40
0.727860305602461
 40
0.727860305602461
 10
-18.73804577093783
 20
1.755148132162163
 30
0.0
 10
-18.8362416826534
 20
1.758285029346927
 30
0.0
 10
-19.02444019681195
 20
1.748405790875852
 30
0.0
 10
-19.32748918222794
 20
1.709204059375565
 30
0.0
 10
-19.67284875600356
 20
1.641275279917005
 30
0.0
 10
-20.09213728940939
 20
1.530057223703964
 30
0.0
 10
-20.58080593884342
 20
1.365491909006381
 30
0.0
 10
-21.13330789629237
 20
1.138105496540933
 30
0.0
 10
-21.608818184892
 20
0.9047855706589433
 30
0.0
 10
-21.89850579077606
 20
0.7460133667649884
 30
0.0
 10
-21.98902640082948
 20
0.6947790610145514
 30
0.0
  0
ARC
  5
103
330
1F
100
AcDbEntity
  8
0
  6
Continuous
 62
     7
370
    25
100
AcDbCircle
 10
0.0
 20
0.0
 30
0.0
 40
22.0
100
AcDbArc
 50
178.1902487301
 51
181.8097512699
  0
SPLINE
  5
104
330
1F
100
AcDbEntity
  8
0
  6
Continuous
 62
     7
370
    25
100
AcDbSpline
210
0.0
220
0.0
230
1.0
 70
     8
 71
     3
 72
    15
 73
    11
 74
     0
 42
0.00000001
 43
0.00000001
 40
0.2721396943975381
 40
0.2721396943975381
 40
0.2721396943975381
 40
0.2721396943975381
 40
0.3379092594246208
 40
0.4810058928281825
 40
0.6068638631687115
 40
0.7154831718107426
 40
0.806863820891055
 40
0.8810058140368864
 40
0.9379091581720475
 40
1.0
 40
1.0
 40
1.0
 40
1.0
 10
-21.98902640082949
 20
-0.6947790610140939
 30
0.0
 10
-21.89850579077607
 20
-0.7460133667645334
 30
0.0
 10
-21.60881818489201
 20
-0.9047855706584951
 30
0.0
 10
-21.13330789629239
 20
-1.138105496540496
 30
0.0
 10
-20.58080593884345
 20
-1.365491909005955
 30
0.0
 10
-20.09213728940943
 20
-1.530057223703548
 30
0.0
 10
-19.67284875600359
 20
-1.641275279916598
 30
0.0
 10
-19.32748918222798
 20
-1.709204059375164
 30
0.0
 10
-19.02444019681198
 20
-1.748405790875459
 30
0.0
 10
-18.83624168265343
 20
-1.758285029346537
 30
0.0
 10
-18.73804577093786
 20
-1.755148132161775
 30
0.0
  0
LINE
  5
105
330
1F
100
AcDbEntity
  8
0
  6
Continuous
 62
     7
370
    25
100
AcDbLine
 10
-18.7380457709
 20
-1.7551481322
 30
0.0
 11
-18.6574604616
 21
-1.7542009511
 31
0.0
  0
SPLINE
  5
106
330
1F
100
AcDbEntity
  8
0
  6
Continuous
 62
     7
370
    25
100
AcDbSpline
210
0.0
220
0.0
230
1.0
 70
     8
 71
     3
 72
    15
 73
    11
 74
     0
 42
0.00000001
 43
0.00000001
 40
0.0
 40
0.0
 40
0.0
 40
0.0
 40
0.1340719621348738
 40
0.2208648061554332
 40
0.3076254987653428
 40
0.3966694098341904
 40
0.4912578970962597
 40
0.5957152317369413
 40
0.7147962534724208
 40
0.9952809337711098
 40
0.9952809337711098
 40
0.9952809337711098
 40
0.9952809337711098
 10
-18.6574604615817
 20
-1.754200951051538
 30
0.0
 10
-18.57854313079402
 20
-1.751369074478684
 30
0.0
 10
-18.44835860352151
 20
-1.756283549468901
 30
0.0
 10
-18.26836514748557
 20
-1.777785595900184
 30
0.0
 10
-18.11671350702162
 20
-1.809018556848443
 30
0.0
 10
-17.96436991181206
 20
-1.856284704281084
 30
0.0
 10
-17.80908788896014
 20
-1.925783994899327
 30
0.0
 10
-17.65072970916741
 20
-2.027433875214473
 30
0.0
 10
-17.4339257887754
 20
-2.233314935715774
 30
0.0
 10
-17.32878481786465
 20
-2.453795101716299
 30
0.0
 10
-17.30306350734437
 20
-2.618013227770174
 30
0.0
  0
ARC
  5
107
330
1F
100
AcDbEntity
  8
0
  6
Continuous
 62
     7
370
    25
100
AcDbCircle
 10
0.0
 20
0.0
 30
0.0
 40
17.5
100
AcDbArc
 50
188.6037904937
 51
189.3962095062
  0
SPLINE
  5
108
330
1F
100
AcDbEntity
  8
0
  6
Continuous
 62
     7
370
    25
100
AcDbSpline
210
0.0
220
0.0
230
1.0
 70
     8
 71
     3
 72
    15
 73
    11
 74
     0
 42
0.00000001
 43
0.00000001
 40
0.0047190662143155
 40
0.0047190662143155
 40
0.0047190662143155
 40
0.0047190662143155
 40
0.2852037465275792
 40
0.4042847682630587
 40
0.5087421029037403
 40
0.6033305901658097
 40
0.6923745012346572
 40
0.7791351938445668
 40
0.8659280378651262
 40
1.0
 40
1.0
 40
1.0
 40
1.0
 10
-17.26520187941229
 20
-2.857062138474735
 30
0.0
 10
-17.23891810764879
 20
-3.021191179428334
 30
0.0
 10
-17.27078099494447
 20
-3.263370624843535
 30
0.0
 10
-17.41335302968093
 20
-3.526171244870899
 30
0.0
 10
-17.53254906798788
 20
-3.671781394679473
 30
0.0
 10
-17.65875458578666
 20
-3.785863931882007
 30
0.0
 10
-17.78903591191122
 20
-3.877893469301914
 30
0.0
 10
-17.92361367706365
 20
-3.954460714463147
 30
0.0
 10
-18.08815312855601
 20
-4.030531412626678
 30
0.0
 10
-18.21044731524893
 20
-4.075434587422169
 30
0.0
 10
-18.28637725493017
 20
-4.097128109118314
 30
0.0
  0
LINE
  5
109
330
1F
100
AcDbEntity
  8
0
  6
Continuous
 62
     7
370
    25
100
AcDbLine
 10
-18.2863772549
 20
-4.0971281091
 30
0.0
 11
-18.3633111336
 21
-4.1211295164
 31
0.0
  0
MTEXT
  5
10B
330
1F
100
AcDbEntity
  8
0
  6
Continuous
 62
     7
100
AcDbMText
 10
-22.0
 20
-23.0195663917
 30
0.0
 40
4.83362
 41
0.0
 71
     1
 72
     1
  1
SOLIDWORKS Educational Product.
  7
SLDTEXTSTYLE0
 73
     1
 44
1.0
  0
MTEXT
  5
10C
330
1F
100
AcDbEntity
  8
0
  6
Continuous
 62
     7
100
AcDbMText
 10
-22.0
 20
-30.2699963917
 30
0.0
 40
4.83362
 41
0.0
 71
     1
 72
     1
  1
For Instructional Use Only.
  7
SLDTEXTSTYLE0
 73
     1
 44
1.0
  0
ENDSEC
  0
SECTION
  2
OBJECTS
  0
DICTIONARY
  5
C
330
0
100
AcDbDictionary
281
     1
  3
ACAD_GROUP
350
D
  3
ACAD_LAYOUT
350
1A
  3
ACAD_MLINESTYLE
350
17
  3
ACAD_PLOTSETTINGS
350
19
  3
ACAD_PLOTSTYLENAME
350
E
  3
ACAD_SCALELIST
350
47
  3
DWGPROPS
350
10D
  0
DICTIONARY
  5
D
102
{ACAD_REACTORS
330
C
102
}
330
C
100
AcDbDictionary
281
     1
  0
DICTIONARY
  5
1A
102
{ACAD_REACTORS
330
C
102
}
330
C
100
AcDbDictionary
281
     1
  3
Layout1
350
1E
  3
Layout2
350
26
  3
Model
350
22
  0
DICTIONARY
  5
17
102
{ACAD_REACTORS
330
C
102
}
330
C
100
AcDbDictionary
281
     1
  3
Standard
350
18
  0
DICTIONARY
  5
19
102
{ACAD_REACTORS
330
C
102
}
330
C
100
AcDbDictionary
281
     1
  0
ACDBDICTIONARYWDFLT
  5
E
102
{ACAD_REACTORS
330
C
102
}
330
C
100
AcDbDictionary
281
     1
  3
Normal
350
F
100
AcDbDictionaryWithDefault
340
F
  0
DICTIONARY
  5
47
102
{ACAD_REACTORS
330
C
102
}
330
C
100
AcDbDictionary
281
     1
  3
A0
350
48
  3
A1
350
49
  3
A2
350
4A
  3
A3
350
4B
  3
A4
350
4C
  3
A5
350
4D
  3
A6
350
4E
  3
A7
350
4F
  3
A8
350
50
  3
A9
350
51
  3
B0
350
52
  3
B1
350
53
  3
B2
350
54
  3
B3
350
55
  3
B4
350
56
  3
B5
350
57
  3
B6
350
58
  0
XRECORD
  5
10D
102
{ACAD_REACTORS
330
C
102
}
330
C
100
AcDbXrecord
280
     1
  1
DWGPROPS COOKIE
  2

  3

  4

  6

  7

  8
garthz
  9

300
=
301
=
302
=
303
=
304
=
305
=
306
=
307
=
308
=
309
=
 40
0.0
 41
2459998.680390798
 42
2459998.680415914
  1

 90
        0
  0
LAYOUT
  5
1E
102
{ACAD_REACTORS
330
1A
102
}
330
1A
100
AcDbPlotSettings
  1

  2
none_device
  4

  6

 40
0.0
 41
0.0
 42
0.0
 43
0.0
 44
0.0
 45
0.0
 46
0.0
 47
0.0
 48
0.0
 49
0.0
140
0.0
141
0.0
142
1.0
143
1.0
 70
   688
 72
     1
 73
     0
 74
     5
  7

 75
    16
147
1.0
148
0.0
149
0.0
100
AcDbLayout
  1
Layout1
 70
     1
 71
     1
 10
0.0
 20
0.0
 11
420.0
 21
297.0
 12
0.0
 22
0.0
 32
0.0
 14
1.0000000000E+20
 24
1.0000000000E+20
 34
1.0000000000E+20
 15
-1.0000000000E+20
 25
-1.0000000000E+20
 35
-1.0000000000E+20
146
0.0
 13
0.0
 23
0.0
 33
0.0
 16
1.0
 26
0.0
 36
0.0
 17
0.0
 27
1.0
 37
0.0
 76
     0
330
1B
  0
LAYOUT
  5
26
102
{ACAD_REACTORS
330
1A
102
}
330
1A
100
AcDbPlotSettings
  1

  2
none_device
  4

  6

 40
0.0
 41
0.0
 42
0.0
 43
0.0
 44
0.0
 45
0.0
 46
0.0
 47
0.0
 48
0.0
 49
0.0
140
0.0
141
0.0
142
1.0
143
1.0
 70
   688
 72
     1
 73
     0
 74
     5
  7

 75
    16
147
1.0
148
0.0
149
0.0
100
AcDbLayout
  1
Layout2
 70
     1
 71
     2
 10
0.0
 20
0.0
 11
0.0
 21
0.0
 12
0.0
 22
0.0
 32
0.0
 14
0.0
 24
0.0
 34
0.0
 15
0.0
 25
0.0
 35
0.0
146
0.0
 13
0.0
 23
0.0
 33
0.0
 16
1.0
 26
0.0
 36
0.0
 17
0.0
 27
1.0
 37
0.0
 76
     0
330
23
  0
LAYOUT
  5
22
102
{ACAD_REACTORS
330
1A
102
}
330
1A
100
AcDbPlotSettings
  1

  2
none_device
  4
ANSI_A_(11.00_x_8.50_Inches)
  6

 40
6.35
 41
19.05
 42
6.35000508
 43
19.05000254
 44
279.4
 45
215.9
 46
133.34999746
 47
88.89999873
 48
0.0
 49
0.0
140
0.0
141
0.0
142
0.19125
143
1.0
 70
  1696
 72
     0
 73
     0
 74
     0
  7

 75
     0
147
0.0179189148
148
-1300.4909072572
149
0.0
100
AcDbLayout
  1
Model
 70
     1
 71
     0
 10
0.0
 20
0.0
 11
420.0
 21
297.0
 12
0.0
 22
0.0
 32
0.0
 14
-22.0
 24
-22.0
 34
0.0
 15
22.0
 25
22.0
 35
0.0
146
0.0
 13
0.0
 23
0.0
 33
0.0
 16
1.0
 26
0.0
 36
0.0
 17
0.0
 27
1.0
 37
0.0
 76
     0
330
1F
331
29
  0
MLINESTYLE
  5
18
102
{ACAD_REACTORS
330
17
102
}
330
17
100
AcDbMlineStyle
  2
Standard
 70
     0
  3

 62
   256
 51
90.0
 52
90.0
 71
     2
 49
0.5
 62
   256
  6
BYLAYER
 49
-0.5
 62
   256
  6
BYLAYER
  0
ACDBPLACEHOLDER
  5
F
102
{ACAD_REACTORS
330
E
102
}
330
E
  0
SCALE
  5
48
102
{ACAD_REACTORS
330
47
102
}
330
47
100
AcDbScale
 70
     0
300
1:1
140
1.0
141
1.0
290
     1
  0
SCALE
  5
49
102
{ACAD_REACTORS
330
47
102
}
330
47
100
AcDbScale
 70
     0
300
1:2
140
1.0
141
2.0
290
     0
  0
SCALE
  5
4A
102
{ACAD_REACTORS
330
47
102
}
330
47
100
AcDbScale
 70
     0
300
1:4
140
1.0
141
4.0
290
     0
  0
SCALE
  5
4B
102
{ACAD_REACTORS
330
47
102
}
330
47
100
AcDbScale
 70
     0
300
1:5
140
1.0
141
5.0
290
     0
  0
SCALE
  5
4C
102
{ACAD_REACTORS
330
47
102
}
330
47
100
AcDbScale
 70
     0
300
1:8
140
1.0
141
8.0
290
     0
  0
SCALE
  5
4D
102
{ACAD_REACTORS
330
47
102
}
330
47
100
AcDbScale
 70
     0
300
1:10
140
1.0
141
10.0
290
     0
  0
SCALE
  5
4E
102
{ACAD_REACTORS
330
47
102
}
330
47
100
AcDbScale
 70
     0
300
1:16
140
1.0
141
16.0
290
     0
  0
SCALE
  5
4F
102
{ACAD_REACTORS
330
47
102
}
330
47
100
AcDbScale
 70
     0
300
1:20
140
1.0
141
20.0
290
     0
  0
SCALE
  5
50
102
{ACAD_REACTORS
330
47
102
}
330
47
100
AcDbScale
 70
     0
300
1:30
140
1.0
141
30.0
290
     0
  0
SCALE
  5
51
102
{ACAD_REACTORS
330
47
102
}
330
47
100
AcDbScale
 70
     0
300
1:40
140
1.0
141
40.0
290
     0
  0
SCALE
  5
52
102
{ACAD_REACTORS
330
47
102
}
330
47
100
AcDbScale
 70
     0
300
1:50
140
1.0
141
50.0
290
     0
  0
SCALE
  5
53
102
{ACAD_REACTORS
330
47
102
}
330
47
100
AcDbScale
 70
     0
300
1:100
140
1.0
141
100.0
290
     0
  0
SCALE
  5
54
102
{ACAD_REACTORS
330
47
102
}
330
47
100
AcDbScale
 70
     0
300
2:1
140
2.0
141
1.0
290
     0
  0
SCALE
  5
55
102
{ACAD_REACTORS
330
47
102
}
330
47
100
AcDbScale
 70
     0
300
4:1
140
4.0
141
1.0
290
     0
  0
SCALE
  5
56
102
{ACAD_REACTORS
330
47
102
}
330
47
100
AcDbScale
 70
     0
300
8:1
140
8.0
141
1.0
290
     0
  0
SCALE
  5
57
102
{ACAD_REACTORS
330
47
102
}
330
47
100
AcDbScale
 70
     0
300
10:1
140
10.0
141
1.0
290
     0
  0
SCALE
  5
58
102
{ACAD_REACTORS
330
47
102
}
330
47
100
AcDbScale
 70
     0
300
100:1
140
100.0
141
1.0
290
     0
  0
ENDSEC
  0
EOF
