  0
SECTION
  2
HEADER
  9
$ACADVER
  1
AC1015
  9
$ACADMAINTVER
 70
     6
  9
$DWGCODEPAGE
  3
ANSI_1252
  9
$INSBASE
 10
0.0
 20
0.0
 30
0.0
  9
$EXTMIN
 10
-62.0
 20
-62.0
 30
0.0
  9
$EXTMAX
 10
62.0
 20
62.0
 30
0.0
  9
$LIMMIN
 10
0.0
 20
0.0
  9
$LIMMAX
 10
420.0
 20
297.0
  9
$ORTHOMODE
 70
     0
  9
$REGENMODE
 70
     1
  9
$FILLMODE
 70
     1
  9
$QTEXTMODE
 70
     0
  9
$MIRRTEXT
 70
     1
  9
$LTSCALE
 40
1.0
  9
$ATTMODE
 70
     1
  9
$TEXTSIZE
 40
3.5
  9
$TRACEWID
 40
1.0
  9
$TEXTSTYLE
  7
Standard
  9
$CLAYER
  8
0
  9
$CELTYPE
  6
ByLayer
  9
$CECOLOR
 62
   256
  9
$CELTSCALE
 40
1.0
  9
$DISPSILH
 70
     0
  9
$DIMSCALE
 40
1.0
  9
$DIMASZ
 40
6.0
  9
$DIMEXO
 40
0.0
  9
$DIMDLI
 40
3.75
  9
$DIMRND
 40
0.0
  9
$DIMDLE
 40
0.0
  9
$DIMEXE
 40
1.0
  9
$DIMTP
 40
0.0
  9
$DIMTM
 40
0.0
  9
$DIMTXT
 40
3.5
  9
$DIMCEN
 40
2.5
  9
$DIMTSZ
 40
0.0
  9
$DIMTOL
 70
     0
  9
$DIMLIM
 70
     0
  9
$DIMTIH
 70
     1
  9
$DIMTOH
 70
     1
  9
$DIMSE1
 70
     0
  9
$DIMSE2
 70
     0
  9
$DIMTAD
 70
     1
  9
$DIMZIN
 70
     0
  9
$DIMBLK
  1

  9
$DIMASO
 70
     1
  9
$DIMSHO
 70
     1
  9
$DIMPOST
  1

  9
$DIMAPOST
  1

  9
$DIMALT
 70
     0
  9
$DIMALTD
 70
     3
  9
$DIMALTF
 40
0.0393700787
  9
$DIMLFAC
 40
1.0
  9
$DIMTOFL
 70
     1
  9
$DIMTVP
 40
0.0
  9
$DIMTIX
 70
     0
  9
$DIMSOXD
 70
     0
  9
$DIMSAH
 70
     0
  9
$DIMBLK1
  1

  9
$DIMBLK2
  1

  9
$DIMSTYLE
  2
ISO-25
  9
$DIMCLRD
 70
     0
  9
$DIMCLRE
 70
     0
  9
$DIMCLRT
 70
     0
  9
$DIMTFAC
 40
1.0
  9
$DIMGAP
 40
1.524
  9
$DIMJUST
 70
     0
  9
$DIMSD1
 70
     0
  9
$DIMSD2
 70
     0
  9
$DIMTOLJ
 70
     0
  9
$DIMTZIN
 70
     0
  9
$DIMALTZ
 70
     0
  9
$DIMALTTZ
 70
     0
  9
$DIMUPT
 70
     0
  9
$DIMDEC
 70
     2
  9
$DIMTDEC
 70
     2
  9
$DIMALTU
 70
     2
  9
$DIMALTTD
 70
     3
  9
$DIMTXSTY
  7
Standard
  9
$DIMAUNIT
 70
     0
  9
$DIMADEC
 70
     2
  9
$DIMALTRND
 40
0.0
  9
$DIMAZIN
 70
     0
  9
$DIMDSEP
 70
    44
  9
$DIMATFIT
 70
     3
  9
$DIMFRAC
 70
     0
  9
$DIMLDRBLK
  1

  9
$DIMLUNIT
 70
     2
  9
$DIMLWD
 70
    -2
  9
$DIMLWE
 70
    -2
  9
$DIMTMOVE
 70
     0
  9
$LUNITS
 70
     2
  9
$LUPREC
 70
     2
  9
$SKETCHINC
 40
1.0
  9
$FILLETRAD
 40
0.0
  9
$AUNITS
 70
     0
  9
$AUPREC
 70
     2
  9
$MENU
  1
.
  9
$ELEVATION
 40
0.0
  9
$PELEVATION
 40
0.0
  9
$THICKNESS
 40
0.0
  9
$LIMCHECK
 70
     0
  9
$CHAMFERA
 40
0.0
  9
$CHAMFERB
 40
0.0
  9
$CHAMFERC
 40
0.0
  9
$CHAMFERD
 40
0.0
  9
$SKPOLY
 70
     0
  9
$TDCREATE
 40
2459998.471762732
  9
$TDUCREATE
 40
2459998.680096065
  9
$TDUPDATE
 40
2459998.471788137
  9
$TDUUPDATE
 40
2459998.68012147
  9
$TDINDWG
 40
0.0000000116
  9
$TDUSRTIMER
 40
0.0000000116
  9
$USRTIMER
 70
     1
  9
$ANGBASE
 50
0.0
  9
$ANGDIR
 70
     0
  9
$PDMODE
 70
     0
  9
$PDSIZE
 40
-1.0
  9
$PLINEWID
 40
0.0
  9
$SPLFRAME
 70
     0
  9
$SPLINETYPE
 70
     6
  9
$SPLINESEGS
 70
     8
  9
$HANDSEED
  5
25A
  9
$SURFTAB1
 70
     6
  9
$SURFTAB2
 70
     6
  9
$SURFTYPE
 70
     6
  9
$SURFU
 70
     6
  9
$SURFV
 70
     6
  9
$UCSBASE
  2

  9
$UCSNAME
  2

  9
$UCSORG
 10
0.0
 20
0.0
 30
0.0
  9
$UCSXDIR
 10
1.0
 20
0.0
 30
0.0
  9
$UCSYDIR
 10
0.0
 20
1.0
 30
0.0
  9
$UCSORTHOREF
  2

  9
$UCSORTHOVIEW
 70
     0
  9
$UCSORGTOP
 10
0.0
 20
0.0
 30
0.0
  9
$UCSORGBOTTOM
 10
0.0
 20
0.0
 30
0.0
  9
$UCSORGLEFT
 10
0.0
 20
0.0
 30
0.0
  9
$UCSORGRIGHT
 10
0.0
 20
0.0
 30
0.0
  9
$UCSORGFRONT
 10
0.0
 20
0.0
 30
0.0
  9
$UCSORGBACK
 10
0.0
 20
0.0
 30
0.0
  9
$PUCSBASE
  2

  9
$PUCSNAME
  2

  9
$PUCSORG
 10
0.0
 20
0.0
 30
0.0
  9
$PUCSXDIR
 10
1.0
 20
0.0
 30
0.0
  9
$PUCSYDIR
 10
0.0
 20
1.0
 30
0.0
  9
$PUCSORTHOREF
  2

  9
$PUCSORTHOVIEW
 70
     0
  9
$PUCSORGTOP
 10
0.0
 20
0.0
 30
0.0
  9
$PUCSORGBOTTOM
 10
0.0
 20
0.0
 30
0.0
  9
$PUCSORGLEFT
 10
0.0
 20
0.0
 30
0.0
  9
$PUCSORGRIGHT
 10
0.0
 20
0.0
 30
0.0
  9
$PUCSORGFRONT
 10
0.0
 20
0.0
 30
0.0
  9
$PUCSORGBACK
 10
0.0
 20
0.0
 30
0.0
  9
$USERI1
 70
     0
  9
$USERI2
 70
     0
  9
$USERI3
 70
     0
  9
$USERI4
 70
     0
  9
$USERI5
 70
     0
  9
$USERR1
 40
0.0
  9
$USERR2
 40
0.0
  9
$USERR3
 40
0.0
  9
$USERR4
 40
0.0
  9
$USERR5
 40
0.0
  9
$WORLDVIEW
 70
     1
  9
$SHADEDGE
 70
     3
  9
$SHADEDIF
 70
    70
  9
$TILEMODE
 70
     1
  9
$MAXACTVP
 70
    64
  9
$PINSBASE
 10
0.0
 20
0.0
 30
0.0
  9
$PLIMCHECK
 70
     0
  9
$PEXTMIN
 10
1.0000000000E+20
 20
1.0000000000E+20
 30
1.0000000000E+20
  9
$PEXTMAX
 10
-1.0000000000E+20
 20
-1.0000000000E+20
 30
-1.0000000000E+20
  9
$PLIMMIN
 10
0.0
 20
0.0
  9
$PLIMMAX
 10
420.0
 20
297.0
  9
$UNITMODE
 70
     0
  9
$VISRETAIN
 70
     1
  9
$PLINEGEN
 70
     0
  9
$PSLTSCALE
 70
     1
  9
$TREEDEPTH
 70
  3020
  9
$CMLSTYLE
  2
Standard
  9
$CMLJUST
 70
     0
  9
$CMLSCALE
 40
20.0
  9
$PROXYGRAPHICS
 70
     1
  9
$MEASUREMENT
 70
     1
  9
$CELWEIGHT
370
    -1
  9
$ENDCAPS
280
     0
  9
$JOINSTYLE
280
     0
  9
$LWDISPLAY
290
     1
  9
$INSUNITS
 70
     4
  9
$HYPERLINKBASE
  1

  9
$STYLESHEET
  1

  9
$XEDIT
290
     1
  9
$CEPSNTYPE
380
     0
  9
$PSTYLEMODE
290
     1
  9
$FINGERPRINTGUID
  2
{eec31c24-47eb-412c-abf0-eff91612c7c3}
  9
$VERSIONGUID
  2
{FAEB1C32-E019-11D5-929B-00C0DF256EC4}
  9
$EXTNAMES
290
     1
  9
$PSVPSCALE
 40
0.0
  9
$OLESTARTUP
290
     0
  0
ENDSEC
  0
SECTION
  2
CLASSES
  0
CLASS
  1
ACDBDICTIONARYWDFLT
  2
AcDbDictionaryWithDefault
  3
ObjectDBX Classes
 90
        0
280
     0
281
     0
  0
CLASS
  1
VISUALSTYLE
  2
AcDbVisualStyle
  3
ObjectDBX Classes
 90
     4095
280
     0
281
     0
  0
CLASS
  1
MATERIAL
  2
AcDbMaterial
  3
ObjectDBX Classes
 90
     1153
280
     0
281
     0
  0
CLASS
  1
SCALE
  2
AcDbScale
  3
ObjectDBX Classes
 90
     1153
280
     0
281
     0
  0
CLASS
  1
TABLESTYLE
  2
AcDbTableStyle
  3
ObjectDBX Classes
 90
     4095
280
     0
281
     0
  0
CLASS
  1
MLEADERSTYLE
  2
AcDbMLeaderStyle
  3
ACDB_MLEADERSTYLE_CLASS
 90
     4095
280
     0
281
     0
  0
CLASS
  1
SUN
  2
AcDbSun
  3
SCENEOE
 90
     1153
280
     0
281
     0
  0
CLASS
  1
ACDBPLACEHOLDER
  2
AcDbPlaceHolder
  3
ObjectDBX Classes
 90
        0
280
     0
281
     0
  0
CLASS
  1
LAYOUT
  2
AcDbLayout
  3
ObjectDBX Classes
 90
        0
280
     0
281
     0
  0
ENDSEC
  0
SECTION
  2
TABLES
  0
TABLE
  2
VPORT
  5
8
330
0
100
AcDbSymbolTable
 70
     1
  0
VPORT
  5
29
330
8
100
AcDbSymbolTableRecord
100
AcDbViewportTableRecord
  2
*Active
 70
     0
 10
0.0
 20
0.0
 11
1.0
 21
1.0
 12
0.0
 22
0.0
 13
0.0
 23
0.0
 14
10.0
 24
10.0
 15
10.0
 25
10.0
 16
0.0
 26
0.0
 36
1.0
 17
0.0
 27
0.0
 37
0.0
 40
126.48
 41
1.0
 42
50.0
 43
0.0
 44
0.0
 50
0.0
 51
0.0
 71
     0
 72
   100
 73
     1
 74
     3
 75
     0
 76
     0
 77
     0
 78
     0
281
     0
 65
     1
110
0.0
120
0.0
130
0.0
111
1.0
121
0.0
131
0.0
112
0.0
122
1.0
132
0.0
 79
     0
146
0.0
  0
ENDTAB
  0
TABLE
  2
LTYPE
  5
5
330
0
100
AcDbSymbolTable
 70
     6
  0
LTYPE
  5
14
330
5
100
AcDbSymbolTableRecord
100
AcDbLinetypeTableRecord
  2
ByBlock
 70
     0
  3

 72
    65
 73
     0
 40
0.0
  0
LTYPE
  5
15
330
5
100
AcDbSymbolTableRecord
100
AcDbLinetypeTableRecord
  2
ByLayer
 70
     0
  3

 72
    65
 73
     0
 40
0.0
  0
LTYPE
  5
16
330
5
100
AcDbSymbolTableRecord
100
AcDbLinetypeTableRecord
  2
Continuous
 70
     0
  3
Solid line
 72
    65
 73
     0
 40
0.0
  0
LTYPE
  5
5E
330
5
100
AcDbSymbolTableRecord
100
AcDbLinetypeTableRecord
  2
HIDDEN
 70
     0
  3
Hidden __ __ __ __ __ __ __ __ __ __ __ __ __ __
 72
    65
 73
     2
 40
1.905
 49
1.27
 74
     0
 49
-0.635
 74
     0
  0
LTYPE
  5
5F
330
5
100
AcDbSymbolTableRecord
100
AcDbLinetypeTableRecord
  2
PHANTOM
 70
     0
  3
Phantom ______  __  __  ______  __  __  ______
 72
    65
 73
     6
 40
12.7
 49
6.35
 74
     0
 49
-1.27
 74
     0
 49
1.27
 74
     0
 49
-1.27
 74
     0
 49
1.27
 74
     0
 49
-1.27
 74
     0
  0
LTYPE
  5
60
330
5
100
AcDbSymbolTableRecord
100
AcDbLinetypeTableRecord
  2
CENTER
 70
     0
  3
Center ____ _ ____ _ ____ _ ____ _ ____ _ ____
 72
    65
 73
     4
 40
10.16
 49
6.35
 74
     0
 49
-1.27
 74
     0
 49
1.27
 74
     0
 49
-1.27
 74
     0
  0
LTYPE
  5
61
330
5
100
AcDbSymbolTableRecord
100
AcDbLinetypeTableRecord
  2
CENTERX2
 70
     0
  3
Center (2x) ________  __  ________  __  _____
 72
    65
 73
     4
 40
20.32
 49
12.7
 74
     0
 49
-2.54
 74
     0
 49
2.54
 74
     0
 49
-2.54
 74
     0
  0
LTYPE
  5
62
330
5
100
AcDbSymbolTableRecord
100
AcDbLinetypeTableRecord
  2
DOT2
 70
     0
  3
Dot (.5x) ........................................
 72
    65
 73
     2
 40
0.635
 49
0.0
 74
     0
 49
-0.635
 74
     0
  0
ENDTAB
  0
TABLE
  2
LAYER
  5
2
330
0
100
AcDbSymbolTable
 70
     1
  0
LAYER
  5
10
330
2
100
AcDbSymbolTableRecord
100
AcDbLayerTableRecord
  2
0
 70
     0
 62
     7
  6
Continuous
370
    -3
390
F
  0
ENDTAB
  0
TABLE
  2
STYLE
  5
3
330
0
100
AcDbSymbolTable
 70
     2
  0
STYLE
  5
11
330
3
100
AcDbSymbolTableRecord
100
AcDbTextStyleTableRecord
  2
Standard
 70
     0
 40
0.0
 41
1.0
 50
0.0
 71
     0
 42
3.5
  3
txt
  4

  0
STYLE
  5
256
330
3
100
AcDbSymbolTableRecord
100
AcDbTextStyleTableRecord
  2
SLDTEXTSTYLE0
 70
     0
 40
0.0
 41
0.7
 50
0.0
 71
     0
 42
3.5
  3
TXT
  4

  0
ENDTAB
  0
TABLE
  2
VIEW
  5
6
330
0
100
AcDbSymbolTable
 70
     0
  0
ENDTAB
  0
TABLE
  2
UCS
  5
7
330
0
100
AcDbSymbolTable
 70
     0
  0
ENDTAB
  0
TABLE
  2
APPID
  5
9
330
0
100
AcDbSymbolTable
 70
     1
  0
APPID
  5
12
330
9
100
AcDbSymbolTableRecord
100
AcDbRegAppTableRecord
  2
ACAD
 70
     0
  0
ENDTAB
  0
TABLE
  2
DIMSTYLE
  5
A
330
0
100
AcDbSymbolTable
 70
     1
100
AcDbDimStyleTable
  0
DIMSTYLE
105
27
330
A
100
AcDbSymbolTableRecord
100
AcDbDimStyleTableRecord
  2
ISO-25
 70
     0
 41
2.5
 42
0.625
 43
3.75
 44
1.25
 73
     0
 74
     0
 77
     1
 78
     8
140
2.5
141
2.5
143
0.0393700787
147
0.625
171
     3
172
     1
178
     0
271
     2
272
     2
274
     3
278
    44
283
     0
284
     8
340
11
  0
ENDTAB
  0
TABLE
  2
BLOCK_RECORD
  5
1
330
0
100
AcDbSymbolTable
 70
     1
  0
BLOCK_RECORD
  5
1F
330
1
100
AcDbSymbolTableRecord
100
AcDbBlockTableRecord
  2
*Model_Space
340
22
  0
BLOCK_RECORD
  5
1B
330
1
100
AcDbSymbolTableRecord
100
AcDbBlockTableRecord
  2
*Paper_Space
340
1E
  0
BLOCK_RECORD
  5
23
330
1
100
AcDbSymbolTableRecord
100
AcDbBlockTableRecord
  2
*Paper_Space0
340
26
  0
ENDTAB
  0
ENDSEC
  0
SECTION
  2
BLOCKS
  0
BLOCK
  5
20
330
1F
100
AcDbEntity
  8
0
100
AcDbBlockBegin
  2
*Model_Space
 70
     0
 10
0.0
 20
0.0
 30
0.0
  3
*Model_Space
  1

  0
ENDBLK
  5
21
330
1F
100
AcDbEntity
  8
0
100
AcDbBlockEnd
  0
BLOCK
  5
1C
330
1B
100
AcDbEntity
 67
     1
  8
0
100
AcDbBlockBegin
  2
*Paper_Space
 70
     0
 10
0.0
 20
0.0
 30
0.0
  3
*Paper_Space
  1

  0
ENDBLK
  5
1D
330
1B
100
AcDbEntity
 67
     1
  8
0
100
AcDbBlockEnd
  0
BLOCK
  5
24
330
23
100
AcDbEntity
  8
0
100
AcDbBlockBegin
  2
*Paper_Space0
 70
     0
 10
0.0
 20
0.0
 30
0.0
  3
*Paper_Space0
  1

  0
ENDBLK
  5
25
330
23
100
AcDbEntity
  8
0
100
AcDbBlockEnd
  0
ENDSEC
  0
SECTION
  2
ENTITIES
  0
CIRCLE
  5
63
330
1F
100
AcDbEntity
  8
0
  6
Continuous
 62
     7
370
    25
100
AcDbCircle
 10
10.0
 20
-17.3205080757
 30
0.0
 40
3.0
  0
CIRCLE
  5
64
330
1F
100
AcDbEntity
  8
0
  6
Continuous
 62
     7
370
    25
100
AcDbCircle
 10
-10.0
 20
-17.3205080757
 30
0.0
 40
2.999999999999997
  0
CIRCLE
  5
65
330
1F
100
AcDbEntity
  8
0
  6
Continuous
 62
     7
370
    25
100
AcDbCircle
 10
-20.0
 20
0.0
 30
0.0
 40
3.0
  0
CIRCLE
  5
66
330
1F
100
AcDbEntity
  8
0
  6
Continuous
 62
     7
370
    25
100
AcDbCircle
 10
-10.0
 20
17.3205080757
 30
0.0
 40
2.999999999999997
  0
CIRCLE
  5
67
330
1F
100
AcDbEntity
  8
0
  6
Continuous
 62
     7
370
    25
100
AcDbCircle
 10
10.0
 20
17.3205080757
 30
0.0
 40
3.0
  0
CIRCLE
  5
68
330
1F
100
AcDbEntity
  8
0
  6
Continuous
 62
     7
370
    25
100
AcDbCircle
 10
20.0
 20
0.0
 30
0.0
 40
3.0
  0
CIRCLE
  5
69
330
1F
100
AcDbEntity
  8
0
  6
Continuous
 62
     7
370
    25
100
AcDbCircle
 10
20.0
 20
34.6410161514
 30
0.0
 40
3.000000000000003
  0
CIRCLE
  5
6A
330
1F
100
AcDbEntity
  8
0
  6
Continuous
 62
     7
370
    25
100
AcDbCircle
 10
0.0
 20
40.0
 30
0.0
 40
3.0
  0
CIRCLE
  5
6B
330
1F
100
AcDbEntity
  8
0
  6
Continuous
 62
     7
370
    25
100
AcDbCircle
 10
-20.0
 20
34.6410161514
 30
0.0
 40
3.0
  0
CIRCLE
  5
6C
330
1F
100
AcDbEntity
  8
0
  6
Continuous
 62
     7
370
    25
100
AcDbCircle
 10
-34.6410161514
 20
20.0
 30
0.0
 40
3.000000000000005
  0
CIRCLE
  5
6D
330
1F
100
AcDbEntity
  8
0
  6
Continuous
 62
     7
370
    25
100
AcDbCircle
 10
-40.0
 20
0.0
 30
0.0
 40
3.0
  0
CIRCLE
  5
6E
330
1F
100
AcDbEntity
  8
0
  6
Continuous
 62
     7
370
    25
100
AcDbCircle
 10
-34.6410161514
 20
-20.0
 30
0.0
 40
3.000000000000005
  0
CIRCLE
  5
6F
330
1F
100
AcDbEntity
  8
0
  6
Continuous
 62
     7
370
    25
100
AcDbCircle
 10
-20.0
 20
-34.6410161514
 30
0.0
 40
3.000000000000002
  0
CIRCLE
  5
70
330
1F
100
AcDbEntity
  8
0
  6
Continuous
 62
     7
370
    25
100
AcDbCircle
 10
0.0
 20
-40.0
 30
0.0
 40
3.0
  0
CIRCLE
  5
71
330
1F
100
AcDbEntity
  8
0
  6
Continuous
 62
     7
370
    25
100
AcDbCircle
 10
20.0
 20
-34.6410161514
 30
0.0
 40
3.000000000000005
  0
CIRCLE
  5
72
330
1F
100
AcDbEntity
  8
0
  6
Continuous
 62
     7
370
    25
100
AcDbCircle
 10
34.6410161514
 20
-20.0
 30
0.0
 40
2.999999999999996
  0
CIRCLE
  5
73
330
1F
100
AcDbEntity
  8
0
  6
Continuous
 62
     7
370
    25
100
AcDbCircle
 10
34.6410161514
 20
20.0
 30
0.0
 40
2.999999999999996
  0
CIRCLE
  5
74
330
1F
100
AcDbEntity
  8
0
  6
Continuous
 62
     7
370
    25
100
AcDbCircle
 10
40.0
 20
0.0
 30
0.0
 40
3.0
  0
CIRCLE
  5
75
330
1F
100
AcDbEntity
  8
0
  6
Continuous
 62
     7
370
    25
100
AcDbCircle
 10
0.0
 20
0.0
 30
0.0
 40
3.0
  0
SPLINE
  5
76
330
1F
100
AcDbEntity
  8
0
  6
Continuous
 62
     7
370
    25
100
AcDbSpline
210
0.0
220
0.0
230
1.0
 70
     8
 71
     3
 72
    14
 73
    10
 74
     0
 42
0.00000001
 43
0.00000001
 40
0.0
 40
0.0
 40
0.0
 40
0.0
 40
0.1463524895720285
 40
0.2295876425155019
 40
0.3195287342547698
 40
0.4161757648032168
 40
0.5195287341716108
 40
0.6295876423687684
 40
0.6881776950847714
 40
0.6881776950847714
 40
0.6881776950847714
 40
0.6881776950847714
 10
-58.11998930051431
 20
-4.033227401659415
 30
0.0
 10
-58.38805240148571
 20
-4.123254030864115
 30
0.0
 10
-58.8045042018426
 20
-4.276421340694951
 30
0.0
 10
-59.37554306864529
 20
-4.511187707659577
 30
0.0
 10
-59.852388945052
 20
-4.72201109191783
 30
0.0
 10
-60.35867217255825
 20
-4.96190908393066
 30
0.0
 10
-60.89317045932108
 20
-5.232562917052272
 30
0.0
 10
-61.35567524333398
 20
-5.482212240351451
 30
0.0
 10
-61.63934912486788
 20
-5.642555837532538
 30
0.0
 10
-61.73752875689701
 20
-5.698907175222383
 30
0.0
  0
ARC
  5
77
330
1F
100
AcDbEntity
  8
0
  6
Continuous
 62
     7
370
    25
100
AcDbCircle
 10
0.0
 20
0.0
 30
0.0
 40
62.0
100
AcDbArc
 50
185.2739496673
 51
186.7260503327
  0
SPLINE
  5
78
330
1F
100
AcDbEntity
  8
0
  6
Continuous
 62
     7
370
    25
100
AcDbSpline
210
0.0
220
0.0
230
1.0
 70
     8
 71
     3
 72
    14
 73
    10
 74
     0
 42
0.00000001
 43
0.00000001
 40
0.3118223049152287
 40
0.3118223049152287
 40
0.3118223049152287
 40
0.3118223049152287
 40
0.3704123576312316
 40
0.4804712658283892
 40
0.5838242351967832
 40
0.6804712657452302
 40
0.7704123574844981
 40
0.8536475104279715
 40
1.0
 40
1.0
 40
1.0
 40
1.0
 10
-61.57328505540723
 20
-7.261581610506849
 30
0.0
 10
-61.46553478199807
 20
-7.296288842967273
 30
0.0
 10
-61.15472254698312
 20
-7.394149431492438
 30
0.0
 10
-60.65041958925435
 20
-7.542183166446933
 30
0.0
 10
-60.07132927639035
 20
-7.695794121404202
 30
0.0
 10
-59.52623195497018
 20
-7.825187564848924
 30
0.0
 10
-59.01597365875808
 20
-7.932262119916531
 30
0.0
 10
-58.40860268896653
 20
-8.043172622176378
 30
0.0
 10
-57.96940608526121
 20
-8.106407660841967
 30
0.0
 10
-57.68848321750421
 20
-8.138733539631886
 30
0.0
  0
LINE
  5
79
330
1F
100
AcDbEntity
  8
0
  6
Continuous
 62
     7
370
    25
100
AcDbLine
 10
-57.6884832175
 20
-8.1387335396
 30
0.0
 11
-57.6530200834
 21
-8.1435715497
 31
0.0
  0
SPLINE
  5
7A
330
1F
100
AcDbEntity
  8
0
  6
Continuous
 62
     7
370
    25
100
AcDbSpline
210
0.0
220
0.0
230
1.0
 70
     8
 71
     3
 72
    15
 73
    11
 74
     0
 42
0.00000001
 43
0.00000001
 40
0.0
 40
0.0
 40
0.0
 40
0.0
 40
0.0913942292267501
 40
0.1562608672127009
 40
0.2267227674849005
 40
0.3059893555533331
 40
0.3985747306771407
 40
0.5104191907761346
 40
0.6478782966083095
 40
1.0
 40
1.0
 40
1.0
 40
1.0
 10
-57.65302008337316
 20
-8.143571549668412
 30
0.0
 10
-57.61677138944085
 20
-8.147877260937474
 30
0.0
 10
-57.55524511331888
 20
-8.158651293113003
 30
0.0
 10
-57.46716458562732
 20
-8.17979962908165
 30
0.0
 10
-57.38531868800564
 20
-8.205468701860257
 30
0.0
 10
-57.29555865885835
 20
-8.24196927966956
 30
0.0
 10
-57.19540889583898
 20
-8.295478826595902
 30
0.0
 10
-57.08426061115433
 20
-8.375647344429066
 30
0.0
 10
-56.91549679669191
 20
-8.54867533355479
 30
0.0
 10
-56.83251309584082
 20
-8.733408605070917
 30
0.0
 10
-56.81124507871871
 20
-8.873129808909567
 30
0.0
  0
ARC
  5
7B
330
1F
100
AcDbEntity
  8
0
  6
Continuous
 62
     7
370
    25
100
AcDbCircle
 10
0.0
 20
0.0
 30
0.0
 40
57.5
100
AcDbArc
 50
188.8770881273
 51
189.1229118727
  0
SPLINE
  5
7C
330
1F
100
AcDbEntity
  8
0
  6
Continuous
 62
     7
370
    25
100
AcDbSpline
210
0.0
220
0.0
230
1.0
 70
     8
 71
     3
 72
    15
 73
    11
 74
     0
 42
0.00000001
 43
0.00000001
 40
0.0
 40
0.0
 40
0.0
 40
0.0
 40
0.3521217033916905
 40
0.4895808092238654
 40
0.6014252693228592
 40
0.6940106444466669
 40
0.7732772325150995
 40
0.8437391327872991
 40
0.9086057707732499
 40
1.0
 40
1.0
 40
1.0
 40
1.0
 10
-56.77265273520457
 20
-9.116792276226837
 30
0.0
 10
-56.74970359501656
 20
-9.256247216329577
 30
0.0
 10
-56.77154006413232
 20
-9.457582371800626
 30
0.0
 10
-56.87857540044926
 20
-9.674292655064523
 30
0.0
 10
-56.95951026644934
 20
-9.784884155214657
 30
0.0
 10
-57.03822299181278
 20
-9.866722737258561
 30
0.0
 10
-57.11231055358859
 20
-9.929174224054744
 30
0.0
 10
-57.18221844813525
 20
-9.978878736273057
 30
0.0
 10
-57.25945281273799
 20
-10.02621037893505
 30
0.0
 10
-57.31463841952695
 20
-10.05546975736464
 30
0.0
 10
-57.34778243814346
 20
-10.07076619457335
 30
0.0
  0
LINE
  5
7D
330
1F
100
AcDbEntity
  8
0
  6
Continuous
 62
     7
370
    25
100
AcDbLine
 10
-57.3477824381
 20
-10.0707661946
 30
0.0
 11
-57.3800148556
 21
-10.0863261267
 31
0.0
  0
SPLINE
  5
7E
330
1F
100
AcDbEntity
  8
0
  6
Continuous
 62
     7
370
    25
100
AcDbSpline
210
0.0
220
0.0
230
1.0
 70
     8
 71
     3
 72
    14
 73
    10
 74
     0
 42
0.00000001
 43
0.00000001
 40
0.0
 40
0.0
 40
0.0
 40
0.0
 40
0.1463524895720285
 40
0.2295876425155019
 40
0.3195287342547698
 40
0.4161757648032168
 40
0.5195287341716108
 40
0.6295876423687684
 40
0.6881776950847707
 40
0.6881776950847707
 40
0.6881776950847707
 40
0.6881776950847707
 10
-57.3800148556268
 20
-10.08632612666478
 30
0.0
 10
-57.63719913367925
 20
-10.20387980457836
 30
0.0
 10
-58.03535922398025
 20
-10.39973911457614
 30
0.0
 10
-58.57873011255607
 20
-10.69290922203151
 30
0.0
 10
-59.03092673298123
 20
-10.95242166040829
 30
0.0
 10
-59.50936031954781
 20
-11.24392647386935
 30
0.0
 10
-60.01263953951657
 20
-11.56896792150865
 30
0.0
 10
-60.4465152138097
 20
-11.86559455402037
 30
0.0
 10
-60.71187463033113
 20
-12.05471176710498
 30
0.0
 10
-60.80362610533151
 20
-12.12101697233101
 30
0.0
  0
ARC
  5
7F
330
1F
100
AcDbEntity
  8
0
  6
Continuous
 62
     7
370
    25
100
AcDbCircle
 10
0.0
 20
0.0
 30
0.0
 40
62.00000000000001
100
AcDbArc
 50
191.2739496673
 51
192.7260503327
  0
SPLINE
  5
80
330
1F
100
AcDbEntity
  8
0
  6
Continuous
 62
     7
370
    25
100
AcDbSpline
210
0.0
220
0.0
230
1.0
 70
     8
 71
     3
 72
    14
 73
    10
 74
     0
 42
0.00000001
 43
0.00000001
 40
0.311822304915229
 40
0.311822304915229
 40
0.311822304915229
 40
0.311822304915229
 40
0.3704123576312316
 40
0.4804712658283892
 40
0.5838242351967832
 40
0.6804712657452302
 40
0.7704123574844981
 40
0.8536475104279715
 40
1.0
 40
1.0
 40
1.0
 40
1.0
 10
-60.47693819071565
 20
-13.65796277183555
 30
0.0
 10
-60.36615029090497
 20
-13.68121690394895
 30
0.0
 10
-60.04681150090124
 20
-13.74605267663995
 30
0.0
 10
-59.52979742871444
 20
-13.84056145411262
 30
0.0
 10
-58.93782271611276
 20
-13.93279949168919
 30
0.0
 10
-58.38218619705362
 20
-14.0045059189727
 30
0.0
 10
-57.86353081048109
 20
-14.05765739285163
 30
0.0
 10
-57.24789377805087
 20
-14.10447276166964
 30
0.0
 10
-56.80449327787817
 20
-14.12145284611934
 30
0.0
 10
-56.52173036055049
 20
-14.12423720469955
 30
0.0
  0
LINE
  5
81
330
1F
100
AcDbEntity
  8
0
  6
Continuous
 62
     7
370
    25
100
AcDbLine
 10
-56.5217303606
 20
-14.1242372047
 30
0.0
 11
-56.4859557874
 21
-14.1253418047
 31
0.0
  0
SPLINE
  5
82
330
1F
100
AcDbEntity
  8
0
  6
Continuous
 62
     7
370
    25
100
AcDbSpline
210
0.0
220
0.0
230
1.0
 70
     8
 71
     3
 72
    15
 73
    11
 74
     0
 42
0.00000001
 43
0.00000001
 40
0.0
 40
0.0
 40
0.0
 40
0.0
 40
0.0913942292267501
 40
0.1562608672127009
 40
0.2267227674849005
 40
0.3059893555533331
 40
0.3985747306771407
 40
0.5104191907761346
 40
0.6478782966083095
 40
1.0
 40
1.0
 40
1.0
 40
1.0
 10
-56.48595578742438
 20
-14.12534180469752
 30
0.0
 10
-56.44945559824797
 20
-14.12583490855753
 30
0.0
 10
-56.38714017647769
 20
-14.13011867236388
 30
0.0
 10
-56.29733156007337
 20
-14.14194423333191
 30
0.0
 10
-56.21325087411149
 20
-14.15891746234088
 30
0.0
 10
-56.12016721048882
 20
-14.1858356082562
 30
0.0
 10
-56.01497280763977
 20
-14.22858352346064
 30
0.0
 10
-55.89605351291671
 20
-14.29669471037202
 30
0.0
 10
-55.71012785448236
 20
-14.45113421188816
 30
0.0
 10
-55.60828886204126
 20
-14.62618133648773
 30
0.0
 10
-55.5725325106191
 20
-14.76291401980596
 30
0.0
  0
ARC
  5
83
330
1F
100
AcDbEntity
  8
0
  6
Continuous
 62
     7
370
    25
100
AcDbCircle
 10
0.0
 20
0.0
 30
0.0
 40
57.50000000000001
100
AcDbArc
 50
194.8770881273
 51
195.1229118727
  0
SPLINE
  5
84
330
1F
100
AcDbEntity
  8
0
  6
Continuous
 62
     7
370
    25
100
AcDbSpline
210
0.0
220
0.0
230
1.0
 70
     8
 71
     3
 72
    15
 73
    11
 74
     0
 42
0.00000001
 43
0.00000001
 40
0.0
 40
0.0
 40
0.0
 40
0.0
 40
0.3521217033916905
 40
0.4895808092238654
 40
0.6014252693228592
 40
0.6940106444466669
 40
0.7732772325150995
 40
0.8437391327872991
 40
0.9086057707732499
 40
1.0
 40
1.0
 40
1.0
 40
1.0
 10
-55.50868191673601
 20
-15.00120768027106
 30
0.0
 10
-55.47128148375514
 20
-15.13749983326334
 30
0.0
 10
-55.47195307600516
 20
-15.34001458624653
 30
0.0
 10
-55.55574966866659
 20
-15.56672594712449
 30
0.0
 10
-55.6246812054412
 20
-15.68517161263318
 30
0.0
 10
-55.69440827304221
 20
-15.77478959458358
 30
0.0
 10
-55.76156201745911
 20
-15.84464322458036
 30
0.0
 10
-55.82589141296522
 20
-15.90138281506731
 30
0.0
 10
-55.89775517576611
 20
-15.95652835948179
 30
0.0
 10
-55.9495800321635
 20
-15.99139591864703
 30
0.0
 10
-55.98094357130322
 20
-16.01007305370472
 30
0.0
  0
LINE
  5
85
330
1F
100
AcDbEntity
  8
0
  6
Continuous
 62
     7
370
    25
100
AcDbLine
 10
-55.9809435713
 20
-16.0100730537
 30
0.0
 11
-56.0113729604
 21
-16.0289169519
 31
0.0
  0
SPLINE
  5
86
330
1F
100
AcDbEntity
  8
0
  6
Continuous
 62
     7
370
    25
100
AcDbSpline
210
0.0
220
0.0
230
1.0
 70
     8
 71
     3
 72
    14
 73
    10
 74
     0
 42
0.00000001
 43
0.00000001
 40
0.0
 40
0.0
 40
0.0
 40
0.0
 40
0.1463524895720285
 40
0.2295876425155019
 40
0.3195287342547698
 40
0.4161757648032168
 40
0.5195287341716108
 40
0.6295876423687684
 40
0.6881776950847727
 40
0.6881776950847727
 40
0.6881776950847727
 40
0.6881776950847727
 10
-56.01137296044099
 20
-16.02891695192703
 30
0.0
 10
-56.25486065080485
 20
-16.17270973585457
 30
0.0
 10
-56.63036670578028
 20
-16.40911517043275
 30
0.0
 10
-57.14011633096633
 20
-16.7574769853318
 30
0.0
 10
-57.56270933460831
 20
-17.06283520524579
 30
0.0
 10
-58.00805146174214
 20
-17.40275305241749
 30
0.0
 10
-58.47459758246491
 20
-17.77862089245486
 30
0.0
 10
-58.87509051435639
 20
-18.1189749307202
 30
0.0
 10
-59.11922813256791
 20
-18.33479375194646
 30
0.0
 10
-59.2035462021792
 20
-18.41032637100496
 30
0.0
  0
ARC
  5
87
330
1F
100
AcDbEntity
  8
0
  6
Continuous
 62
     7
370
    25
100
AcDbCircle
 10
0.0
 20
0.0
 30
0.0
 40
62.00000000000001
100
AcDbArc
 50
197.2739496673
 51
198.7260503327
  0
SPLINE
  5
88
330
1F
100
AcDbEntity
  8
0
  6
Continuous
 62
     7
370
    25
100
AcDbSpline
210
0.0
220
0.0
230
1.0
 70
     8
 71
     3
 72
    14
 73
    10
 74
     0
 42
0.00000001
 43
0.00000001
 40
0.3118223049152273
 40
0.3118223049152273
 40
0.3118223049152273
 40
0.3118223049152273
 40
0.3704123576312316
 40
0.4804712658283892
 40
0.5838242351967832
 40
0.6804712657452302
 40
0.7704123574844981
 40
0.8536475104279715
 40
1.0
 40
1.0
 40
1.0
 40
1.0
 10
-58.71799333559365
 20
-19.90470443492361
 30
0.0
 10
-58.60538162479561
 20
-19.91625068955231
 30
0.0
 10
-58.28101502241233
 20
-19.94735129211579
 30
0.0
 10
-57.75695435013453
 20
-19.98729965416341
 30
0.0
 10
-57.15858103662511
 20
-20.01715419511754
 30
0.0
 10
-56.59849298990422
 20
-20.03038797561699
 30
0.0
 10
-56.07712300992218
 20
-20.02903402963676
 30
0.0
 10
-55.45996496301091
 20
-20.01124134603543
 30
0.0
 10
-55.01721855503823
 20
-19.9817804389107
 30
0.0
 10
-54.73571359783407
 20
-19.95499277126593
 30
0.0
  0
LINE
  5
89
330
1F
100
AcDbEntity
  8
0
  6
Continuous
 62
     7
370
    25
100
AcDbLine
 10
-54.7357135978
 20
-19.9549927713
 30
0.0
 11
-54.7000195394
 21
-19.952351859
 31
0.0
  0
SPLINE
  5
8A
330
1F
100
AcDbEntity
  8
0
  6
Continuous
 62
     7
370
    25
100
AcDbSpline
210
0.0
220
0.0
230
1.0
 70
     8
 71
     3
 72
    15
 73
    11
 74
     0
 42
0.00000001
 43
0.00000001
 40
0.0
 40
0.0
 40
0.0
 40
0.0
 40
0.0913942292267501
 40
0.1562608672127009
 40
0.2267227674849005
 40
0.3059893555533331
 40
0.3985747306771407
 40
0.5104191907761346
 40
0.6478782966083095
 40
1.0
 40
1.0
 40
1.0
 40
1.0
 10
-54.7000195394224
 20
-19.9523518589966
 30
0.0
 10
-54.66366775871265
 20
-19.94902695289849
 30
0.0
 10
-54.60124593209532
 20
-19.94677351452297
 30
0.0
 10
-54.51069318897324
 20
-19.94914673716974
 30
0.0
 10
-54.42529892026156
 20
-19.95723816016018
 30
0.0
 10
-54.32991146626119
 20
-19.97427895334188
 30
0.0
 10
-54.22082495547338
 20
-20.00579688171988
 30
0.0
 10
-54.09543755539036
 20
-20.06110449729249
 30
0.0
 10
-53.89438709340534
 20
-20.19526343970188
 30
0.0
 10
-53.7748085786866
 20
-20.35870656445682
 30
0.0
 10
-53.72495564703306
 20
-20.49095265536304
 30
0.0
  0
ARC
  5
8B
330
1F
100
AcDbEntity
  8
0
  6
Continuous
 62
     7
370
    25
100
AcDbCircle
 10
0.0
 20
0.0
 30
0.0
 40
57.49999999999999
100
AcDbArc
 50
200.8770881273
 51
201.1229118727
  0
SPLINE
  5
8C
330
1F
100
AcDbEntity
  8
0
  6
Continuous
 62
     7
370
    25
100
AcDbSpline
210
0.0
220
0.0
230
1.0
 70
     8
 71
     3
 72
    15
 73
    11
 74
     0
 42
0.00000001
 43
0.00000001
 40
0.0
 40
0.0
 40
0.0
 40
0.0
 40
0.3521217033916905
 40
0.4895808092238654
 40
0.6014252693228592
 40
0.6940106444466669
 40
0.7732772325150995
 40
0.8437391327872991
 40
0.9086057707732499
 40
1.0
 40
1.0
 40
1.0
 40
1.0
 10
-53.63654636324924
 20
-20.7212667137657
 30
0.0
 10
-53.58510440444578
 20
-20.85290283429837
 30
0.0
 10
-53.56460376172482
 20
-21.05437839078109
 30
0.0
 10
-53.62424351772598
 20
-21.28860693216092
 30
0.0
 10
-53.68041649693338
 20
-21.41360904753051
 30
0.0
 10
-53.74039396242797
 20
-21.5100245560234
 30
0.0
 10
-53.79987813900932
 20
-21.58651499823272
 30
0.0
 10
-53.85792422915591
 20
-21.64966801616142
 30
0.0
 10
-53.92363003573124
 20
-21.71202327620382
 30
0.0
 10
-53.97152633776533
 20
-21.75211699982999
 30
0.0
 10
-54.0007657719302
 20
-21.77397020213652
 30
0.0
  0
LINE
  5
8D
330
1F
100
AcDbEntity
  8
0
  6
Continuous
 62
     7
370
    25
100
AcDbLine
 10
-54.0007657719
 20
-21.7739702021
 30
0.0
 11
-54.029058742
 21
-21.7958916088
 31
0.0
  0
SPLINE
  5
8E
330
1F
100
AcDbEntity
  8
0
  6
Continuous
 62
     7
370
    25
100
AcDbSpline
210
0.0
220
0.0
230
1.0
 70
     8
 71
     3
 72
    14
 73
    10
 74
     0
 42
0.00000001
 43
0.00000001
 40
0.0
 40
0.0
 40
0.0
 40
0.0
 40
0.1463524895720285
 40
0.2295876425155019
 40
0.3195287342547698
 40
0.4161757648032168
 40
0.5195287341716108
 40
0.6295876423687684
 40
0.6881776950847733
 40
0.6881776950847733
 40
0.6881776950847733
 40
0.6881776950847733
 10
-54.02905874196723
 20
-21.79589160879744
 30
0.0
 10
-54.25618214255383
 20
-21.96434807490767
 30
0.0
 10
-54.60492003928569
 20
-22.238709526654
 30
0.0
 10
-55.07546347751644
 20
-22.63844632405329
 30
0.0
 10
-55.46382284699408
 20
-22.98630475694679
 30
0.0
 10
-55.87119425315645
 20
-23.37091142676315
 30
0.0
 10
-56.29589569770354
 20
-23.79348757248773
 30
0.0
 10
-56.65861800282304
 20
-24.17384002643979
 30
0.0
 10
-56.87885899989044
 20
-24.41399589963935
 30
0.0
 10
-56.95481985769728
 20
-24.49792838134971
 30
0.0
  0
ARC
  5
8F
330
1F
100
AcDbEntity
  8
0
  6
Continuous
 62
     7
370
    25
100
AcDbCircle
 10
0.0
 20
0.0
 30
0.0
 40
62.00000000000001
100
AcDbArc
 50
203.2739496673
 51
204.7260503327
  0
SPLINE
  5
90
330
1F
100
AcDbEntity
  8
0
  6
Continuous
 62
     7
370
    25
100
AcDbSpline
210
0.0
220
0.0
230
1.0
 70
     8
 71
     3
 72
    14
 73
    10
 74
     0
 42
0.00000001
 43
0.00000001
 40
0.3118223049152304
 40
0.3118223049152304
 40
0.3118223049152304
 40
0.3118223049152304
 40
0.3704123576312316
 40
0.4804712658283892
 40
0.5838242351967832
 40
0.6804712657452302
 40
0.7704123574844981
 40
0.8536475104279715
 40
1.0
 40
1.0
 40
1.0
 40
1.0
 10
-56.31572185795679
 20
-25.93336599089546
 30
0.0
 10
-56.20252013364044
 20
-25.93307786485753
 30
0.0
 10
-55.87667954725141
 20
-25.93010255258359
 30
0.0
 10
-55.35131399327481
 20
-25.91505281659183
 30
0.0
 10
-54.75309798209813
 20
-25.88219676832538
 30
0.0
 10
-54.19469484956132
 20
-25.83681290997226
 30
0.0
 10
-53.67632251477413
 20
-25.78096837824836
 30
0.0
 10
-53.06440516609243
 20
-25.69876258259258
 30
0.0
 10
-52.62716367261615
 20
-25.62318346375696
 30
0.0
 10
-52.35000090275533
 20
-25.56711726117962
 30
0.0
  0
LINE
  5
91
330
1F
100
AcDbEntity
  8
0
  6
Continuous
 62
     7
370
    25
100
AcDbLine
 10
-52.3500009028
 20
-25.5671172612
 30
0.0
 11
-52.3147784306
 21
-25.560759771
 31
0.0
  0
SPLINE
  5
92
330
1F
100
AcDbEntity
  8
0
  6
Continuous
 62
     7
370
    25
100
AcDbSpline
210
0.0
220
0.0
230
1.0
 70
     8
 71
     3
 72
    15
 73
    11
 74
     0
 42
0.00000001
 43
0.00000001
 40
0.0
 40
0.0
 40
0.0
 40
0.0
 40
0.0913942292267501
 40
0.1562608672127009
 40
0.2267227674849005
 40
0.3059893555533331
 40
0.3985747306771407
 40
0.5104191907761346
 40
0.6478782966083095
 40
1.0
 40
1.0
 40
1.0
 40
1.0
 10
-52.31477843063151
 20
-25.56075977103047
 30
0.0
 10
-52.27897333610498
 20
-25.55365328334121
 30
0.0
 10
-52.21712901123563
 20
-25.54488733192623
 30
0.0
 10
-52.12682425619879
 20
-25.5377822147278
 30
0.0
 10
-52.04105200221523
 20
-25.53690318037618
 30
0.0
 10
-51.94440584274428
 20
-25.54387991832816
 30
0.0
 10
-51.83262239865775
 20
-25.56382254286085
 30
0.0
 10
-51.70214066380908
 20
-25.60572062528462
 30
0.0
 10
-51.4881681492074
 20
-25.71812913513965
 30
0.0
 10
-51.35216023944171
 20
-25.86817754297247
 30
0.0
 10
-51.28875692670839
 20
-25.99448812562044
 30
0.0
  0
ARC
  5
93
330
1F
100
AcDbEntity
  8
0
  6
Continuous
 62
     7
370
    25
100
AcDbCircle
 10
0.0
 20
0.0
 30
0.0
 40
57.5
100
AcDbArc
 50
206.8770881273
 51
207.1229118727
  0
SPLINE
  5
94
330
1F
100
AcDbEntity
  8
0
  6
Continuous
 62
     7
370
    25
100
AcDbSpline
210
0.0
220
0.0
230
1.0
 70
     8
 71
     3
 72
    15
 73
    11
 74
     0
 42
0.00000001
 43
0.00000001
 40
0.0
 40
0.0
 40
0.0
 40
0.0
 40
0.3521217033916905
 40
0.4895808092238654
 40
0.6014252693228592
 40
0.6940106444466669
 40
0.7732772325150995
 40
0.8437391327872991
 40
0.9086057707732499
 40
1.0
 40
1.0
 40
1.0
 40
1.0
 10
-51.17675758363779
 20
-26.21429921294046
 30
0.0
 10
-51.11183770787733
 20
-26.33983706813033
 30
0.0
 10
-51.07038943951708
 20
-26.53806601975428
 30
0.0
 10
-51.1052189332108
 20
-26.77724548472115
 30
0.0
 10
-51.14801791193583
 20
-26.90743450061728
 30
0.0
 10
-51.19758864966097
 20
-27.00959118716536
 30
0.0
 10
-51.24875153732027
 20
-27.09188039629572
 30
0.0
 10
-51.29987835699677
 20
-27.1607549239861
 30
0.0
 10
-51.35870632077989
 20
-27.22963672237875
 30
0.0
 10
-51.40214930654264
 20
-27.27451733523964
 30
0.0
 10
-51.4289442823732
 20
-27.29930717653747
 30
0.0
  0
LINE
  5
95
330
1F
100
AcDbEntity
  8
0
  6
Continuous
 62
     7
370
    25
100
AcDbLine
 10
-51.4289442824
 20
-27.2993071765
 30
0.0
 11
-51.4547908496
 21
-27.3240659161
 31
0.0
  0
SPLINE
  5
96
330
1F
100
AcDbEntity
  8
0
  6
Continuous
 62
     7
370
    25
100
AcDbSpline
210
0.0
220
0.0
230
1.0
 70
     8
 71
     3
 72
    14
 73
    10
 74
     0
 42
0.00000001
 43
0.00000001
 40
0.0
 40
0.0
 40
0.0
 40
0.0
 40
0.1463524895720285
 40
0.2295876425155019
 40
0.3195287342547698
 40
0.4161757648032168
 40
0.5195287341716108
 40
0.6295876423687684
 40
0.6881776950847733
 40
0.6881776950847733
 40
0.6881776950847733
 40
0.6881776950847733
 10
-51.4547908496091
 20
-27.32406591611827
 30
0.0
 10
-51.66306154891296
 20
-27.5153404201167
 30
0.0
 10
-51.98121044202654
 20
-27.82465192755203
 30
0.0
 10
-52.40739232092523
 20
-28.27138410744895
 30
0.0
 10
-52.7572631097171
 20
-28.65793154353713
 30
0.0
 10
-53.12220054853415
 20
-29.0830132048395
 30
0.0
 10
-53.5004041990046
 20
-29.54766782356899
 30
0.0
 10
-53.82138181587272
 20
-29.96385147212841
 30
0.0
 10
-54.01531318534373
 20
-30.22571319929866
 30
0.0
 10
-54.08208458829216
 20
-30.31712596182725
 30
0.0
  0
ARC
  5
97
330
1F
100
AcDbEntity
  8
0
  6
Continuous
 62
     7
370
    25
100
AcDbCircle
 10
0.0
 20
0.0
 30
0.0
 40
62.0
100
AcDbArc
 50
209.2739496673
 51
210.7260503327
  0
SPLINE
  5
98
330
1F
100
AcDbEntity
  8
0
  6
Continuous
 62
     7
370
    25
100
AcDbSpline
210
0.0
220
0.0
230
1.0
 70
     8
 71
     3
 72
    14
 73
    10
 74
     0
 42
0.00000001
 43
0.00000001
 40
0.311822304915227
 40
0.311822304915227
 40
0.311822304915227
 40
0.311822304915227
 40
0.3704123576312316
 40
0.4804712658283892
 40
0.5838242351967832
 40
0.6804712657452302
 40
0.7704123574844981
 40
0.8536475104279715
 40
1.0
 40
1.0
 40
1.0
 40
1.0
 10
-53.29644354682178
 20
-31.67789616216528
 30
0.0
 10
-53.18389207076769
 20
-31.6657768122299
 30
0.0
 10
-52.86014747802389
 20
-31.62875818326243
 30
0.0
 10
-52.33923305729768
 20
-31.55887523728819
 30
0.0
 10
-51.74772852825694
 20
-31.46366857754152
 30
0.0
 10
-51.19712829147768
 20
-31.36016431538513
 30
0.0
 10
-50.68743299766163
 20
-31.25044104229335
 30
0.0
 10
-50.08746064173356
 20
-31.10472279848299
 30
0.0
 10
-49.66051457205489
 20
-30.9838535285784
 30
0.0
 10
-49.39073064284406
 20
-30.89912306411653
 30
0.0
  0
LINE
  5
99
330
1F
100
AcDbEntity
  8
0
  6
Continuous
 62
     7
370
    25
100
AcDbLine
 10
-49.3907306428
 20
-30.8991230641
 30
0.0
 11
-49.3563656618
 21
-30.8891186501
 31
0.0
  0
SPLINE
  5
9A
330
1F
100
AcDbEntity
  8
0
  6
Continuous
 62
     7
370
    25
100
AcDbSpline
210
0.0
220
0.0
230
1.0
 70
     8
 71
     3
 72
    15
 73
    11
 74
     0
 42
0.00000001
 43
0.00000001
 40
0.0
 40
0.0
 40
0.0
 40
0.0
 40
0.0913942292267501
 40
0.1562608672127009
 40
0.2267227674849005
 40
0.3059893555533331
 40
0.3985747306771407
 40
0.5104191907761346
 40
0.6478782966083095
 40
1.0
 40
1.0
 40
1.0
 40
1.0
 10
-49.35636566178346
 20
-30.88911865008001
 30
0.0
 10
-49.32149954154848
 20
-30.87830844096587
 30
0.0
 10
-49.26091029779212
 20
-30.86312601810952
 30
0.0
 10
-49.17184292863421
 20
-30.84662040621676
 30
0.0
 10
-49.0866324281424
 20
-30.83678054540739
 30
0.0
 10
-48.98978643874855
 20
-30.83361678952866
 30
0.0
 10
-48.8765307841689
 20
-30.84176561464839
 30
0.0
 10
-48.74238429974665
 20
-30.86979511976455
 30
0.0
 10
-48.51783406017491
 20
-30.95922162590828
 30
0.0
 10
-48.36688688648313
 20
-31.09423135506311
 30
0.0
 10
-48.29062785263232
 20
-31.21322254427714
 30
0.0
  0
ARC
  5
9B
330
1F
100
AcDbEntity
  8
0
  6
Continuous
 62
     7
370
    25
100
AcDbCircle
 10
0.0
 20
0.0
 30
0.0
 40
57.49999999999999
100
AcDbArc
 50
212.8770881273
 51
213.1229118727
  0
SPLINE
  5
9C
330
1F
100
AcDbEntity
  8
0
  6
Continuous
 62
     7
370
    25
100
AcDbSpline
210
0.0
220
0.0
230
1.0
 70
     8
 71
     3
 72
    15
 73
    11
 74
     0
 42
0.00000001
 43
0.00000001
 40
0.0
 40
0.0
 40
0.0
 40
0.0
 40
0.3521217033916905
 40
0.4895808092238654
 40
0.6014252693228592
 40
0.6940106444466669
 40
0.7732772325150995
 40
0.8437391327872991
 40
0.9086057707732499
 40
1.0
 40
1.0
 40
1.0
 40
1.0
 10
-48.15626553851498
 20
-31.42012236424349
 30
0.0
 10
-48.07857902154169
 20
-31.53818653507862
 30
0.0
 10
-48.01663724344391
 20
-31.73099704396774
 30
0.0
 10
-48.02627487560875
 20
-31.97250693225196
 30
0.0
 10
-48.05523093928423
 20
-32.10645647057265
 30
0.0
 10
-48.09385184186405
 20
-32.21323508514045
 30
0.0
 10
-48.13613288929759
 20
-32.30042148339649
 30
0.0
 10
-48.17978028236866
 20
-32.37426291711028
 30
0.0
 10
-48.2310858718778
 20
-32.44891657045551
 30
0.0
 10
-48.26959957092617
 20
-32.49809235116476
 30
0.0
 10
-48.29365651706001
 20
-32.52554722876501
 30
0.0
  0
LINE
  5
9D
330
1F
100
AcDbEntity
  8
0
  6
Continuous
 62
     7
370
    25
100
AcDbLine
 10
-48.2936565171
 20
-32.5255472288
 30
0.0
 11
-48.3167735011
 21
-32.5528720393
 31
0.0
  0
SPLINE
  5
9E
330
1F
100
AcDbEntity
  8
0
  6
Continuous
 62
     7
370
    25
100
AcDbSpline
210
0.0
220
0.0
230
1.0
 70
     8
 71
     3
 72
    14
 73
    10
 74
     0
 42
0.00000001
 43
0.00000001
 40
0.0
 40
0.0
 40
0.0
 40
0.0
 40
0.1463524895720285
 40
0.2295876425155019
 40
0.3195287342547698
 40
0.4161757648032168
 40
0.5195287341716108
 40
0.6295876423687684
 40
0.6881776950847737
 40
0.6881776950847737
 40
0.6881776950847737
 40
0.6881776950847737
 10
-48.31677350109541
 20
-32.55287203933376
 30
0.0
 10
-48.50390964175153
 20
-32.76486893772782
 30
0.0
 10
-48.78798382539694
 20
-33.10574161924908
 30
0.0
 10
-49.16513480711403
 20
-33.59457469039598
 30
0.0
 10
-49.47268375764298
 20
-34.01557603507879
 30
0.0
 10
-49.79118889816695
 20
-34.47647540423191
 30
0.0
 10
-50.11875107622201
 20
-34.97811764272827
 30
0.0
 10
-50.39446730689944
 20
-35.42557269074941
 30
0.0
 10
-50.55996429610739
 20
-35.70627126000937
 30
0.0
 10
-50.6168146827339
 20
-35.80416276600057
 30
0.0
  0
ARC
  5
9F
330
1F
100
AcDbEntity
  8
0
  6
Continuous
 62
     7
370
    25
100
AcDbCircle
 10
0.0
 20
0.0
 30
0.0
 40
62.00000000000001
100
AcDbArc
 50
215.2739496673
 51
216.7260503327
  0
SPLINE
  5
A0
330
1F
100
AcDbEntity
  8
0
  6
Continuous
 62
     7
370
    25
100
AcDbSpline
210
0.0
220
0.0
230
1.0
 70
     8
 71
     3
 72
    14
 73
    10
 74
     0
 42
0.00000001
 43
0.00000001
 40
0.3118223049152253
 40
0.3118223049152253
 40
0.3118223049152253
 40
0.3118223049152253
 40
0.3704123576312316
 40
0.4804712658283892
 40
0.5838242351967832
 40
0.6804712657452302
 40
0.7704123574844981
 40
0.8536475104279715
 40
1.0
 40
1.0
 40
1.0
 40
1.0
 10
-49.69323824718994
 20
-37.07535667405652
 30
0.0
 10
-49.58257015692267
 20
-37.05153888235772
 30
0.0
 10
-49.26446857133011
 20
-36.98088252054233
 30
0.0
 10
-48.75371253125612
 20
-36.85693201676564
 30
0.0
 10
-48.17540013175179
 20
-36.70041784962621
 30
0.0
 10
-47.6386352821447
 20
-36.5399271980224
 30
0.0
 10
-47.14320135759944
 20
-36.37752733470381
 30
0.0
 10
-46.56174741710887
 20
-36.16989316231155
 30
0.0
 10
-46.14977448171141
 20
-36.00505801035258
 30
0.0
 10
-45.89032520233491
 20
-35.89259160870581
 30
0.0
  0
LINE
  5
A1
330
1F
100
AcDbEntity
  8
0
  6
Continuous
 62
     7
370
    25
100
AcDbLine
 10
-45.8903252023
 20
-35.8925916087
 30
0.0
 11
-45.8571942223
 21
-35.8790498812
 31
0.0
  0
SPLINE
  5
A2
330
1F
100
AcDbEntity
  8
0
  6
Continuous
 62
     7
370
    25
100
AcDbSpline
210
0.0
220
0.0
230
1.0
 70
     8
 71
     3
 72
    15
 73
    11
 74
     0
 42
0.00000001
 43
0.00000001
 40
0.0
 40
0.0
 40
0.0
 40
0.0
 40
0.0913942292267501
 40
0.1562608672127009
 40
0.2267227674849005
 40
0.3059893555533331
 40
0.3985747306771407
 40
0.5104191907761346
 40
0.6478782966083095
 40
1.0
 40
1.0
 40
1.0
 40
1.0
 10
-45.85719422226134
 20
-35.87904988123569
 30
0.0
 10
-45.82364907682742
 20
-35.8646543896099
 30
0.0
 10
-45.76497874261778
 20
-35.84322183711411
 30
0.0
 10
-45.67812460007382
 20
-35.81749656946495
 30
0.0
 10
-45.59440943714861
 20
-35.79880368977197
 30
0.0
 10
-45.49842468275796
 20
-35.78553410283399
 30
0.0
 10
-45.38493767033704
 20
-35.78179984830751
 30
0.0
 10
-45.24859617329648
 20
-35.79565367899246
 30
0.0
 10
-45.01592842816959
 20
-35.86111840590986
 30
0.0
 10
-44.85169579937443
 20
-35.97961026154149
 30
0.0
 10
-44.76341655433924
 20
-36.08997836495205
 30
0.0
  0
ARC
  5
A3
330
1F
100
AcDbEntity
  8
0
  6
Continuous
 62
     7
370
    25
100
AcDbCircle
 10
0.0
 20
0.0
 30
0.0
 40
57.5
100
AcDbArc
 50
218.8770881273
 51
219.1229118727
  0
SPLINE
  5
A4
330
1F
100
AcDbEntity
  8
0
  6
Continuous
 62
     7
370
    25
100
AcDbSpline
210
0.0
220
0.0
230
1.0
 70
     8
 71
     3
 72
    15
 73
    11
 74
     0
 42
0.00000001
 43
0.00000001
 40
0.0
 40
0.0
 40
0.0
 40
0.0
 40
0.3521217033916905
 40
0.4895808092238654
 40
0.6014252693228592
 40
0.6940106444466669
 40
0.7732772325150995
 40
0.8437391327872991
 40
0.9086057707732499
 40
1.0
 40
1.0
 40
1.0
 40
1.0
 10
-44.60816337080577
 20
-36.28170007984055
 30
0.0
 10
-44.51856136235657
 20
-36.39099703055876
 30
0.0
 10
-44.43680472160425
 20
-36.57627662442945
 30
0.0
 10
-44.42114490032539
 20
-36.81747090315579
 30
0.0
 10
-44.43594080025827
 20
-36.95371338472847
 30
0.0
 10
-44.46318872900217
 20
-37.06394403846991
 30
0.0
 10
-44.49612469620638
 20
-37.15507239342742
 30
0.0
 10
-44.53181445269971
 20
-37.23307171096452
 30
0.0
 10
-44.57503555315984
 20
-37.31267929821402
 30
0.0
 10
-44.60819800134755
 20
-37.36561146662747
 30
0.0
 10
-44.62925334484859
 20
-37.39543057914587
 30
0.0
  0
LINE
  5
A5
330
1F
100
AcDbEntity
  8
0
  6
Continuous
 62
     7
370
    25
100
AcDbLine
 10
-44.6292533448
 20
-37.3954305791
 30
0.0
 11
-44.6493874712
 21
-37.4250220844
 31
0.0
  0
SPLINE
  5
A6
330
1F
100
AcDbEntity
  8
0
  6
Continuous
 62
     7
370
    25
100
AcDbSpline
210
0.0
220
0.0
230
1.0
 70
     8
 71
     3
 72
    14
 73
    10
 74
     0
 42
0.00000001
 43
0.00000001
 40
0.0
 40
0.0
 40
0.0
 40
0.0
 40
0.1463524895720285
 40
0.2295876425155019
 40
0.3195287342547698
 40
0.4161757648032168
 40
0.5195287341716108
 40
0.6295876423687684
 40
0.6881776950847716
 40
0.6881776950847716
 40
0.6881776950847716
 40
0.6881776950847716
 10
-44.64938747116884
 20
-37.42502208435987
 30
0.0
 10
-44.81333875045943
 20
-37.65541869476755
 30
0.0
 10
-45.06022584843432
 20
-38.02411787794382
 30
0.0
 10
-45.38421378789022
 20
-38.54969608291829
 30
0.0
 10
-45.64607132949547
 20
-39.00053875736321
 30
0.0
 10
-45.91465456275531
 20
-39.49220612442922
 30
0.0
 10
-46.18798642862542
 20
-40.02533988535212
 30
0.0
 10
-46.41542046839152
 20
-40.49916392169285
 30
0.0
 10
-46.55066985769018
 20
-40.79562394077776
 30
0.0
 10
-46.59697636326217
 20
-40.89892167040684
 30
0.0
  0
ARC
  5
A7
330
1F
100
AcDbEntity
  8
0
  6
Continuous
 62
     7
370
    25
100
AcDbCircle
 10
0.0
 20
0.0
 30
0.0
 40
62.00000000000001
100
AcDbArc
 50
221.2739496673
 51
222.7260503327
  0
SPLINE
  5
A8
330
1F
100
AcDbEntity
  8
0
  6
Continuous
 62
     7
370
    25
100
AcDbSpline
210
0.0
220
0.0
230
1.0
 70
     8
 71
     3
 72
    14
 73
    10
 74
     0
 42
0.00000001
 43
0.00000001
 40
0.3118223049152281
 40
0.3118223049152281
 40
0.3118223049152281
 40
0.3118223049152281
 40
0.3704123576312316
 40
0.4804712658283892
 40
0.5838242351967832
 40
0.6804712657452302
 40
0.7704123574844981
 40
0.8536475104279715
 40
1.0
 40
1.0
 40
1.0
 40
1.0
 10
-45.54558343034323
 20
-42.06661181970961
 30
0.0
 10
-45.43801122861854
 20
-42.03135653895743
 30
0.0
 10
-45.12903783771603
 20
-41.92783657017997
 30
0.0
 10
-44.63403612835189
 20
-41.75117653625851
 30
0.0
 10
-44.07525197005255
 20
-41.5350696636942
 30
0.0
 10
-43.55820341563523
 20
-41.31935099180676
 30
0.0
 10
-43.08245893811431
 20
-41.10605382514824
 30
0.0
 10
-42.52589394411028
 20
-40.83877860761708
 30
0.0
 10
-42.13340780468513
 20
-40.63178354202256
 30
0.0
 10
-41.88713575574106
 20
-40.49281340862243
 30
0.0
  0
LINE
  5
A9
330
1F
100
AcDbEntity
  8
0
  6
Continuous
 62
     7
370
    25
100
AcDbLine
 10
-41.8871357557
 20
-40.4928134086
 30
0.0
 11
-41.8556017666
 21
-40.4758827337
 31
0.0
  0
SPLINE
  5
AA
330
1F
100
AcDbEntity
  8
0
  6
Continuous
 62
     7
370
    25
100
AcDbSpline
210
0.0
220
0.0
230
1.0
 70
     8
 71
     3
 72
    15
 73
    11
 74
     0
 42
0.00000001
 43
0.00000001
 40
0.0
 40
0.0
 40
0.0
 40
0.0
 40
0.0913942292267501
 40
0.1562608672127009
 40
0.2267227674849005
 40
0.3059893555533331
 40
0.3985747306771407
 40
0.5104191907761346
 40
0.6478782966083095
 40
1.0
 40
1.0
 40
1.0
 40
1.0
 10
-41.85560176660533
 20
-40.47588273371864
 30
0.0
 10
-41.8237451236056
 20
-40.45805967959991
 30
0.0
 10
-41.76763650340182
 20
-40.43061181699488
 30
0.0
 10
-41.68394717963295
 20
-40.39594874500504
 30
0.0
 10
-41.60264455511785
 20
-40.36860764953011
 30
0.0
 10
-41.50857266478564
 20
-40.34537761590423
 30
0.0
 10
-41.39609768198019
 20
-40.32980119500557
 30
0.0
 10
-41.25905495829421
 20
-40.3293275657912
 30
0.0
 10
-41.02081886411664
 20
-40.3701132682348
 30
0.0
 10
-40.84510014726705
 20
-40.47078902877691
 30
0.0
 10
-40.7457678969297
 20
-40.57132483034702
 30
0.0
  0
ARC
  5
AB
330
1F
100
AcDbEntity
  8
0
  6
Continuous
 62
     7
370
    25
100
AcDbCircle
 10
0.0
 20
0.0
 30
0.0
 40
57.49999999999999
100
AcDbArc
 50
224.8770881273
 51
225.1229118727
  0
SPLINE
  5
AC
330
1F
100
AcDbEntity
  8
0
  6
Continuous
 62
     7
370
    25
100
AcDbSpline
210
0.0
220
0.0
230
1.0
 70
     8
 71
     3
 72
    15
 73
    11
 74
     0
 42
0.00000001
 43
0.00000001
 40
0.0
 40
0.0
 40
0.0
 40
0.0
 40
0.3521217033916905
 40
0.4895808092238654
 40
0.6014252693228592
 40
0.6940106444466669
 40
0.7732772325150995
 40
0.8437391327872991
 40
0.9086057707732499
 40
1.0
 40
1.0
 40
1.0
 40
1.0
 10
-40.5713248303477
 20
-40.74576789692902
 30
0.0
 10
-40.47078902877758
 20
-40.84510014726637
 30
0.0
 10
-40.37011326823549
 20
-41.02081886411596
 30
0.0
 10
-40.32932756579189
 20
-41.25905495829353
 30
0.0
 10
-40.32980119500626
 20
-41.39609768197951
 30
0.0
 10
-40.34537761590492
 20
-41.50857266478496
 30
0.0
 10
-40.36860764953081
 20
-41.60264455511718
 30
0.0
 10
-40.39594874500572
 20
-41.68394717963226
 30
0.0
 10
-40.43061181699559
 20
-41.76763650340116
 30
0.0
 10
-40.45805967960059
 20
-41.82374512360492
 30
0.0
 10
-40.47588273371933
 20
-41.85560176660465
 30
0.0
  0
LINE
  5
AD
330
1F
100
AcDbEntity
  8
0
  6
Continuous
 62
     7
370
    25
100
AcDbLine
 10
-40.4758827337
 20
-41.8556017666
 30
0.0
 11
-40.4928134086
 21
-41.8871357557
 31
0.0
  0
SPLINE
  5
AE
330
1F
100
AcDbEntity
  8
0
  6
Continuous
 62
     7
370
    25
100
AcDbSpline
210
0.0
220
0.0
230
1.0
 70
     8
 71
     3
 72
    14
 73
    10
 74
     0
 42
0.00000001
 43
0.00000001
 40
0.0
 40
0.0
 40
0.0
 40
0.0
 40
0.1463524895720285
 40
0.2295876425155019
 40
0.3195287342547698
 40
0.4161757648032168
 40
0.5195287341716108
 40
0.6295876423687684
 40
0.6881776950847714
 40
0.6881776950847714
 40
0.6881776950847714
 40
0.6881776950847714
 10
-40.49281340862314
 20
-41.88713575574038
 30
0.0
 10
-40.63178354202326
 20
-42.13340780468445
 30
0.0
 10
-40.83877860761778
 20
-42.52589394410958
 30
0.0
 10
-41.10605382514896
 20
-43.08245893811362
 30
0.0
 10
-41.31935099180749
 20
-43.55820341563452
 30
0.0
 10
-41.53506966369494
 20
-44.07525197005185
 30
0.0
 10
-41.75117653625925
 20
-44.63403612835118
 30
0.0
 10
-41.92783657018072
 20
-45.12903783771532
 30
0.0
 10
-42.03135653895819
 20
-45.43801122861783
 30
0.0
 10
-42.06661181971036
 20
-45.54558343034251
 30
0.0
  0
ARC
  5
AF
330
1F
100
AcDbEntity
  8
0
  6
Continuous
 62
     7
370
    25
100
AcDbCircle
 10
0.0
 20
0.0
 30
0.0
 40
62.00000000000001
100
AcDbArc
 50
227.2739496673
 51
228.7260503327
  0
SPLINE
  5
B0
330
1F
100
AcDbEntity
  8
0
  6
Continuous
 62
     7
370
    25
100
AcDbSpline
210
0.0
220
0.0
230
1.0
 70
     8
 71
     3
 72
    14
 73
    10
 74
     0
 42
0.00000001
 43
0.00000001
 40
0.3118223049152261
 40
0.3118223049152261
 40
0.3118223049152261
 40
0.3118223049152261
 40
0.3704123576312316
 40
0.4804712658283892
 40
0.5838242351967832
 40
0.6804712657452302
 40
0.7704123574844981
 40
0.8536475104279715
 40
1.0
 40
1.0
 40
1.0
 40
1.0
 10
-40.89892167040762
 20
-46.5969763632615
 30
0.0
 10
-40.79562394077854
 20
-46.5506698576895
 30
0.0
 10
-40.49916392169363
 20
-46.41542046839084
 30
0.0
 10
-40.02533988535289
 20
-46.18798642862475
 30
0.0
 10
-39.49220612442999
 20
-45.91465456275465
 30
0.0
 10
-39.00053875736397
 20
-45.64607132949482
 30
0.0
 10
-38.54969608291905
 20
-45.38421378788956
 30
0.0
 10
-38.02411787794459
 20
-45.0602258484337
 30
0.0
 10
-37.65541869476829
 20
-44.81333875045879
 30
0.0
 10
-37.42502208436063
 20
-44.64938747116821
 30
0.0
  0
LINE
  5
B1
330
1F
100
AcDbEntity
  8
0
  6
Continuous
 62
     7
370
    25
100
AcDbLine
 10
-37.4250220844
 20
-44.6493874712
 30
0.0
 11
-37.3954305791
 21
-44.6292533448
 31
0.0
  0
SPLINE
  5
B2
330
1F
100
AcDbEntity
  8
0
  6
Continuous
 62
     7
370
    25
100
AcDbSpline
210
0.0
220
0.0
230
1.0
 70
     8
 71
     3
 72
    15
 73
    11
 74
     0
 42
0.00000001
 43
0.00000001
 40
0.0
 40
0.0
 40
0.0
 40
0.0
 40
0.0913942292267501
 40
0.1562608672127009
 40
0.2267227674849005
 40
0.3059893555533331
 40
0.3985747306771407
 40
0.5104191907761346
 40
0.6478782966083095
 40
1.0
 40
1.0
 40
1.0
 40
1.0
 10
-37.39543057914661
 20
-44.62925334484797
 30
0.0
 10
-37.36561146662823
 20
-44.60819800134693
 30
0.0
 10
-37.31267929821475
 20
-44.5750355531592
 30
0.0
 10
-37.23307171096527
 20
-44.53181445269909
 30
0.0
 10
-37.15507239342815
 20
-44.49612469620575
 30
0.0
 10
-37.06394403847065
 20
-44.46318872900154
 30
0.0
 10
-36.95371338472921
 20
-44.43594080025765
 30
0.0
 10
-36.81747090315653
 20
-44.42114490032477
 30
0.0
 10
-36.5762766244302
 20
-44.43680472160364
 30
0.0
 10
-36.3909970305595
 20
-44.51856136235596
 30
0.0
 10
-36.2817000798413
 20
-44.60816337080517
 30
0.0
  0
ARC
  5
B3
330
1F
100
AcDbEntity
  8
0
  6
Continuous
 62
     7
370
    25
100
AcDbCircle
 10
0.0
 20
0.0
 30
0.0
 40
57.5
100
AcDbArc
 50
230.8770881273
 51
231.1229118727
  0
SPLINE
  5
B4
330
1F
100
AcDbEntity
  8
0
  6
Continuous
 62
     7
370
    25
100
AcDbSpline
210
0.0
220
0.0
230
1.0
 70
     8
 71
     3
 72
    15
 73
    11
 74
     0
 42
0.00000001
 43
0.00000001
 40
0.0
 40
0.0
 40
0.0
 40
0.0
 40
0.3521217033916905
 40
0.4895808092238654
 40
0.6014252693228592
 40
0.6940106444466669
 40
0.7732772325150995
 40
0.8437391327872991
 40
0.9086057707732499
 40
1.0
 40
1.0
 40
1.0
 40
1.0
 10
-36.0899783649528
 20
-44.76341655433864
 30
0.0
 10
-35.97961026154223
 20
-44.85169579937383
 30
0.0
 10
-35.86111840591062
 20
-45.01592842816899
 30
0.0
 10
-35.79565367899321
 20
-45.24859617329589
 30
0.0
 10
-35.78179984830827
 20
-45.38493767033643
 30
0.0
 10
-35.78553410283475
 20
-45.49842468275737
 30
0.0
 10
-35.79880368977275
 20
-45.59440943714802
 30
0.0
 10
-35.8174965694657
 20
-45.67812460007321
 30
0.0
 10
-35.8432218371149
 20
-45.7649787426172
 30
0.0
 10
-35.86465438961066
 20
-45.82364907682681
 30
0.0
 10
-35.87904988123645
 20
-45.85719422226074
 30
0.0
  0
LINE
  5
B5
330
1F
100
AcDbEntity
  8
0
  6
Continuous
 62
     7
370
    25
100
AcDbLine
 10
-35.8790498812
 20
-45.8571942223
 30
0.0
 11
-35.8925916087
 21
-45.8903252023
 31
0.0
  0
SPLINE
  5
B6
330
1F
100
AcDbEntity
  8
0
  6
Continuous
 62
     7
370
    25
100
AcDbSpline
210
0.0
220
0.0
230
1.0
 70
     8
 71
     3
 72
    14
 73
    10
 74
     0
 42
0.00000001
 43
0.00000001
 40
0.0
 40
0.0
 40
0.0
 40
0.0
 40
0.1463524895720285
 40
0.2295876425155019
 40
0.3195287342547698
 40
0.4161757648032168
 40
0.5195287341716108
 40
0.6295876423687684
 40
0.6881776950847717
 40
0.6881776950847717
 40
0.6881776950847717
 40
0.6881776950847717
 10
-35.89259160870658
 20
-45.89032520233431
 30
0.0
 10
-36.00505801035337
 20
-46.14977448171081
 30
0.0
 10
-36.16989316231233
 20
-46.56174741710824
 30
0.0
 10
-36.3775273347046
 20
-47.14320135759884
 30
0.0
 10
-36.53992719802319
 20
-47.63863528214409
 30
0.0
 10
-36.70041784962702
 20
-48.17540013175116
 30
0.0
 10
-36.85693201676644
 20
-48.7537125312555
 30
0.0
 10
-36.98088252054315
 20
-49.26446857132948
 30
0.0
 10
-37.05153888235855
 20
-49.58257015692203
 30
0.0
 10
-37.07535667405735
 20
-49.69323824718929
 30
0.0
  0
ARC
  5
B7
330
1F
100
AcDbEntity
  8
0
  6
Continuous
 62
     7
370
    25
100
AcDbCircle
 10
0.0
 20
0.0
 30
0.0
 40
62.00000000000001
100
AcDbArc
 50
233.2739496673
 51
234.7260503327
  0
SPLINE
  5
B8
330
1F
100
AcDbEntity
  8
0
  6
Continuous
 62
     7
370
    25
100
AcDbSpline
210
0.0
220
0.0
230
1.0
 70
     8
 71
     3
 72
    14
 73
    10
 74
     0
 42
0.00000001
 43
0.00000001
 40
0.3118223049152252
 40
0.3118223049152252
 40
0.3118223049152252
 40
0.3118223049152252
 40
0.3704123576312316
 40
0.4804712658283892
 40
0.5838242351967832
 40
0.6804712657452302
 40
0.7704123574844981
 40
0.8536475104279715
 40
1.0
 40
1.0
 40
1.0
 40
1.0
 10
-35.80416276600142
 20
-50.61681468273331
 30
0.0
 10
-35.70627126001021
 20
-50.5599642961068
 30
0.0
 10
-35.42557269075025
 20
-50.39446730689884
 30
0.0
 10
-34.97811764272912
 20
-50.11875107622143
 30
0.0
 10
-34.47647540423274
 20
-49.79118889816637
 30
0.0
 10
-34.01557603507963
 20
-49.47268375764241
 30
0.0
 10
-33.5945746903968
 20
-49.16513480711347
 30
0.0
 10
-33.10574161924991
 20
-48.7879838253964
 30
0.0
 10
-32.76486893772862
 20
-48.50390964175097
 30
0.0
 10
-32.55287203933457
 20
-48.31677350109486
 30
0.0
  0
LINE
  5
B9
330
1F
100
AcDbEntity
  8
0
  6
Continuous
 62
     7
370
    25
100
AcDbLine
 10
-32.5528720393
 20
-48.3167735011
 30
0.0
 11
-32.5255472288
 21
-48.2936565171
 31
0.0
  0
SPLINE
  5
BA
330
1F
100
AcDbEntity
  8
0
  6
Continuous
 62
     7
370
    25
100
AcDbSpline
210
0.0
220
0.0
230
1.0
 70
     8
 71
     3
 72
    15
 73
    11
 74
     0
 42
0.00000001
 43
0.00000001
 40
0.0
 40
0.0
 40
0.0
 40
0.0
 40
0.0913942292267501
 40
0.1562608672127009
 40
0.2267227674849005
 40
0.3059893555533331
 40
0.3985747306771407
 40
0.5104191907761346
 40
0.6478782966083095
 40
1.0
 40
1.0
 40
1.0
 40
1.0
 10
-32.52554722876582
 20
-48.29365651705947
 30
0.0
 10
-32.49809235116557
 20
-48.26959957092564
 30
0.0
 10
-32.44891657045631
 20
-48.23108587187723
 30
0.0
 10
-32.3742629171111
 20
-48.17978028236813
 30
0.0
 10
-32.30042148339729
 20
-48.13613288929704
 30
0.0
 10
-32.21323508514126
 20
-48.09385184186352
 30
0.0
 10
-32.10645647057346
 20
-48.0552309392837
 30
0.0
 10
-31.97250693225277
 20
-48.02627487560821
 30
0.0
 10
-31.73099704396855
 20
-48.01663724344338
 30
0.0
 10
-31.53818653507943
 20
-48.07857902154116
 30
0.0
 10
-31.4201223642443
 20
-48.15626553851445
 30
0.0
  0
ARC
  5
BB
330
1F
100
AcDbEntity
  8
0
  6
Continuous
 62
     7
370
    25
100
AcDbCircle
 10
0.0
 20
0.0
 30
0.0
 40
57.5
100
AcDbArc
 50
236.8770881273
 51
237.1229118727
  0
SPLINE
  5
BC
330
1F
100
AcDbEntity
  8
0
  6
Continuous
 62
     7
370
    25
100
AcDbSpline
210
0.0
220
0.0
230
1.0
 70
     8
 71
     3
 72
    15
 73
    11
 74
     0
 42
0.00000001
 43
0.00000001
 40
0.0
 40
0.0
 40
0.0
 40
0.0
 40
0.3521217033916905
 40
0.4895808092238654
 40
0.6014252693228592
 40
0.6940106444466669
 40
0.7732772325150995
 40
0.8437391327872991
 40
0.9086057707732499
 40
1.0
 40
1.0
 40
1.0
 40
1.0
 10
-31.21322254427798
 20
-48.29062785263179
 30
0.0
 10
-31.09423135506395
 20
-48.3668868864826
 30
0.0
 10
-30.95922162590912
 20
-48.51783406017437
 30
0.0
 10
-30.8697951197654
 20
-48.74238429974611
 30
0.0
 10
-30.84176561464923
 20
-48.87653078416837
 30
0.0
 10
-30.8336167895295
 20
-48.98978643874802
 30
0.0
 10
-30.83678054540825
 20
-49.0866324281419
 30
0.0
 10
-30.84662040621761
 20
-49.17184292863368
 30
0.0
 10
-30.86312601811038
 20
-49.26091029779161
 30
0.0
 10
-30.87830844096672
 20
-49.32149954154794
 30
0.0
 10
-30.88911865008086
 20
-49.35636566178292
 30
0.0
  0
LINE
  5
BD
330
1F
100
AcDbEntity
  8
0
  6
Continuous
 62
     7
370
    25
100
AcDbLine
 10
-30.8891186501
 20
-49.3563656618
 30
0.0
 11
-30.8991230641
 21
-49.3907306428
 31
0.0
  0
SPLINE
  5
BE
330
1F
100
AcDbEntity
  8
0
  6
Continuous
 62
     7
370
    25
100
AcDbSpline
210
0.0
220
0.0
230
1.0
 70
     8
 71
     3
 72
    14
 73
    10
 74
     0
 42
0.00000001
 43
0.00000001
 40
0.0
 40
0.0
 40
0.0
 40
0.0
 40
0.1463524895720285
 40
0.2295876425155019
 40
0.3195287342547698
 40
0.4161757648032168
 40
0.5195287341716108
 40
0.6295876423687684
 40
0.6881776950847718
 40
0.6881776950847718
 40
0.6881776950847718
 40
0.6881776950847718
 10
-30.89912306411738
 20
-49.39073064284354
 30
0.0
 10
-30.98385352857926
 20
-49.66051457205437
 30
0.0
 10
-31.10472279848385
 20
-50.08746064173302
 30
0.0
 10
-31.25044104229423
 20
-50.68743299766109
 30
0.0
 10
-31.360164315386
 20
-51.19712829147713
 30
0.0
 10
-31.46366857754241
 20
-51.74772852825641
 30
0.0
 10
-31.55887523728908
 20
-52.33923305729714
 30
0.0
 10
-31.62875818326334
 20
-52.86014747802334
 30
0.0
 10
-31.66577681223082
 20
-53.18389207076715
 30
0.0
 10
-31.6778961621662
 20
-53.29644354682124
 30
0.0
  0
ARC
  5
BF
330
1F
100
AcDbEntity
  8
0
  6
Continuous
 62
     7
370
    25
100
AcDbCircle
 10
0.0
 20
0.0
 30
0.0
 40
62.0
100
AcDbArc
 50
239.2739496673
 51
240.7260503327
  0
SPLINE
  5
C0
330
1F
100
AcDbEntity
  8
0
  6
Continuous
 62
     7
370
    25
100
AcDbSpline
210
0.0
220
0.0
230
1.0
 70
     8
 71
     3
 72
    14
 73
    10
 74
     0
 42
0.00000001
 43
0.00000001
 40
0.3118223049152283
 40
0.3118223049152283
 40
0.3118223049152283
 40
0.3118223049152283
 40
0.3704123576312316
 40
0.4804712658283892
 40
0.5838242351967832
 40
0.6804712657452302
 40
0.7704123574844981
 40
0.8536475104279715
 40
1.0
 40
1.0
 40
1.0
 40
1.0
 10
-30.31712596182817
 20
-54.08208458829163
 30
0.0
 10
-30.22571319929958
 20
-54.0153131853432
 30
0.0
 10
-29.96385147212933
 20
-53.82138181587221
 30
0.0
 10
-29.54766782356992
 20
-53.50040419900411
 30
0.0
 10
-29.08301320484042
 20
-53.12220054853366
 30
0.0
 10
-28.65793154353804
 20
-52.75726310971663
 30
0.0
 10
-28.27138410744986
 20
-52.40739232092474
 30
0.0
 10
-27.82465192755294
 20
-51.98121044202609
 30
0.0
 10
-27.51534042011759
 20
-51.66306154891249
 30
0.0
 10
-27.32406591611916
 20
-51.45479084960864
 30
0.0
  0
LINE
  5
C1
330
1F
100
AcDbEntity
  8
0
  6
Continuous
 62
     7
370
    25
100
AcDbLine
 10
-27.3240659161
 20
-51.4547908496
 30
0.0
 11
-27.2993071765
 21
-51.4289442824
 31
0.0
  0
SPLINE
  5
C2
330
1F
100
AcDbEntity
  8
0
  6
Continuous
 62
     7
370
    25
100
AcDbSpline
210
0.0
220
0.0
230
1.0
 70
     8
 71
     3
 72
    15
 73
    11
 74
     0
 42
0.00000001
 43
0.00000001
 40
0.0
 40
0.0
 40
0.0
 40
0.0
 40
0.0913942292267501
 40
0.1562608672127009
 40
0.2267227674849005
 40
0.3059893555533331
 40
0.3985747306771407
 40
0.5104191907761346
 40
0.6478782966083095
 40
1.0
 40
1.0
 40
1.0
 40
1.0
 10
-27.29930717653835
 20
-51.42894428237273
 30
0.0
 10
-27.27451733524053
 20
-51.40214930654219
 30
0.0
 10
-27.22963672237962
 20
-51.3587063207794
 30
0.0
 10
-27.160754923987
 20
-51.29987835699632
 30
0.0
 10
-27.0918803962966
 20
-51.2487515373198
 30
0.0
 10
-27.00959118716624
 20
-51.1975886496605
 30
0.0
 10
-26.90743450061816
 20
-51.14801791193537
 30
0.0
 10
-26.77724548472204
 20
-51.10521893321035
 30
0.0
 10
-26.53806601975517
 20
-51.07038943951662
 30
0.0
 10
-26.33983706813121
 20
-51.11183770787688
 30
0.0
 10
-26.21429921294134
 20
-51.17675758363735
 30
0.0
  0
ARC
  5
C3
330
1F
100
AcDbEntity
  8
0
  6
Continuous
 62
     7
370
    25
100
AcDbCircle
 10
0.0
 20
0.0
 30
0.0
 40
57.5
100
AcDbArc
 50
242.8770881273
 51
243.1229118727
  0
SPLINE
  5
C4
330
1F
100
AcDbEntity
  8
0
  6
Continuous
 62
     7
370
    25
100
AcDbSpline
210
0.0
220
0.0
230
1.0
 70
     8
 71
     3
 72
    15
 73
    11
 74
     0
 42
0.00000001
 43
0.00000001
 40
0.0
 40
0.0
 40
0.0
 40
0.0
 40
0.3521217033916905
 40
0.4895808092238654
 40
0.6014252693228592
 40
0.6940106444466669
 40
0.7732772325150995
 40
0.8437391327872991
 40
0.9086057707732499
 40
1.0
 40
1.0
 40
1.0
 40
1.0
 10
-25.99448812562127
 20
-51.28875692670797
 30
0.0
 10
-25.86817754297331
 20
-51.35216023944129
 30
0.0
 10
-25.71812913514049
 20
-51.48816814920698
 30
0.0
 10
-25.60572062528546
 20
-51.70214066380868
 30
0.0
 10
-25.56382254286169
 20
-51.83262239865734
 30
0.0
 10
-25.543879918329
 20
-51.94440584274387
 30
0.0
 10
-25.53690318037703
 20
-52.04105200221483
 30
0.0
 10
-25.53778221472865
 20
-52.12682425619837
 30
0.0
 10
-25.54488733192709
 20
-52.21712901123524
 30
0.0
 10
-25.55365328334206
 20
-52.27897333610456
 30
0.0
 10
-25.56075977103131
 20
-52.31477843063109
 30
0.0
  0
LINE
  5
C5
330
1F
100
AcDbEntity
  8
0
  6
Continuous
 62
     7
370
    25
100
AcDbLine
 10
-25.560759771
 20
-52.3147784306
 30
0.0
 11
-25.5671172612
 21
-52.3500009028
 31
0.0
  0
SPLINE
  5
C6
330
1F
100
AcDbEntity
  8
0
  6
Continuous
 62
     7
370
    25
100
AcDbSpline
210
0.0
220
0.0
230
1.0
 70
     8
 71
     3
 72
    14
 73
    10
 74
     0
 42
0.00000001
 43
0.00000001
 40
0.0
 40
0.0
 40
0.0
 40
0.0
 40
0.1463524895720285
 40
0.2295876425155019
 40
0.3195287342547698
 40
0.4161757648032168
 40
0.5195287341716108
 40
0.6295876423687684
 40
0.6881776950847723
 40
0.6881776950847723
 40
0.6881776950847723
 40
0.6881776950847723
 10
-25.56711726118047
 20
-52.35000090275492
 30
0.0
 10
-25.62318346375782
 20
-52.62716367261574
 30
0.0
 10
-25.69876258259344
 20
-53.06440516609199
 30
0.0
 10
-25.78096837824923
 20
-53.67632251477371
 30
0.0
 10
-25.83681290997314
 20
-54.19469484956091
 30
0.0
 10
-25.88219676832627
 20
-54.75309798209771
 30
0.0
 10
-25.91505281659273
 20
-55.35131399327439
 30
0.0
 10
-25.9301025525845
 20
-55.87667954725099
 30
0.0
 10
-25.93307786485845
 20
-56.20252013364004
 30
0.0
 10
-25.93336599089637
 20
-56.31572185795639
 30
0.0
  0
ARC
  5
C7
330
1F
100
AcDbEntity
  8
0
  6
Continuous
 62
     7
370
    25
100
AcDbCircle
 10
0.0
 20
0.0
 30
0.0
 40
62.00000000000001
100
AcDbArc
 50
245.2739496673
 51
246.7260503327
  0
SPLINE
  5
C8
330
1F
100
AcDbEntity
  8
0
  6
Continuous
 62
     7
370
    25
100
AcDbSpline
210
0.0
220
0.0
230
1.0
 70
     8
 71
     3
 72
    14
 73
    10
 74
     0
 42
0.00000001
 43
0.00000001
 40
0.3118223049152277
 40
0.3118223049152277
 40
0.3118223049152277
 40
0.3118223049152277
 40
0.3704123576312316
 40
0.4804712658283892
 40
0.5838242351967832
 40
0.6804712657452302
 40
0.7704123574844981
 40
0.8536475104279715
 40
1.0
 40
1.0
 40
1.0
 40
1.0
 10
-24.49792838135063
 20
-56.95481985769688
 30
0.0
 10
-24.41399589964027
 20
-56.87885899989003
 30
0.0
 10
-24.17384002644071
 20
-56.65861800282264
 30
0.0
 10
-23.79348757248864
 20
-56.29589569770317
 30
0.0
 10
-23.37091142676406
 20
-55.87119425315608
 30
0.0
 10
-22.9863047569477
 20
-55.46382284699372
 30
0.0
 10
-22.63844632405419
 20
-55.07546347751608
 30
0.0
 10
-22.2387095266549
 20
-54.60492003928534
 30
0.0
 10
-21.96434807490855
 20
-54.25618214255348
 30
0.0
 10
-21.79589160879832
 20
-54.02905874196689
 30
0.0
  0
LINE
  5
C9
330
1F
100
AcDbEntity
  8
0
  6
Continuous
 62
     7
370
    25
100
AcDbLine
 10
-21.7958916088
 20
-54.029058742
 30
0.0
 11
-21.7739702021
 21
-54.0007657719
 31
0.0
  0
SPLINE
  5
CA
330
1F
100
AcDbEntity
  8
0
  6
Continuous
 62
     7
370
    25
100
AcDbSpline
210
0.0
220
0.0
230
1.0
 70
     8
 71
     3
 72
    15
 73
    11
 74
     0
 42
0.00000001
 43
0.00000001
 40
0.0
 40
0.0
 40
0.0
 40
0.0
 40
0.0913942292267501
 40
0.1562608672127009
 40
0.2267227674849005
 40
0.3059893555533331
 40
0.3985747306771407
 40
0.5104191907761346
 40
0.6478782966083095
 40
1.0
 40
1.0
 40
1.0
 40
1.0
 10
-21.7739702021374
 20
-54.00076577192984
 30
0.0
 10
-21.75211699983087
 20
-53.97152633776499
 30
0.0
 10
-21.71202327620469
 20
-53.92363003573087
 30
0.0
 10
-21.6496680161623
 20
-53.85792422915556
 30
0.0
 10
-21.58651499823359
 20
-53.79987813900896
 30
0.0
 10
-21.51002455602428
 20
-53.74039396242762
 30
0.0
 10
-21.41360904753139
 20
-53.68041649693303
 30
0.0
 10
-21.2886069321618
 20
-53.62424351772565
 30
0.0
 10
-21.05437839078197
 20
-53.56460376172448
 30
0.0
 10
-20.85290283429924
 20
-53.58510440444544
 30
0.0
 10
-20.72126671376658
 20
-53.6365463632489
 30
0.0
  0
ARC
  5
CB
330
1F
100
AcDbEntity
  8
0
  6
Continuous
 62
     7
370
    25
100
AcDbCircle
 10
0.0
 20
0.0
 30
0.0
 40
57.5
100
AcDbArc
 50
248.8770881273
 51
249.1229118727
  0
SPLINE
  5
CC
330
1F
100
AcDbEntity
  8
0
  6
Continuous
 62
     7
370
    25
100
AcDbSpline
210
0.0
220
0.0
230
1.0
 70
     8
 71
     3
 72
    15
 73
    11
 74
     0
 42
0.00000001
 43
0.00000001
 40
0.0
 40
0.0
 40
0.0
 40
0.0
 40
0.3521217033916905
 40
0.4895808092238654
 40
0.6014252693228592
 40
0.6940106444466669
 40
0.7732772325150995
 40
0.8437391327872991
 40
0.9086057707732499
 40
1.0
 40
1.0
 40
1.0
 40
1.0
 10
-20.49095265536394
 20
-53.72495564703272
 30
0.0
 10
-20.35870656445772
 20
-53.77480857868627
 30
0.0
 10
-20.19526343970278
 20
-53.89438709340499
 30
0.0
 10
-20.0611044972934
 20
-54.09543755539003
 30
0.0
 10
-20.00579688172079
 20
-54.22082495547305
 30
0.0
 10
-19.97427895334279
 20
-54.32991146626085
 30
0.0
 10
-19.95723816016109
 20
-54.42529892026125
 30
0.0
 10
-19.94914673717065
 20
-54.51069318897289
 30
0.0
 10
-19.94677351452389
 20
-54.601245932095
 30
0.0
 10
-19.9490269528994
 20
-54.6636677587123
 30
0.0
 10
-19.95235185899752
 20
-54.70001953942206
 30
0.0
  0
LINE
  5
CD
330
1F
100
AcDbEntity
  8
0
  6
Continuous
 62
     7
370
    25
100
AcDbLine
 10
-19.952351859
 20
-54.7000195394
 30
0.0
 11
-19.9549927713
 21
-54.7357135978
 31
0.0
  0
SPLINE
  5
CE
330
1F
100
AcDbEntity
  8
0
  6
Continuous
 62
     7
370
    25
100
AcDbSpline
210
0.0
220
0.0
230
1.0
 70
     8
 71
     3
 72
    14
 73
    10
 74
     0
 42
0.00000001
 43
0.00000001
 40
0.0
 40
0.0
 40
0.0
 40
0.0
 40
0.1463524895720285
 40
0.2295876425155019
 40
0.3195287342547698
 40
0.4161757648032168
 40
0.5195287341716108
 40
0.6295876423687684
 40
0.6881776950847741
 40
0.6881776950847741
 40
0.6881776950847741
 40
0.6881776950847741
 10
-19.95499277126685
 20
-54.73571359783374
 30
0.0
 10
-19.98178043891162
 20
-55.0172185550379
 30
0.0
 10
-20.01124134603636
 20
-55.45996496301057
 30
0.0
 10
-20.0290340296377
 20
-56.07712300992184
 30
0.0
 10
-20.03038797561794
 20
-56.59849298990387
 30
0.0
 10
-20.01715419511851
 20
-57.15858103662478
 30
0.0
 10
-19.98729965416437
 20
-57.75695435013419
 30
0.0
 10
-19.94735129211677
 20
-58.281015022412
 30
0.0
 10
-19.91625068955329
 20
-58.60538162479528
 30
0.0
 10
-19.90470443492459
 20
-58.71799333559331
 30
0.0
  0
ARC
  5
CF
330
1F
100
AcDbEntity
  8
0
  6
Continuous
 62
     7
370
    25
100
AcDbCircle
 10
0.0
 20
0.0
 30
0.0
 40
62.00000000000001
100
AcDbArc
 50
251.2739496673
 51
252.7260503327
  0
SPLINE
  5
D0
330
1F
100
AcDbEntity
  8
0
  6
Continuous
 62
     7
370
    25
100
AcDbSpline
210
0.0
220
0.0
230
1.0
 70
     8
 71
     3
 72
    14
 73
    10
 74
     0
 42
0.00000001
 43
0.00000001
 40
0.3118223049152273
 40
0.3118223049152273
 40
0.3118223049152273
 40
0.3118223049152273
 40
0.3704123576312316
 40
0.4804712658283892
 40
0.5838242351967832
 40
0.6804712657452302
 40
0.7704123574844981
 40
0.8536475104279715
 40
1.0
 40
1.0
 40
1.0
 40
1.0
 10
-18.41032637100596
 20
-59.20354620217888
 30
0.0
 10
-18.33479375194745
 20
-59.1192281325676
 30
0.0
 10
-18.11897493072118
 20
-58.87509051435609
 30
0.0
 10
-17.77862089245584
 20
-58.47459758246462
 30
0.0
 10
-17.40275305241846
 20
-58.00805146174186
 30
0.0
 10
-17.06283520524676
 20
-57.56270933460803
 30
0.0
 10
-16.75747698533276
 20
-57.14011633096605
 30
0.0
 10
-16.40911517043371
 20
-56.63036670578003
 30
0.0
 10
-16.17270973585551
 20
-56.25486065080458
 30
0.0
 10
-16.02891695192797
 20
-56.01137296044072
 30
0.0
  0
LINE
  5
D1
330
1F
100
AcDbEntity
  8
0
  6
Continuous
 62
     7
370
    25
100
AcDbLine
 10
-16.0289169519
 20
-56.0113729604
 30
0.0
 11
-16.0100730537
 21
-55.9809435713
 31
0.0
  0
SPLINE
  5
D2
330
1F
100
AcDbEntity
  8
0
  6
Continuous
 62
     7
370
    25
100
AcDbSpline
210
0.0
220
0.0
230
1.0
 70
     8
 71
     3
 72
    15
 73
    11
 74
     0
 42
0.00000001
 43
0.00000001
 40
0.0
 40
0.0
 40
0.0
 40
0.0
 40
0.0913942292267501
 40
0.1562608672127009
 40
0.2267227674849005
 40
0.3059893555533331
 40
0.3985747306771407
 40
0.5104191907761346
 40
0.6478782966083095
 40
1.0
 40
1.0
 40
1.0
 40
1.0
 10
-16.01007305370566
 20
-55.98094357130294
 30
0.0
 10
-15.99139591864797
 20
-55.94958003216324
 30
0.0
 10
-15.95652835948272
 20
-55.89775517576582
 30
0.0
 10
-15.90138281506826
 20
-55.82589141296496
 30
0.0
 10
-15.8446432245813
 20
-55.76156201745884
 30
0.0
 10
-15.77478959458452
 20
-55.69440827304194
 30
0.0
 10
-15.68517161263411
 20
-55.62468120544094
 30
0.0
 10
-15.56672594712542
 20
-55.55574966866634
 30
0.0
 10
-15.34001458624746
 20
-55.4719530760049
 30
0.0
 10
-15.13749983326427
 20
-55.47128148375489
 30
0.0
 10
-15.00120768027199
 20
-55.50868191673577
 30
0.0
  0
ARC
  5
D3
330
1F
100
AcDbEntity
  8
0
  6
Continuous
 62
     7
370
    25
100
AcDbCircle
 10
0.0
 20
0.0
 30
0.0
 40
57.49999999999999
100
AcDbArc
 50
254.8770881273
 51
255.1229118727
  0
SPLINE
  5
D4
330
1F
100
AcDbEntity
  8
0
  6
Continuous
 62
     7
370
    25
100
AcDbSpline
210
0.0
220
0.0
230
1.0
 70
     8
 71
     3
 72
    15
 73
    11
 74
     0
 42
0.00000001
 43
0.00000001
 40
0.0
 40
0.0
 40
0.0
 40
0.0
 40
0.3521217033916905
 40
0.4895808092238654
 40
0.6014252693228592
 40
0.6940106444466669
 40
0.7732772325150995
 40
0.8437391327872991
 40
0.9086057707732499
 40
1.0
 40
1.0
 40
1.0
 40
1.0
 10
-14.76291401980692
 20
-55.57253251061885
 30
0.0
 10
-14.62618133648869
 20
-55.60828886204101
 30
0.0
 10
-14.45113421188912
 20
-55.7101278544821
 30
0.0
 10
-14.29669471037299
 20
-55.89605351291646
 30
0.0
 10
-14.22858352346161
 20
-56.01497280763952
 30
0.0
 10
-14.18583560825716
 20
-56.12016721048858
 30
0.0
 10
-14.15891746234185
 20
-56.21325087411126
 30
0.0
 10
-14.14194423333287
 20
-56.29733156007311
 30
0.0
 10
-14.13011867236486
 20
-56.38714017647747
 30
0.0
 10
-14.1258349085585
 20
-56.44945559824771
 30
0.0
 10
-14.12534180469849
 20
-56.48595578742414
 30
0.0
  0
LINE
  5
D5
330
1F
100
AcDbEntity
  8
0
  6
Continuous
 62
     7
370
    25
100
AcDbLine
 10
-14.1253418047
 20
-56.4859557874
 30
0.0
 11
-14.1242372047
 21
-56.5217303606
 31
0.0
  0
SPLINE
  5
D6
330
1F
100
AcDbEntity
  8
0
  6
Continuous
 62
     7
370
    25
100
AcDbSpline
210
0.0
220
0.0
230
1.0
 70
     8
 71
     3
 72
    14
 73
    10
 74
     0
 42
0.00000001
 43
0.00000001
 40
0.0
 40
0.0
 40
0.0
 40
0.0
 40
0.1463524895720285
 40
0.2295876425155019
 40
0.3195287342547698
 40
0.4161757648032168
 40
0.5195287341716108
 40
0.6295876423687684
 40
0.6881776950847716
 40
0.6881776950847716
 40
0.6881776950847716
 40
0.6881776950847716
 10
-14.12423720470053
 20
-56.52173036055024
 30
0.0
 10
-14.12145284612032
 20
-56.80449327787792
 30
0.0
 10
-14.10447276167063
 20
-57.24789377805061
 30
0.0
 10
-14.05765739285262
 20
-57.86353081048085
 30
0.0
 10
-14.0045059189737
 20
-58.38218619705336
 30
0.0
 10
-13.9327994916902
 20
-58.93782271611251
 30
0.0
 10
-13.84056145411364
 20
-59.5297974287142
 30
0.0
 10
-13.74605267664098
 20
-60.04681150090099
 30
0.0
 10
-13.68121690394998
 20
-60.36615029090472
 30
0.0
 10
-13.65796277183659
 20
-60.47693819071541
 30
0.0
  0
ARC
  5
D7
330
1F
100
AcDbEntity
  8
0
  6
Continuous
 62
     7
370
    25
100
AcDbCircle
 10
0.0
 20
0.0
 30
0.0
 40
62.00000000000001
100
AcDbArc
 50
257.2739496673
 51
258.7260503327
  0
SPLINE
  5
D8
330
1F
100
AcDbEntity
  8
0
  6
Continuous
 62
     7
370
    25
100
AcDbSpline
210
0.0
220
0.0
230
1.0
 70
     8
 71
     3
 72
    14
 73
    10
 74
     0
 42
0.00000001
 43
0.00000001
 40
0.311822304915226
 40
0.311822304915226
 40
0.311822304915226
 40
0.311822304915226
 40
0.3704123576312316
 40
0.4804712658283892
 40
0.5838242351967832
 40
0.6804712657452302
 40
0.7704123574844981
 40
0.8536475104279715
 40
1.0
 40
1.0
 40
1.0
 40
1.0
 10
-12.12101697233206
 20
-60.80362610533129
 30
0.0
 10
-12.05471176710603
 20
-60.71187463033092
 30
0.0
 10
-11.86559455402141
 20
-60.44651521380949
 30
0.0
 10
-11.56896792150969
 20
-60.01263953951638
 30
0.0
 10
-11.24392647387037
 20
-59.50936031954762
 30
0.0
 10
-10.95242166040931
 20
-59.03092673298104
 30
0.0
 10
-10.69290922203251
 20
-58.57873011255589
 30
0.0
 10
-10.39973911457714
 20
-58.03535922398009
 30
0.0
 10
-10.20387980457935
 20
-57.63719913367907
 30
0.0
 10
-10.08632612666577
 20
-57.38001485562663
 30
0.0
  0
LINE
  5
D9
330
1F
100
AcDbEntity
  8
0
  6
Continuous
 62
     7
370
    25
100
AcDbLine
 10
-10.0863261267
 20
-57.3800148556
 30
0.0
 11
-10.0707661946
 21
-57.3477824381
 31
0.0
  0
SPLINE
  5
DA
330
1F
100
AcDbEntity
  8
0
  6
Continuous
 62
     7
370
    25
100
AcDbSpline
210
0.0
220
0.0
230
1.0
 70
     8
 71
     3
 72
    15
 73
    11
 74
     0
 42
0.00000001
 43
0.00000001
 40
0.0
 40
0.0
 40
0.0
 40
0.0
 40
0.0913942292267501
 40
0.1562608672127009
 40
0.2267227674849005
 40
0.3059893555533331
 40
0.3985747306771407
 40
0.5104191907761346
 40
0.6478782966083095
 40
1.0
 40
1.0
 40
1.0
 40
1.0
 10
-10.07076619457434
 20
-57.34778243814329
 30
0.0
 10
-10.05546975736563
 20
-57.31463841952679
 30
0.0
 10
-10.02621037893603
 20
-57.2594528127378
 30
0.0
 10
-9.978878736274046
 20
-57.18221844813508
 30
0.0
 10
-9.929174224055727
 20
-57.1123105535884
 30
0.0
 10
-9.866722737259543
 20
-57.0382229918126
 30
0.0
 10
-9.78488415521564
 20
-56.95951026644916
 30
0.0
 10
-9.674292655065502
 20
-56.8785754004491
 30
0.0
 10
-9.457582371801605
 20
-56.77154006413215
 30
0.0
 10
-9.256247216330554
 20
-56.7497035950164
 30
0.0
 10
-9.116792276227814
 20
-56.77265273520441
 30
0.0
  0
ARC
  5
DB
330
1F
100
AcDbEntity
  8
0
  6
Continuous
 62
     7
370
    25
100
AcDbCircle
 10
0.0
 20
0.0
 30
0.0
 40
57.5
100
AcDbArc
 50
260.8770881273
 51
261.1229118727
  0
SPLINE
  5
DC
330
1F
100
AcDbEntity
  8
0
  6
Continuous
 62
     7
370
    25
100
AcDbSpline
210
0.0
220
0.0
230
1.0
 70
     8
 71
     3
 72
    15
 73
    11
 74
     0
 42
0.00000001
 43
0.00000001
 40
0.0
 40
0.0
 40
0.0
 40
0.0
 40
0.3521217033916905
 40
0.4895808092238654
 40
0.6014252693228592
 40
0.6940106444466669
 40
0.7732772325150995
 40
0.8437391327872991
 40
0.9086057707732499
 40
1.0
 40
1.0
 40
1.0
 40
1.0
 10
-8.87312980891052
 20
-56.81124507871856
 30
0.0
 10
-8.733408605071869
 20
-56.83251309584066
 30
0.0
 10
-8.548675333555744
 20
-56.91549679669176
 30
0.0
 10
-8.375647344430023
 20
-57.08426061115419
 30
0.0
 10
-8.29547882659686
 20
-57.19540889583885
 30
0.0
 10
-8.24196927967052
 20
-57.29555865885821
 30
0.0
 10
-8.205468701861221
 20
-57.38531868800552
 30
0.0
 10
-8.179799629082611
 20
-57.46716458562717
 30
0.0
 10
-8.15865129311397
 20
-57.55524511331876
 30
0.0
 10
-8.147877260938442
 20
-57.6167713894407
 30
0.0
 10
-8.143571549669378
 20
-57.65302008337301
 30
0.0
  0
LINE
  5
DD
330
1F
100
AcDbEntity
  8
0
  6
Continuous
 62
     7
370
    25
100
AcDbLine
 10
-8.1435715497
 20
-57.6530200834
 30
0.0
 11
-8.1387335396
 21
-57.6884832175
 31
0.0
  0
SPLINE
  5
DE
330
1F
100
AcDbEntity
  8
0
  6
Continuous
 62
     7
370
    25
100
AcDbSpline
210
0.0
220
0.0
230
1.0
 70
     8
 71
     3
 72
    14
 73
    10
 74
     0
 42
0.00000001
 43
0.00000001
 40
0.0
 40
0.0
 40
0.0
 40
0.0
 40
0.1463524895720285
 40
0.2295876425155019
 40
0.3195287342547698
 40
0.4161757648032168
 40
0.5195287341716108
 40
0.6295876423687684
 40
0.6881776950847724
 40
0.6881776950847724
 40
0.6881776950847724
 40
0.6881776950847724
 10
-8.138733539632854
 20
-57.68848321750407
 30
0.0
 10
-8.106407660842939
 20
-57.96940608526108
 30
0.0
 10
-8.043172622177355
 20
-58.40860268896639
 30
0.0
 10
-7.932262119917519
 20
-59.01597365875794
 30
0.0
 10
-7.825187564849921
 20
-59.52623195497004
 30
0.0
 10
-7.69579412140521
 20
-60.07132927639022
 30
0.0
 10
-7.542183166447949
 20
-60.65041958925423
 30
0.0
 10
-7.394149431493463
 20
-61.154722546983
 30
0.0
 10
-7.296288842968303
 20
-61.46553478199795
 30
0.0
 10
-7.261581610507881
 20
-61.57328505540711
 30
0.0
  0
ARC
  5
DF
330
1F
100
AcDbEntity
  8
0
  6
Continuous
 62
     7
370
    25
100
AcDbCircle
 10
0.0
 20
0.0
 30
0.0
 40
62.00000000000001
100
AcDbArc
 50
263.2739496673
 51
264.7260503327
  0
SPLINE
  5
E0
330
1F
100
AcDbEntity
  8
0
  6
Continuous
 62
     7
370
    25
100
AcDbSpline
210
0.0
220
0.0
230
1.0
 70
     8
 71
     3
 72
    14
 73
    10
 74
     0
 42
0.00000001
 43
0.00000001
 40
0.3118223049152296
 40
0.3118223049152296
 40
0.3118223049152296
 40
0.3118223049152296
 40
0.3704123576312316
 40
0.4804712658283892
 40
0.5838242351967832
 40
0.6804712657452302
 40
0.7704123574844981
 40
0.8536475104279715
 40
1.0
 40
1.0
 40
1.0
 40
1.0
 10
-5.698907175223417
 20
-61.73752875689691
 30
0.0
 10
-5.642555837533571
 20
-61.63934912486778
 30
0.0
 10
-5.48221224035248
 20
-61.35567524333388
 30
0.0
 10
-5.232562917053294
 20
-60.893170459321
 30
0.0
 10
-4.961909083931673
 20
-60.35867217255817
 30
0.0
 10
-4.722011091918834
 20
-59.85238894505193
 30
0.0
 10
-4.511187707660571
 20
-59.37554306864521
 30
0.0
 10
-4.276421340695939
 20
-58.80450420184253
 30
0.0
 10
-4.123254030865091
 20
-58.38805240148563
 30
0.0
 10
-4.03322740166039
 20
-58.11998930051423
 30
0.0
  0
LINE
  5
E1
330
1F
100
AcDbEntity
  8
0
  6
Continuous
 62
     7
370
    25
100
AcDbLine
 10
-4.0332274017
 20
-58.1199893005
 30
0.0
 11
-4.0211219136
 21
-58.0863069998
 31
0.0
  0
SPLINE
  5
E2
330
1F
100
AcDbEntity
  8
0
  6
Continuous
 62
     7
370
    25
100
AcDbSpline
210
0.0
220
0.0
230
1.0
 70
     8
 71
     3
 72
    15
 73
    11
 74
     0
 42
0.00000001
 43
0.00000001
 40
0.0
 40
0.0
 40
0.0
 40
0.0
 40
0.0913942292267501
 40
0.1562608672127009
 40
0.2267227674849005
 40
0.3059893555533331
 40
0.3985747306771407
 40
0.5104191907761346
 40
0.6478782966083095
 40
1.0
 40
1.0
 40
1.0
 40
1.0
 10
-4.021121913571953
 20
-58.08630699979634
 30
0.0
 10
-4.009373765179264
 20
-58.05174563450684
 30
0.0
 10
-3.986043139358304
 20
-57.99380390238259
 30
0.0
 10
-3.94704397383059
 20
-57.91204513183894
 30
0.0
 10
-3.904919112918113
 20
-57.83732466377351
 30
0.0
 10
-3.850554000880679
 20
-57.75711500346945
 30
0.0
 10
-3.777391459373972
 20
-57.67027901343435
 30
0.0
 10
-3.675865788200798
 20
-57.57822755753743
 30
0.0
 10
-3.471530905763938
 20
-57.44912617910825
 30
0.0
 10
-3.273581217900464
 20
-57.40636407805195
 30
0.0
 10
-3.132491388193853
 20
-57.41461048986478
 30
0.0
  0
ARC
  5
E3
330
1F
100
AcDbEntity
  8
0
  6
Continuous
 62
     7
370
    25
100
AcDbCircle
 10
0.0
 20
0.0
 30
0.0
 40
57.49999999999999
100
AcDbArc
 50
266.8770881273
 51
267.1229118727
  0
SPLINE
  5
E4
330
1F
100
AcDbEntity
  8
0
  6
Continuous
 62
     7
370
    25
100
AcDbSpline
210
0.0
220
0.0
230
1.0
 70
     8
 71
     3
 72
    15
 73
    11
 74
     0
 42
0.00000001
 43
0.00000001
 40
0.0
 40
0.0
 40
0.0
 40
0.0
 40
0.3521217033916905
 40
0.4895808092238654
 40
0.6014252693228592
 40
0.6940106444466669
 40
0.7732772325150995
 40
0.8437391327872991
 40
0.9086057707732499
 40
1.0
 40
1.0
 40
1.0
 40
1.0
 10
-2.886129731005514
 20
-57.42752175721851
 30
0.0
 10
-2.744950821394239
 20
-57.43406842319435
 30
0.0
 10
-2.552555379342212
 20
-57.49728764566348
 30
0.0
 10
-2.362834633464191
 20
-57.64704060448663
 30
0.0
 10
-2.271487127766966
 20
-57.74920011526659
 30
0.0
 10
-2.207802210912451
 20
-57.84320797669493
 30
0.0
 10
-2.16211910917788
 20
-57.92866094170404
 30
0.0
 10
-2.128035428362598
 20
-58.00737533020379
 30
0.0
 10
-2.097796022987773
 20
-58.0927627404892
 30
0.0
 10
-2.080649764994201
 20
-58.15282577620643
 30
0.0
 10
-2.072578620589778
 20
-58.1884258266184
 30
0.0
  0
LINE
  5
E5
330
1F
100
AcDbEntity
  8
0
  6
Continuous
 62
     7
370
    25
100
AcDbLine
 10
-2.0725786206
 20
-58.1884258266
 30
0.0
 11
-2.0640602068
 21
-58.2231889802
 31
0.0
  0
SPLINE
  5
E6
330
1F
100
AcDbEntity
  8
0
  6
Continuous
 62
     7
370
    25
100
AcDbSpline
210
0.0
220
0.0
230
1.0
 70
     8
 71
     3
 72
    14
 73
    10
 74
     0
 42
0.00000001
 43
0.00000001
 40
0.0
 40
0.0
 40
0.0
 40
0.0
 40
0.1463524895720285
 40
0.2295876425155019
 40
0.3195287342547698
 40
0.4161757648032168
 40
0.5195287341716108
 40
0.6295876423687684
 40
0.6881776950847726
 40
0.6881776950847726
 40
0.6881776950847726
 40
0.6881776950847726
 10
-2.064060206765069
 20
-58.22318898023572
 30
0.0
 10
-2.002546976858093
 20
-58.49919394869603
 30
0.0
 10
-1.893749800293021
 20
-58.92937472603595
 30
0.0
 10
-1.71995932326362
 20
-59.52182514974325
 30
0.0
 10
-1.560134818239453
 20
-60.0180958589232
 30
0.0
 10
-1.374472020277222
 20
-60.54668178238198
 30
0.0
 10
-1.161171141706933
 20
-61.10654306085814
 30
0.0
 10
-0.9612343378488284
 20
-61.59260965539183
 30
0.0
 10
-0.8314211145760313
 20
-61.89149001152954
 30
0.0
 10
-0.7856410414703758
 20
-61.99502212399351
 30
0.0
  0
ARC
  5
E7
330
1F
100
AcDbEntity
  8
0
  6
Continuous
 62
     7
370
    25
100
AcDbCircle
 10
0.0
 20
0.0
 30
0.0
 40
62.00000000000001
100
AcDbArc
 50
269.2739496673
 51
270.7260503327
  0
SPLINE
  5
E8
330
1F
100
AcDbEntity
  8
0
  6
Continuous
 62
     7
370
    25
100
AcDbSpline
210
0.0
220
0.0
230
1.0
 70
     8
 71
     3
 72
    14
 73
    10
 74
     0
 42
0.00000001
 43
0.00000001
 40
0.3118223049152274
 40
0.3118223049152274
 40
0.3118223049152274
 40
0.3118223049152274
 40
0.3704123576312316
 40
0.4804712658283892
 40
0.5838242351967832
 40
0.6804712657452302
 40
0.7704123574844981
 40
0.8536475104279715
 40
1.0
 40
1.0
 40
1.0
 40
1.0
 10
0.785641041470391
 20
-61.99502212399351
 30
0.0
 10
0.8314211145760465
 20
-61.89149001152954
 30
0.0
 10
0.9612343378488434
 20
-61.59260965539183
 30
0.0
 10
1.161171141706949
 20
-61.10654306085815
 30
0.0
 10
1.374472020277236
 20
-60.54668178238198
 30
0.0
 10
1.560134818239468
 20
-60.01809585892321
 30
0.0
 10
1.719959323263635
 20
-59.52182514974325
 30
0.0
 10
1.893749800293034
 20
-58.92937472603597
 30
0.0
 10
2.00254697685811
 20
-58.49919394869602
 30
0.0
 10
2.064060206765082
 20
-58.22318898023572
 30
0.0
  0
LINE
  5
E9
330
1F
100
AcDbEntity
  8
0
  6
Continuous
 62
     7
370
    25
100
AcDbLine
 10
2.0640602068
 20
-58.2231889802
 30
0.0
 11
2.0725786206
 21
-58.1884258266
 31
0.0
  0
SPLINE
  5
EA
330
1F
100
AcDbEntity
  8
0
  6
Continuous
 62
     7
370
    25
100
AcDbSpline
210
0.0
220
0.0
230
1.0
 70
     8
 71
     3
 72
    15
 73
    11
 74
     0
 42
0.00000001
 43
0.00000001
 40
0.0
 40
0.0
 40
0.0
 40
0.0
 40
0.0913942292267501
 40
0.1562608672127009
 40
0.2267227674849005
 40
0.3059893555533331
 40
0.3985747306771407
 40
0.5104191907761346
 40
0.6478782966083095
 40
1.0
 40
1.0
 40
1.0
 40
1.0
 10
2.072578620589792
 20
-58.1884258266184
 30
0.0
 10
2.080649764994214
 20
-58.15282577620644
 30
0.0
 10
2.097796022987788
 20
-58.09276274048918
 30
0.0
 10
2.128035428362612
 20
-58.0073753302038
 30
0.0
 10
2.162119109177894
 20
-57.92866094170402
 30
0.0
 10
2.207802210912465
 20
-57.84320797669493
 30
0.0
 10
2.27148712776698
 20
-57.74920011526659
 30
0.0
 10
2.362834633464205
 20
-57.64704060448663
 30
0.0
 10
2.552555379342226
 20
-57.49728764566348
 30
0.0
 10
2.744950821394254
 20
-57.43406842319435
 30
0.0
 10
2.886129731005528
 20
-57.42752175721851
 30
0.0
  0
ARC
  5
EB
330
1F
100
AcDbEntity
  8
0
  6
Continuous
 62
     7
370
    25
100
AcDbCircle
 10
0.0
 20
0.0
 30
0.0
 40
57.50000000000001
100
AcDbArc
 50
272.8770881273
 51
273.1229118727
  0
SPLINE
  5
EC
330
1F
100
AcDbEntity
  8
0
  6
Continuous
 62
     7
370
    25
100
AcDbSpline
210
0.0
220
0.0
230
1.0
 70
     8
 71
     3
 72
    15
 73
    11
 74
     0
 42
0.00000001
 43
0.00000001
 40
0.0
 40
0.0
 40
0.0
 40
0.0
 40
0.3521217033916905
 40
0.4895808092238654
 40
0.6014252693228592
 40
0.6940106444466669
 40
0.7732772325150995
 40
0.8437391327872991
 40
0.9086057707732499
 40
1.0
 40
1.0
 40
1.0
 40
1.0
 10
3.132491388193091
 20
-57.41461048986483
 30
0.0
 10
3.273581217899704
 20
-57.406364078052
 30
0.0
 10
3.471530905763176
 20
-57.4491261791083
 30
0.0
 10
3.675865788200035
 20
-57.57822755753749
 30
0.0
 10
3.777391459373208
 20
-57.67027901343441
 30
0.0
 10
3.850554000879913
 20
-57.75711500346952
 30
0.0
 10
3.904919112917347
 20
-57.83732466377359
 30
0.0
 10
3.94704397382982
 20
-57.91204513183899
 30
0.0
 10
3.986043139357538
 20
-57.99380390238267
 30
0.0
 10
4.009373765178491
 20
-58.05174563450689
 30
0.0
 10
4.021121913571183
 20
-58.0863069997964
 30
0.0
  0
LINE
  5
ED
330
1F
100
AcDbEntity
  8
0
  6
Continuous
 62
     7
370
    25
100
AcDbLine
 10
4.0211219136
 20
-58.0863069998
 30
0.0
 11
4.0332274017
 21
-58.1199893005
 31
0.0
  0
SPLINE
  5
EE
330
1F
100
AcDbEntity
  8
0
  6
Continuous
 62
     7
370
    25
100
AcDbSpline
210
0.0
220
0.0
230
1.0
 70
     8
 71
     3
 72
    14
 73
    10
 74
     0
 42
0.00000001
 43
0.00000001
 40
0.0
 40
0.0
 40
0.0
 40
0.0
 40
0.1463524895720285
 40
0.2295876425155019
 40
0.3195287342547698
 40
0.4161757648032168
 40
0.5195287341716108
 40
0.6295876423687684
 40
0.6881776950847713
 40
0.6881776950847713
 40
0.6881776950847713
 40
0.6881776950847713
 10
4.033227401659619
 20
-58.1199893005143
 30
0.0
 10
4.12325403086432
 20
-58.3880524014857
 30
0.0
 10
4.276421340695157
 20
-58.8045042018426
 30
0.0
 10
4.511187707659785
 20
-59.37554306864527
 30
0.0
 10
4.72201109191804
 20
-59.85238894505199
 30
0.0
 10
4.961909083930872
 20
-60.35867217255825
 30
0.0
 10
5.232562917052487
 20
-60.89317045932107
 30
0.0
 10
5.482212240351667
 20
-61.35567524333396
 30
0.0
 10
5.642555837532756
 20
-61.63934912486786
 30
0.0
 10
5.698907175222601
 20
-61.73752875689699
 30
0.0
  0
ARC
  5
EF
330
1F
100
AcDbEntity
  8
0
  6
Continuous
 62
     7
370
    25
100
AcDbCircle
 10
0.0
 20
0.0
 30
0.0
 40
62.0
100
AcDbArc
 50
275.2739496673
 51
276.7260503327
  0
SPLINE
  5
F0
330
1F
100
AcDbEntity
  8
0
  6
Continuous
 62
     7
370
    25
100
AcDbSpline
210
0.0
220
0.0
230
1.0
 70
     8
 71
     3
 72
    14
 73
    10
 74
     0
 42
0.00000001
 43
0.00000001
 40
0.3118223049152309
 40
0.3118223049152309
 40
0.3118223049152309
 40
0.3118223049152309
 40
0.3704123576312316
 40
0.4804712658283892
 40
0.5838242351967832
 40
0.6804712657452302
 40
0.7704123574844981
 40
0.8536475104279715
 40
1.0
 40
1.0
 40
1.0
 40
1.0
 10
7.261581610507071
 20
-61.5732850554072
 30
0.0
 10
7.296288842967493
 20
-61.46553478199804
 30
0.0
 10
7.394149431492655
 20
-61.15472254698309
 30
0.0
 10
7.542183166447147
 20
-60.65041958925434
 30
0.0
 10
7.695794121404413
 20
-60.07132927639034
 30
0.0
 10
7.825187564849133
 20
-59.52623195497016
 30
0.0
 10
7.932262119916738
 20
-59.01597365875806
 30
0.0
 10
8.043172622176584
 20
-58.40860268896652
 30
0.0
 10
8.106407660842173
 20
-57.9694060852612
 30
0.0
 10
8.138733539632089
 20
-57.68848321750419
 30
0.0
  0
LINE
  5
F1
330
1F
100
AcDbEntity
  8
0
  6
Continuous
 62
     7
370
    25
100
AcDbLine
 10
8.1387335396
 20
-57.6884832175
 30
0.0
 11
8.1435715497
 21
-57.6530200834
 31
0.0
  0
SPLINE
  5
F2
330
1F
100
AcDbEntity
  8
0
  6
Continuous
 62
     7
370
    25
100
AcDbSpline
210
0.0
220
0.0
230
1.0
 70
     8
 71
     3
 72
    15
 73
    11
 74
     0
 42
0.00000001
 43
0.00000001
 40
0.0
 40
0.0
 40
0.0
 40
0.0
 40
0.0913942292267501
 40
0.1562608672127009
 40
0.2267227674849005
 40
0.3059893555533331
 40
0.3985747306771407
 40
0.5104191907761346
 40
0.6478782966083095
 40
1.0
 40
1.0
 40
1.0
 40
1.0
 10
8.143571549668614
 20
-57.65302008337314
 30
0.0
 10
8.14787726093768
 20
-57.61677138944083
 30
0.0
 10
8.158651293113207
 20
-57.55524511331886
 30
0.0
 10
8.17979962908185
 20
-57.46716458562729
 30
0.0
 10
8.20546870186046
 20
-57.38531868800563
 30
0.0
 10
8.241969279669762
 20
-57.29555865885833
 30
0.0
 10
8.295478826596103
 20
-57.19540889583896
 30
0.0
 10
8.375647344429266
 20
-57.08426061115431
 30
0.0
 10
8.548675333554991
 20
-56.91549679669189
 30
0.0
 10
8.733408605071117
 20
-56.83251309584079
 30
0.0
 10
8.873129808909768
 20
-56.81124507871868
 30
0.0
  0
ARC
  5
F3
330
1F
100
AcDbEntity
  8
0
  6
Continuous
 62
     7
370
    25
100
AcDbCircle
 10
0.0
 20
0.0
 30
0.0
 40
57.5
100
AcDbArc
 50
278.8770881273
 51
279.1229118727
  0
SPLINE
  5
F4
330
1F
100
AcDbEntity
  8
0
  6
Continuous
 62
     7
370
    25
100
AcDbSpline
210
0.0
220
0.0
230
1.0
 70
     8
 71
     3
 72
    15
 73
    11
 74
     0
 42
0.00000001
 43
0.00000001
 40
0.0
 40
0.0
 40
0.0
 40
0.0
 40
0.3521217033916905
 40
0.4895808092238654
 40
0.6014252693228592
 40
0.6940106444466669
 40
0.7732772325150995
 40
0.8437391327872991
 40
0.9086057707732499
 40
1.0
 40
1.0
 40
1.0
 40
1.0
 10
9.116792276227063
 20
-56.77265273520453
 30
0.0
 10
9.2562472163298
 20
-56.74970359501651
 30
0.0
 10
9.45758237180085
 20
-56.77154006413227
 30
0.0
 10
9.674292655064747
 20
-56.87857540044922
 30
0.0
 10
9.784884155214883
 20
-56.95951026644929
 30
0.0
 10
9.866722737258787
 20
-57.03822299181274
 30
0.0
 10
9.92917422405497
 20
-57.11231055358854
 30
0.0
 10
9.978878736273282
 20
-57.18221844813521
 30
0.0
 10
10.02621037893527
 20
-57.25945281273795
 30
0.0
 10
10.05546975736487
 20
-57.31463841952691
 30
0.0
 10
10.07076619457358
 20
-57.34778243814343
 30
0.0
  0
LINE
  5
F5
330
1F
100
AcDbEntity
  8
0
  6
Continuous
 62
     7
370
    25
100
AcDbLine
 10
10.0707661946
 20
-57.3477824381
 30
0.0
 11
10.0863261267
 21
-57.3800148556
 31
0.0
  0
SPLINE
  5
F6
330
1F
100
AcDbEntity
  8
0
  6
Continuous
 62
     7
370
    25
100
AcDbSpline
210
0.0
220
0.0
230
1.0
 70
     8
 71
     3
 72
    14
 73
    10
 74
     0
 42
0.00000001
 43
0.00000001
 40
0.0
 40
0.0
 40
0.0
 40
0.0
 40
0.1463524895720285
 40
0.2295876425155019
 40
0.3195287342547698
 40
0.4161757648032168
 40
0.5195287341716108
 40
0.6295876423687684
 40
0.6881776950847719
 40
0.6881776950847719
 40
0.6881776950847719
 40
0.6881776950847719
 10
10.08632612666501
 20
-57.38001485562675
 30
0.0
 10
10.20387980457859
 20
-57.6371991336792
 30
0.0
 10
10.39973911457637
 20
-58.03535922398021
 30
0.0
 10
10.69290922203174
 20
-58.57873011255602
 30
0.0
 10
10.95242166040852
 20
-59.03092673298118
 30
0.0
 10
11.24392647386958
 20
-59.50936031954777
 30
0.0
 10
11.56896792150889
 20
-60.01263953951652
 30
0.0
 10
11.86559455402061
 20
-60.44651521380965
 30
0.0
 10
12.05471176710522
 20
-60.71187463033107
 30
0.0
 10
12.12101697233125
 20
-60.80362610533144
 30
0.0
  0
ARC
  5
F7
330
1F
100
AcDbEntity
  8
0
  6
Continuous
 62
     7
370
    25
100
AcDbCircle
 10
0.0
 20
0.0
 30
0.0
 40
62.00000000000001
100
AcDbArc
 50
281.2739496673
 51
282.7260503327
  0
SPLINE
  5
F8
330
1F
100
AcDbEntity
  8
0
  6
Continuous
 62
     7
370
    25
100
AcDbSpline
210
0.0
220
0.0
230
1.0
 70
     8
 71
     3
 72
    14
 73
    10
 74
     0
 42
0.00000001
 43
0.00000001
 40
0.3118223049152282
 40
0.3118223049152282
 40
0.3118223049152282
 40
0.3118223049152282
 40
0.3704123576312316
 40
0.4804712658283892
 40
0.5838242351967832
 40
0.6804712657452302
 40
0.7704123574844981
 40
0.8536475104279715
 40
1.0
 40
1.0
 40
1.0
 40
1.0
 10
13.65796277183578
 20
-60.4769381907156
 30
0.0
 10
13.68121690394918
 20
-60.3661502909049
 30
0.0
 10
13.74605267664018
 20
-60.04681150090119
 30
0.0
 10
13.84056145411285
 20
-59.52979742871439
 30
0.0
 10
13.93279949168942
 20
-58.93782271611271
 30
0.0
 10
14.00450591897293
 20
-58.38218619705356
 30
0.0
 10
14.05765739285185
 20
-57.86353081048102
 30
0.0
 10
14.10447276166987
 20
-57.24789377805081
 30
0.0
 10
14.12145284611957
 20
-56.8044932778781
 30
0.0
 10
14.12423720469978
 20
-56.52173036055042
 30
0.0
  0
LINE
  5
F9
330
1F
100
AcDbEntity
  8
0
  6
Continuous
 62
     7
370
    25
100
AcDbLine
 10
14.1242372047
 20
-56.5217303606
 30
0.0
 11
14.1253418047
 21
-56.4859557874
 31
0.0
  0
SPLINE
  5
FA
330
1F
100
AcDbEntity
  8
0
  6
Continuous
 62
     7
370
    25
100
AcDbSpline
210
0.0
220
0.0
230
1.0
 70
     8
 71
     3
 72
    15
 73
    11
 74
     0
 42
0.00000001
 43
0.00000001
 40
0.0
 40
0.0
 40
0.0
 40
0.0
 40
0.0913942292267501
 40
0.1562608672127009
 40
0.2267227674849005
 40
0.3059893555533331
 40
0.3985747306771407
 40
0.5104191907761346
 40
0.6478782966083095
 40
1.0
 40
1.0
 40
1.0
 40
1.0
 10
14.12534180469774
 20
-56.48595578742432
 30
0.0
 10
14.12583490855775
 20
-56.44945559824792
 30
0.0
 10
14.13011867236411
 20
-56.38714017647764
 30
0.0
 10
14.14194423333213
 20
-56.29733156007332
 30
0.0
 10
14.1589174623411
 20
-56.21325087411144
 30
0.0
 10
14.18583560825642
 20
-56.12016721048877
 30
0.0
 10
14.22858352346086
 20
-56.01497280763971
 30
0.0
 10
14.29669471037225
 20
-55.89605351291664
 30
0.0
 10
14.45113421188838
 20
-55.71012785448229
 30
0.0
 10
14.62618133648795
 20
-55.60828886204119
 30
0.0
 10
14.76291401980618
 20
-55.57253251061904
 30
0.0
  0
ARC
  5
FB
330
1F
100
AcDbEntity
  8
0
  6
Continuous
 62
     7
370
    25
100
AcDbCircle
 10
0.0
 20
0.0
 30
0.0
 40
57.49999999999999
100
AcDbArc
 50
284.8770881273
 51
285.1229118727
  0
SPLINE
  5
FC
330
1F
100
AcDbEntity
  8
0
  6
Continuous
 62
     7
370
    25
100
AcDbSpline
210
0.0
220
0.0
230
1.0
 70
     8
 71
     3
 72
    15
 73
    11
 74
     0
 42
0.00000001
 43
0.00000001
 40
0.0
 40
0.0
 40
0.0
 40
0.0
 40
0.3521217033916905
 40
0.4895808092238654
 40
0.6014252693228592
 40
0.6940106444466669
 40
0.7732772325150995
 40
0.8437391327872991
 40
0.9086057707732499
 40
1.0
 40
1.0
 40
1.0
 40
1.0
 10
15.00120768027125
 20
-55.50868191673596
 30
0.0
 10
15.13749983326353
 20
-55.47128148375509
 30
0.0
 10
15.34001458624673
 20
-55.4719530760051
 30
0.0
 10
15.56672594712468
 20
-55.55574966866654
 30
0.0
 10
15.68517161263338
 20
-55.62468120544114
 30
0.0
 10
15.77478959458378
 20
-55.69440827304214
 30
0.0
 10
15.84464322458056
 20
-55.76156201745906
 30
0.0
 10
15.90138281506751
 20
-55.82589141296516
 30
0.0
 10
15.95652835948199
 20
-55.89775517576605
 30
0.0
 10
15.99139591864722
 20
-55.94958003216345
 30
0.0
 10
16.01007305370491
 20
-55.98094357130316
 30
0.0
  0
LINE
  5
FD
330
1F
100
AcDbEntity
  8
0
  6
Continuous
 62
     7
370
    25
100
AcDbLine
 10
16.0100730537
 20
-55.9809435713
 30
0.0
 11
16.0289169519
 21
-56.0113729604
 31
0.0
  0
SPLINE
  5
FE
330
1F
100
AcDbEntity
  8
0
  6
Continuous
 62
     7
370
    25
100
AcDbSpline
210
0.0
220
0.0
230
1.0
 70
     8
 71
     3
 72
    14
 73
    10
 74
     0
 42
0.00000001
 43
0.00000001
 40
0.0
 40
0.0
 40
0.0
 40
0.0
 40
0.1463524895720285
 40
0.2295876425155019
 40
0.3195287342547698
 40
0.4161757648032168
 40
0.5195287341716108
 40
0.6295876423687684
 40
0.6881776950847719
 40
0.6881776950847719
 40
0.6881776950847719
 40
0.6881776950847719
 10
16.02891695192722
 20
-56.01137296044093
 30
0.0
 10
16.17270973585477
 20
-56.25486065080479
 30
0.0
 10
16.40911517043295
 20
-56.63036670578023
 30
0.0
 10
16.757476985332
 20
-57.14011633096626
 30
0.0
 10
17.06283520524599
 20
-57.56270933460825
 30
0.0
 10
17.40275305241769
 20
-58.00805146174208
 30
0.0
 10
17.77862089245507
 20
-58.47459758246485
 30
0.0
 10
18.1189749307204
 20
-58.87509051435632
 30
0.0
 10
18.33479375194666
 20
-59.11922813256784
 30
0.0
 10
18.41032637100517
 20
-59.20354620217912
 30
0.0
  0
ARC
  5
FF
330
1F
100
AcDbEntity
  8
0
  6
Continuous
 62
     7
370
    25
100
AcDbCircle
 10
0.0
 20
0.0
 30
0.0
 40
62.0
100
AcDbArc
 50
287.2739496673
 51
288.7260503327
  0
SPLINE
  5
100
330
1F
100
AcDbEntity
  8
0
  6
Continuous
 62
     7
370
    25
100
AcDbSpline
210
0.0
220
0.0
230
1.0
 70
     8
 71
     3
 72
    14
 73
    10
 74
     0
 42
0.00000001
 43
0.00000001
 40
0.3118223049152273
 40
0.3118223049152273
 40
0.3118223049152273
 40
0.3118223049152273
 40
0.3704123576312316
 40
0.4804712658283892
 40
0.5838242351967832
 40
0.6804712657452302
 40
0.7704123574844981
 40
0.8536475104279715
 40
1.0
 40
1.0
 40
1.0
 40
1.0
 10
19.90470443492381
 20
-58.71799333559358
 30
0.0
 10
19.91625068955251
 20
-58.60538162479555
 30
0.0
 10
19.94735129211599
 20
-58.28101502241226
 30
0.0
 10
19.98729965416361
 20
-57.75695435013446
 30
0.0
 10
20.01715419511774
 20
-57.15858103662504
 30
0.0
 10
20.03038797561718
 20
-56.59849298990414
 30
0.0
 10
20.02903402963695
 20
-56.0771230099221
 30
0.0
 10
20.01124134603563
 20
-55.45996496301085
 30
0.0
 10
19.98178043891089
 20
-55.01721855503816
 30
0.0
 10
19.95499277126612
 20
-54.735713597834
 30
0.0
  0
LINE
  5
101
330
1F
100
AcDbEntity
  8
0
  6
Continuous
 62
     7
370
    25
100
AcDbLine
 10
19.9549927713
 20
-54.7357135978
 30
0.0
 11
19.952351859
 21
-54.7000195394
 31
0.0
  0
SPLINE
  5
102
330
1F
100
AcDbEntity
  8
0
  6
Continuous
 62
     7
370
    25
100
AcDbSpline
210
0.0
220
0.0
230
1.0
 70
     8
 71
     3
 72
    15
 73
    11
 74
     0
 42
0.00000001
 43
0.00000001
 40
0.0
 40
0.0
 40
0.0
 40
0.0
 40
0.0913942292267501
 40
0.1562608672127009
 40
0.2267227674849005
 40
0.3059893555533331
 40
0.3985747306771407
 40
0.5104191907761346
 40
0.6478782966083095
 40
1.0
 40
1.0
 40
1.0
 40
1.0
 10
19.95235185899679
 20
-54.70001953942233
 30
0.0
 10
19.94902695289868
 20
-54.66366775871258
 30
0.0
 10
19.94677351452316
 20
-54.60124593209525
 30
0.0
 10
19.94914673716993
 20
-54.51069318897316
 30
0.0
 10
19.95723816016037
 20
-54.42529892026149
 30
0.0
 10
19.97427895334206
 20
-54.32991146626111
 30
0.0
 10
20.00579688172007
 20
-54.2208249554733
 30
0.0
 10
20.06110449729268
 20
-54.09543755539029
 30
0.0
 10
20.19526343970207
 20
-53.89438709340526
 30
0.0
 10
20.35870656445701
 20
-53.77480857868654
 30
0.0
 10
20.49095265536322
 20
-53.72495564703299
 30
0.0
  0
ARC
  5
103
330
1F
100
AcDbEntity
  8
0
  6
Continuous
 62
     7
370
    25
100
AcDbCircle
 10
0.0
 20
0.0
 30
0.0
 40
57.49999999999999
100
AcDbArc
 50
290.8770881273
 51
291.1229118727
  0
SPLINE
  5
104
330
1F
100
AcDbEntity
  8
0
  6
Continuous
 62
     7
370
    25
100
AcDbSpline
210
0.0
220
0.0
230
1.0
 70
     8
 71
     3
 72
    15
 73
    11
 74
     0
 42
0.00000001
 43
0.00000001
 40
0.0
 40
0.0
 40
0.0
 40
0.0
 40
0.3521217033916905
 40
0.4895808092238654
 40
0.6014252693228592
 40
0.6940106444466669
 40
0.7732772325150995
 40
0.8437391327872991
 40
0.9086057707732499
 40
1.0
 40
1.0
 40
1.0
 40
1.0
 10
20.72126671376587
 20
-53.63654636324917
 30
0.0
 10
20.85290283429854
 20
-53.58510440444572
 30
0.0
 10
21.05437839078126
 20
-53.56460376172475
 30
0.0
 10
21.28860693216109
 20
-53.62424351772592
 30
0.0
 10
21.41360904753068
 20
-53.68041649693331
 30
0.0
 10
21.51002455602357
 20
-53.7403939624279
 30
0.0
 10
21.58651499823289
 20
-53.79987813900926
 30
0.0
 10
21.64966801616158
 20
-53.85792422915584
 30
0.0
 10
21.71202327620398
 20
-53.92363003573117
 30
0.0
 10
21.75211699983015
 20
-53.97152633776527
 30
0.0
 10
21.77397020213668
 20
-54.00076577193013
 30
0.0
  0
LINE
  5
105
330
1F
100
AcDbEntity
  8
0
  6
Continuous
 62
     7
370
    25
100
AcDbLine
 10
21.7739702021
 20
-54.0007657719
 30
0.0
 11
21.7958916088
 21
-54.029058742
 31
0.0
  0
SPLINE
  5
106
330
1F
100
AcDbEntity
  8
0
  6
Continuous
 62
     7
370
    25
100
AcDbSpline
210
0.0
220
0.0
230
1.0
 70
     8
 71
     3
 72
    14
 73
    10
 74
     0
 42
0.00000001
 43
0.00000001
 40
0.0
 40
0.0
 40
0.0
 40
0.0
 40
0.1463524895720285
 40
0.2295876425155019
 40
0.3195287342547698
 40
0.4161757648032168
 40
0.5195287341716108
 40
0.6295876423687684
 40
0.6881776950847716
 40
0.6881776950847716
 40
0.6881776950847716
 40
0.6881776950847716
 10
21.7958916087976
 20
-54.02905874196718
 30
0.0
 10
21.96434807490783
 20
-54.25618214255377
 30
0.0
 10
22.23870952665417
 20
-54.60492003928561
 30
0.0
 10
22.63844632405346
 20
-55.07546347751638
 30
0.0
 10
22.98630475694696
 20
-55.46382284699401
 30
0.0
 10
23.37091142676332
 20
-55.87119425315638
 30
0.0
 10
23.79348757248789
 20
-56.29589569770347
 30
0.0
 10
24.17384002643996
 20
-56.65861800282297
 30
0.0
 10
24.41399589963952
 20
-56.87885899989035
 30
0.0
 10
24.49792838134988
 20
-56.9548198576972
 30
0.0
  0
ARC
  5
107
330
1F
100
AcDbEntity
  8
0
  6
Continuous
 62
     7
370
    25
100
AcDbCircle
 10
0.0
 20
0.0
 30
0.0
 40
62.00000000000001
100
AcDbArc
 50
293.2739496673
 51
294.7260503327
  0
SPLINE
  5
108
330
1F
100
AcDbEntity
  8
0
  6
Continuous
 62
     7
370
    25
100
AcDbSpline
210
0.0
220
0.0
230
1.0
 70
     8
 71
     3
 72
    14
 73
    10
 74
     0
 42
0.00000001
 43
0.00000001
 40
0.3118223049152294
 40
0.3118223049152294
 40
0.3118223049152294
 40
0.3118223049152294
 40
0.3704123576312316
 40
0.4804712658283892
 40
0.5838242351967832
 40
0.6804712657452302
 40
0.7704123574844981
 40
0.8536475104279715
 40
1.0
 40
1.0
 40
1.0
 40
1.0
 10
25.93336599089563
 20
-56.31572185795672
 30
0.0
 10
25.9330778648577
 20
-56.20252013364036
 30
0.0
 10
25.93010255258377
 20
-55.87667954725133
 30
0.0
 10
25.915052816592
 20
-55.35131399327473
 30
0.0
 10
25.88219676832555
 20
-54.75309798209805
 30
0.0
 10
25.83681290997242
 20
-54.19469484956126
 30
0.0
 10
25.78096837824853
 20
-53.67632251477405
 30
0.0
 10
25.69876258259274
 20
-53.06440516609234
 30
0.0
 10
25.62318346375712
 20
-52.62716367261607
 30
0.0
 10
25.56711726117977
 20
-52.35000090275526
 30
0.0
  0
LINE
  5
109
330
1F
100
AcDbEntity
  8
0
  6
Continuous
 62
     7
370
    25
100
AcDbLine
 10
25.5671172612
 20
-52.3500009028
 30
0.0
 11
25.560759771
 21
-52.3147784306
 31
0.0
  0
SPLINE
  5
10A
330
1F
100
AcDbEntity
  8
0
  6
Continuous
 62
     7
370
    25
100
AcDbSpline
210
0.0
220
0.0
230
1.0
 70
     8
 71
     3
 72
    15
 73
    11
 74
     0
 42
0.00000001
 43
0.00000001
 40
0.0
 40
0.0
 40
0.0
 40
0.0
 40
0.0913942292267501
 40
0.1562608672127009
 40
0.2267227674849005
 40
0.3059893555533331
 40
0.3985747306771407
 40
0.5104191907761346
 40
0.6478782966083095
 40
1.0
 40
1.0
 40
1.0
 40
1.0
 10
25.56075977103063
 20
-52.31477843063143
 30
0.0
 10
25.55365328334137
 20
-52.2789733361049
 30
0.0
 10
25.54488733192639
 20
-52.21712901123556
 30
0.0
 10
25.53778221472796
 20
-52.12682425619872
 30
0.0
 10
25.53690318037634
 20
-52.04105200221515
 30
0.0
 10
25.54387991832831
 20
-51.9444058427442
 30
0.0
 10
25.563822542861
 20
-51.83262239865768
 30
0.0
 10
25.60572062528477
 20
-51.70214066380901
 30
0.0
 10
25.71812913513981
 20
-51.48816814920732
 30
0.0
 10
25.86817754297263
 20
-51.35216023944163
 30
0.0
 10
25.99448812562059
 20
-51.2887569267083
 30
0.0
  0
ARC
  5
10B
330
1F
100
AcDbEntity
  8
0
  6
Continuous
 62
     7
370
    25
100
AcDbCircle
 10
0.0
 20
0.0
 30
0.0
 40
57.49999999999999
100
AcDbArc
 50
296.8770881273
 51
297.1229118727
  0
SPLINE
  5
10C
330
1F
100
AcDbEntity
  8
0
  6
Continuous
 62
     7
370
    25
100
AcDbSpline
210
0.0
220
0.0
230
1.0
 70
     8
 71
     3
 72
    15
 73
    11
 74
     0
 42
0.00000001
 43
0.00000001
 40
0.0
 40
0.0
 40
0.0
 40
0.0
 40
0.3521217033916905
 40
0.4895808092238654
 40
0.6014252693228592
 40
0.6940106444466669
 40
0.7732772325150995
 40
0.8437391327872991
 40
0.9086057707732499
 40
1.0
 40
1.0
 40
1.0
 40
1.0
 10
26.21429921294063
 20
-51.1767575836377
 30
0.0
 10
26.33983706813051
 20
-51.11183770787724
 30
0.0
 10
26.53806601975446
 20
-51.07038943951699
 30
0.0
 10
26.77724548472133
 20
-51.10521893321071
 30
0.0
 10
26.90743450061746
 20
-51.14801791193574
 30
0.0
 10
27.00959118716554
 20
-51.19758864966088
 30
0.0
 10
27.0918803962959
 20
-51.24875153732018
 30
0.0
 10
27.16075492398629
 20
-51.29987835699668
 30
0.0
 10
27.22963672237892
 20
-51.3587063207798
 30
0.0
 10
27.27451733523981
 20
-51.40214930654255
 30
0.0
 10
27.29930717653764
 20
-51.42894428237311
 30
0.0
  0
LINE
  5
10D
330
1F
100
AcDbEntity
  8
0
  6
Continuous
 62
     7
370
    25
100
AcDbLine
 10
27.2993071765
 20
-51.4289442824
 30
0.0
 11
27.3240659161
 21
-51.4547908496
 31
0.0
  0
SPLINE
  5
10E
330
1F
100
AcDbEntity
  8
0
  6
Continuous
 62
     7
370
    25
100
AcDbSpline
210
0.0
220
0.0
230
1.0
 70
     8
 71
     3
 72
    14
 73
    10
 74
     0
 42
0.00000001
 43
0.00000001
 40
0.0
 40
0.0
 40
0.0
 40
0.0
 40
0.1463524895720285
 40
0.2295876425155019
 40
0.3195287342547698
 40
0.4161757648032168
 40
0.5195287341716108
 40
0.6295876423687684
 40
0.6881776950847723
 40
0.6881776950847723
 40
0.6881776950847723
 40
0.6881776950847723
 10
27.32406591611845
 20
-51.45479084960901
 30
0.0
 10
27.51534042011688
 20
-51.66306154891288
 30
0.0
 10
27.82465192755221
 20
-51.98121044202645
 30
0.0
 10
28.27138410744913
 20
-52.40739232092513
 30
0.0
 10
28.65793154353731
 20
-52.75726310971701
 30
0.0
 10
29.08301320483969
 20
-53.12220054853406
 30
0.0
 10
29.54766782356917
 20
-53.5004041990045
 30
0.0
 10
29.9638514721286
 20
-53.82138181587261
 30
0.0
 10
30.22571319929883
 20
-54.01531318534361
 30
0.0
 10
30.31712596182742
 20
-54.08208458829205
 30
0.0
  0
ARC
  5
10F
330
1F
100
AcDbEntity
  8
0
  6
Continuous
 62
     7
370
    25
100
AcDbCircle
 10
0.0
 20
0.0
 30
0.0
 40
62.0
100
AcDbArc
 50
299.2739496673
 51
300.7260503327
  0
SPLINE
  5
110
330
1F
100
AcDbEntity
  8
0
  6
Continuous
 62
     7
370
    25
100
AcDbSpline
210
0.0
220
0.0
230
1.0
 70
     8
 71
     3
 72
    14
 73
    10
 74
     0
 42
0.00000001
 43
0.00000001
 40
0.3118223049152286
 40
0.3118223049152286
 40
0.3118223049152286
 40
0.3118223049152286
 40
0.3704123576312316
 40
0.4804712658283892
 40
0.5838242351967832
 40
0.6804712657452302
 40
0.7704123574844981
 40
0.8536475104279715
 40
1.0
 40
1.0
 40
1.0
 40
1.0
 10
31.67789616216546
 20
-53.29644354682167
 30
0.0
 10
31.66577681223009
 20
-53.18389207076758
 30
0.0
 10
31.62875818326261
 20
-52.86014747802378
 30
0.0
 10
31.55887523728837
 20
-52.33923305729758
 30
0.0
 10
31.4636685775417
 20
-51.74772852825684
 30
0.0
 10
31.3601643153853
 20
-51.19712829147757
 30
0.0
 10
31.25044104229353
 20
-50.68743299766152
 30
0.0
 10
31.10472279848317
 20
-50.08746064173346
 30
0.0
 10
30.98385352857857
 20
-49.66051457205479
 30
0.0
 10
30.89912306411669
 20
-49.39073064284396
 30
0.0
  0
LINE
  5
111
330
1F
100
AcDbEntity
  8
0
  6
Continuous
 62
     7
370
    25
100
AcDbLine
 10
30.8991230641
 20
-49.3907306428
 30
0.0
 11
30.8891186501
 21
-49.3563656618
 31
0.0
  0
SPLINE
  5
112
330
1F
100
AcDbEntity
  8
0
  6
Continuous
 62
     7
370
    25
100
AcDbSpline
210
0.0
220
0.0
230
1.0
 70
     8
 71
     3
 72
    15
 73
    11
 74
     0
 42
0.00000001
 43
0.00000001
 40
0.0
 40
0.0
 40
0.0
 40
0.0
 40
0.0913942292267501
 40
0.1562608672127009
 40
0.2267227674849005
 40
0.3059893555533331
 40
0.3985747306771407
 40
0.5104191907761346
 40
0.6478782966083095
 40
1.0
 40
1.0
 40
1.0
 40
1.0
 10
30.88911865008018
 20
-49.35636566178335
 30
0.0
 10
30.87830844096604
 20
-49.32149954154837
 30
0.0
 10
30.86312601810969
 20
-49.26091029779202
 30
0.0
 10
30.84662040621694
 20
-49.17184292863411
 30
0.0
 10
30.83678054540756
 20
-49.08663242814231
 30
0.0
 10
30.83361678952883
 20
-48.98978643874844
 30
0.0
 10
30.84176561464856
 20
-48.87653078416879
 30
0.0
 10
30.86979511976472
 20
-48.74238429974654
 30
0.0
 10
30.95922162590844
 20
-48.5178340601748
 30
0.0
 10
31.09423135506328
 20
-48.36688688648302
 30
0.0
 10
31.21322254427731
 20
-48.29062785263222
 30
0.0
  0
ARC
  5
113
330
1F
100
AcDbEntity
  8
0
  6
Continuous
 62
     7
370
    25
100
AcDbCircle
 10
0.0
 20
0.0
 30
0.0
 40
57.49999999999999
100
AcDbArc
 50
302.8770881273
 51
303.1229118727
  0
SPLINE
  5
114
330
1F
100
AcDbEntity
  8
0
  6
Continuous
 62
     7
370
    25
100
AcDbSpline
210
0.0
220
0.0
230
1.0
 70
     8
 71
     3
 72
    15
 73
    11
 74
     0
 42
0.00000001
 43
0.00000001
 40
0.0
 40
0.0
 40
0.0
 40
0.0
 40
0.3521217033916905
 40
0.4895808092238654
 40
0.6014252693228592
 40
0.6940106444466669
 40
0.7732772325150995
 40
0.8437391327872991
 40
0.9086057707732499
 40
1.0
 40
1.0
 40
1.0
 40
1.0
 10
31.42012236424366
 20
-48.15626553851487
 30
0.0
 10
31.5381865350788
 20
-48.07857902154158
 30
0.0
 10
31.73099704396791
 20
-48.0166372434438
 30
0.0
 10
31.97250693225213
 20
-48.02627487560863
 30
0.0
 10
32.10645647057283
 20
-48.05523093928412
 30
0.0
 10
32.21323508514062
 20
-48.09385184186394
 30
0.0
 10
32.30042148339667
 20
-48.13613288929748
 30
0.0
 10
32.37426291711046
 20
-48.17978028236854
 30
0.0
 10
32.44891657045569
 20
-48.23108587187769
 30
0.0
 10
32.49809235116493
 20
-48.26959957092605
 30
0.0
 10
32.52554722876519
 20
-48.29365651705991
 30
0.0
  0
LINE
  5
115
330
1F
100
AcDbEntity
  8
0
  6
Continuous
 62
     7
370
    25
100
AcDbLine
 10
32.5255472288
 20
-48.2936565171
 30
0.0
 11
32.5528720393
 21
-48.3167735011
 31
0.0
  0
SPLINE
  5
116
330
1F
100
AcDbEntity
  8
0
  6
Continuous
 62
     7
370
    25
100
AcDbSpline
210
0.0
220
0.0
230
1.0
 70
     8
 71
     3
 72
    14
 73
    10
 74
     0
 42
0.00000001
 43
0.00000001
 40
0.0
 40
0.0
 40
0.0
 40
0.0
 40
0.1463524895720285
 40
0.2295876425155019
 40
0.3195287342547698
 40
0.4161757648032168
 40
0.5195287341716108
 40
0.6295876423687684
 40
0.6881776950847736
 40
0.6881776950847736
 40
0.6881776950847736
 40
0.6881776950847736
 10
32.55287203933393
 20
-48.31677350109529
 30
0.0
 10
32.76486893772799
 20
-48.50390964175141
 30
0.0
 10
33.10574161924927
 20
-48.78798382539682
 30
0.0
 10
33.59457469039615
 20
-49.16513480711391
 30
0.0
 10
34.01557603507896
 20
-49.47268375764286
 30
0.0
 10
34.47647540423208
 20
-49.79118889816682
 30
0.0
 10
34.97811764272844
 20
-50.11875107622188
 30
0.0
 10
35.42557269074958
 20
-50.3944673068993
 30
0.0
 10
35.70627126000954
 20
-50.55996429610726
 30
0.0
 10
35.80416276600075
 20
-50.61681468273377
 30
0.0
  0
ARC
  5
117
330
1F
100
AcDbEntity
  8
0
  6
Continuous
 62
     7
370
    25
100
AcDbCircle
 10
0.0
 20
0.0
 30
0.0
 40
62.00000000000001
100
AcDbArc
 50
305.2739496673
 51
306.7260503327
  0
SPLINE
  5
118
330
1F
100
AcDbEntity
  8
0
  6
Continuous
 62
     7
370
    25
100
AcDbSpline
210
0.0
220
0.0
230
1.0
 70
     8
 71
     3
 72
    14
 73
    10
 74
     0
 42
0.00000001
 43
0.00000001
 40
0.3118223049152281
 40
0.3118223049152281
 40
0.3118223049152281
 40
0.3118223049152281
 40
0.3704123576312316
 40
0.4804712658283892
 40
0.5838242351967832
 40
0.6804712657452302
 40
0.7704123574844981
 40
0.8536475104279715
 40
1.0
 40
1.0
 40
1.0
 40
1.0
 10
37.07535667405671
 20
-49.6932382471898
 30
0.0
 10
37.05153888235789
 20
-49.58257015692253
 30
0.0
 10
36.98088252054251
 20
-49.26446857132999
 30
0.0
 10
36.85693201676581
 20
-48.75371253125599
 30
0.0
 10
36.70041784962638
 20
-48.17540013175164
 30
0.0
 10
36.53992719802257
 20
-47.63863528214457
 30
0.0
 10
36.37752733470398
 20
-47.14320135759932
 30
0.0
 10
36.16989316231173
 20
-46.56174741710873
 30
0.0
 10
36.00505801035276
 20
-46.14977448171128
 30
0.0
 10
35.89259160870598
 20
-45.89032520233479
 30
0.0
  0
LINE
  5
119
330
1F
100
AcDbEntity
  8
0
  6
Continuous
 62
     7
370
    25
100
AcDbLine
 10
35.8925916087
 20
-45.8903252023
 30
0.0
 11
35.8790498812
 21
-45.8571942223
 31
0.0
  0
SPLINE
  5
11A
330
1F
100
AcDbEntity
  8
0
  6
Continuous
 62
     7
370
    25
100
AcDbSpline
210
0.0
220
0.0
230
1.0
 70
     8
 71
     3
 72
    15
 73
    11
 74
     0
 42
0.00000001
 43
0.00000001
 40
0.0
 40
0.0
 40
0.0
 40
0.0
 40
0.0913942292267501
 40
0.1562608672127009
 40
0.2267227674849005
 40
0.3059893555533331
 40
0.3985747306771407
 40
0.5104191907761346
 40
0.6478782966083095
 40
1.0
 40
1.0
 40
1.0
 40
1.0
 10
35.87904988123584
 20
-45.85719422226121
 30
0.0
 10
35.86465438961005
 20
-45.82364907682729
 30
0.0
 10
35.84322183711428
 20
-45.76497874261764
 30
0.0
 10
35.81749656946511
 20
-45.67812460007369
 30
0.0
 10
35.79880368977214
 20
-45.59440943714848
 30
0.0
 10
35.78553410283415
 20
-45.49842468275784
 30
0.0
 10
35.78179984830768
 20
-45.38493767033691
 30
0.0
 10
35.79565367899262
 20
-45.24859617329635
 30
0.0
 10
35.86111840591002
 20
-45.01592842816947
 30
0.0
 10
35.97961026154164
 20
-44.8516957993743
 30
0.0
 10
36.08997836495221
 20
-44.76341655433912
 30
0.0
  0
ARC
  5
11B
330
1F
100
AcDbEntity
  8
0
  6
Continuous
 62
     7
370
    25
100
AcDbCircle
 10
0.0
 20
0.0
 30
0.0
 40
57.5
100
AcDbArc
 50
308.8770881273
 51
309.1229118727
  0
SPLINE
  5
11C
330
1F
100
AcDbEntity
  8
0
  6
Continuous
 62
     7
370
    25
100
AcDbSpline
210
0.0
220
0.0
230
1.0
 70
     8
 71
     3
 72
    15
 73
    11
 74
     0
 42
0.00000001
 43
0.00000001
 40
0.0
 40
0.0
 40
0.0
 40
0.0
 40
0.3521217033916905
 40
0.4895808092238654
 40
0.6014252693228592
 40
0.6940106444466669
 40
0.7732772325150995
 40
0.8437391327872991
 40
0.9086057707732499
 40
1.0
 40
1.0
 40
1.0
 40
1.0
 10
36.28170007984071
 20
-44.60816337080564
 30
0.0
 10
36.39099703055891
 20
-44.51856136235645
 30
0.0
 10
36.57627662442961
 20
-44.43680472160413
 30
0.0
 10
36.81747090315594
 20
-44.42114490032527
 30
0.0
 10
36.95371338472862
 20
-44.43594080025814
 30
0.0
 10
37.06394403847006
 20
-44.46318872900205
 30
0.0
 10
37.15507239342757
 20
-44.49612469620625
 30
0.0
 10
37.23307171096467
 20
-44.53181445269959
 30
0.0
 10
37.31267929821418
 20
-44.57503555315972
 30
0.0
 10
37.36561146662763
 20
-44.60819800134742
 30
0.0
 10
37.39543057914602
 20
-44.62925334484847
 30
0.0
  0
LINE
  5
11D
330
1F
100
AcDbEntity
  8
0
  6
Continuous
 62
     7
370
    25
100
AcDbLine
 10
37.3954305791
 20
-44.6292533448
 30
0.0
 11
37.4250220844
 21
-44.6493874712
 31
0.0
  0
SPLINE
  5
11E
330
1F
100
AcDbEntity
  8
0
  6
Continuous
 62
     7
370
    25
100
AcDbSpline
210
0.0
220
0.0
230
1.0
 70
     8
 71
     3
 72
    14
 73
    10
 74
     0
 42
0.00000001
 43
0.00000001
 40
0.0
 40
0.0
 40
0.0
 40
0.0
 40
0.1463524895720285
 40
0.2295876425155019
 40
0.3195287342547698
 40
0.4161757648032168
 40
0.5195287341716108
 40
0.6295876423687684
 40
0.6881776950847696
 40
0.6881776950847696
 40
0.6881776950847696
 40
0.6881776950847696
 10
37.42502208436004
 20
-44.64938747116871
 30
0.0
 10
37.6554186947677
 20
-44.81333875045929
 30
0.0
 10
38.02411787794398
 20
-45.06022584843419
 30
0.0
 10
38.54969608291845
 20
-45.38421378789008
 30
0.0
 10
39.00053875736337
 20
-45.64607132949534
 30
0.0
 10
39.49220612442939
 20
-45.91465456275517
 30
0.0
 10
40.02533988535227
 20
-46.18798642862527
 30
0.0
 10
40.49916392169301
 20
-46.41542046839137
 30
0.0
 10
40.79562394077791
 20
-46.55066985769002
 30
0.0
 10
40.89892167040698
 20
-46.59697636326202
 30
0.0
  0
ARC
  5
11F
330
1F
100
AcDbEntity
  8
0
  6
Continuous
 62
     7
370
    25
100
AcDbCircle
 10
0.0
 20
0.0
 30
0.0
 40
61.99999999999999
100
AcDbArc
 50
311.2739496673
 51
312.7260503327
  0
SPLINE
  5
120
330
1F
100
AcDbEntity
  8
0
  6
Continuous
 62
     7
370
    25
100
AcDbSpline
210
0.0
220
0.0
230
1.0
 70
     8
 71
     3
 72
    14
 73
    10
 74
     0
 42
0.00000001
 43
0.00000001
 40
0.3118223049152295
 40
0.3118223049152295
 40
0.3118223049152295
 40
0.3118223049152295
 40
0.3704123576312316
 40
0.4804712658283892
 40
0.5838242351967832
 40
0.6804712657452302
 40
0.7704123574844981
 40
0.8536475104279715
 40
1.0
 40
1.0
 40
1.0
 40
1.0
 10
42.06661181970976
 20
-45.54558343034306
 30
0.0
 10
42.03135653895759
 20
-45.43801122861839
 30
0.0
 10
41.92783657018012
 20
-45.12903783771588
 30
0.0
 10
41.75117653625867
 20
-44.63403612835174
 30
0.0
 10
41.53506966369436
 20
-44.0752519700524
 30
0.0
 10
41.31935099180693
 20
-43.55820341563508
 30
0.0
 10
41.10605382514839
 20
-43.08245893811417
 30
0.0
 10
40.83877860761723
 20
-42.52589394411013
 30
0.0
 10
40.63178354202271
 20
-42.13340780468499
 30
0.0
 10
40.49281340862258
 20
-41.88713575574091
 30
0.0
  0
LINE
  5
121
330
1F
100
AcDbEntity
  8
0
  6
Continuous
 62
     7
370
    25
100
AcDbLine
 10
40.4928134086
 20
-41.8871357557
 30
0.0
 11
40.4758827337
 21
-41.8556017666
 31
0.0
  0
SPLINE
  5
122
330
1F
100
AcDbEntity
  8
0
  6
Continuous
 62
     7
370
    25
100
AcDbSpline
210
0.0
220
0.0
230
1.0
 70
     8
 71
     3
 72
    15
 73
    11
 74
     0
 42
0.00000001
 43
0.00000001
 40
0.0
 40
0.0
 40
0.0
 40
0.0
 40
0.0913942292267501
 40
0.1562608672127009
 40
0.2267227674849005
 40
0.3059893555533331
 40
0.3985747306771407
 40
0.5104191907761346
 40
0.6478782966083095
 40
1.0
 40
1.0
 40
1.0
 40
1.0
 10
40.47588273371878
 20
-41.85560176660519
 30
0.0
 10
40.45805967960005
 20
-41.82374512360547
 30
0.0
 10
40.43061181699503
 20
-41.76763650340169
 30
0.0
 10
40.39594874500518
 20
-41.68394717963281
 30
0.0
 10
40.36860764953025
 20
-41.60264455511771
 30
0.0
 10
40.34537761590436
 20
-41.5085726647855
 30
0.0
 10
40.32980119500571
 20
-41.39609768198005
 30
0.0
 10
40.32932756579135
 20
-41.25905495829407
 30
0.0
 10
40.37011326823494
 20
-41.0208188641165
 30
0.0
 10
40.47078902877704
 20
-40.84510014726691
 30
0.0
 10
40.57132483034717
 20
-40.74576789692956
 30
0.0
  0
ARC
  5
123
330
1F
100
AcDbEntity
  8
0
  6
Continuous
 62
     7
370
    25
100
AcDbCircle
 10
0.0
 20
0.0
 30
0.0
 40
57.49999999999999
100
AcDbArc
 50
314.8770881273
 51
315.1229118727
  0
SPLINE
  5
124
330
1F
100
AcDbEntity
  8
0
  6
Continuous
 62
     7
370
    25
100
AcDbSpline
210
0.0
220
0.0
230
1.0
 70
     8
 71
     3
 72
    15
 73
    11
 74
     0
 42
0.00000001
 43
0.00000001
 40
0.0
 40
0.0
 40
0.0
 40
0.0
 40
0.3521217033916905
 40
0.4895808092238654
 40
0.6014252693228592
 40
0.6940106444466669
 40
0.7732772325150995
 40
0.8437391327872991
 40
0.9086057707732499
 40
1.0
 40
1.0
 40
1.0
 40
1.0
 10
40.74576789692916
 20
-40.57132483034756
 30
0.0
 10
40.84510014726651
 20
-40.47078902877745
 30
0.0
 10
41.0208188641161
 20
-40.37011326823534
 30
0.0
 10
41.25905495829367
 20
-40.32932756579174
 30
0.0
 10
41.39609768197965
 20
-40.32980119500611
 30
0.0
 10
41.5085726647851
 20
-40.34537761590477
 30
0.0
 10
41.60264455511732
 20
-40.36860764953067
 30
0.0
 10
41.6839471796324
 20
-40.39594874500558
 30
0.0
 10
41.76763650340131
 20
-40.43061181699545
 30
0.0
 10
41.82374512360506
 20
-40.45805967960045
 30
0.0
 10
41.85560176660479
 20
-40.4758827337192
 30
0.0
  0
LINE
  5
125
330
1F
100
AcDbEntity
  8
0
  6
Continuous
 62
     7
370
    25
100
AcDbLine
 10
41.8556017666
 20
-40.4758827337
 30
0.0
 11
41.8871357557
 21
-40.4928134086
 31
0.0
  0
SPLINE
  5
126
330
1F
100
AcDbEntity
  8
0
  6
Continuous
 62
     7
370
    25
100
AcDbSpline
210
0.0
220
0.0
230
1.0
 70
     8
 71
     3
 72
    14
 73
    10
 74
     0
 42
0.00000001
 43
0.00000001
 40
0.0
 40
0.0
 40
0.0
 40
0.0
 40
0.1463524895720285
 40
0.2295876425155019
 40
0.3195287342547698
 40
0.4161757648032168
 40
0.5195287341716108
 40
0.6295876423687684
 40
0.6881776950847729
 40
0.6881776950847729
 40
0.6881776950847729
 40
0.6881776950847729
 10
41.88713575574051
 20
-40.49281340862299
 30
0.0
 10
42.13340780468459
 20
-40.63178354202313
 30
0.0
 10
42.52589394410972
 20
-40.83877860761763
 30
0.0
 10
43.08245893811376
 20
-41.10605382514881
 30
0.0
 10
43.55820341563467
 20
-41.31935099180734
 30
0.0
 10
44.07525197005199
 20
-41.53506966369478
 30
0.0
 10
44.63403612835133
 20
-41.7511765362591
 30
0.0
 10
45.12903783771548
 20
-41.92783657018057
 30
0.0
 10
45.43801122861799
 20
-42.03135653895803
 30
0.0
 10
45.54558343034267
 20
-42.0666118197102
 30
0.0
  0
ARC
  5
127
330
1F
100
AcDbEntity
  8
0
  6
Continuous
 62
     7
370
    25
100
AcDbCircle
 10
0.0
 20
0.0
 30
0.0
 40
62.0
100
AcDbArc
 50
317.2739496673
 51
318.7260503327
  0
SPLINE
  5
128
330
1F
100
AcDbEntity
  8
0
  6
Continuous
 62
     7
370
    25
100
AcDbSpline
210
0.0
220
0.0
230
1.0
 70
     8
 71
     3
 72
    14
 73
    10
 74
     0
 42
0.00000001
 43
0.00000001
 40
0.3118223049152287
 40
0.3118223049152287
 40
0.3118223049152287
 40
0.3118223049152287
 40
0.3704123576312316
 40
0.4804712658283892
 40
0.5838242351967832
 40
0.6804712657452302
 40
0.7704123574844981
 40
0.8536475104279715
 40
1.0
 40
1.0
 40
1.0
 40
1.0
 10
46.59697636326162
 20
-40.89892167040743
 30
0.0
 10
46.55066985768963
 20
-40.79562394077837
 30
0.0
 10
46.41542046839098
 20
-40.49916392169347
 30
0.0
 10
46.18798642862489
 20
-40.02533988535272
 30
0.0
 10
45.91465456275478
 20
-39.49220612442983
 30
0.0
 10
45.64607132949496
 20
-39.00053875736382
 30
0.0
 10
45.3842137878897
 20
-38.54969608291889
 30
0.0
 10
45.06022584843382
 20
-38.02411787794443
 30
0.0
 10
44.81333875045892
 20
-37.65541869476814
 30
0.0
 10
44.64938747116834
 20
-37.42502208436046
 30
0.0
  0
LINE
  5
129
330
1F
100
AcDbEntity
  8
0
  6
Continuous
 62
     7
370
    25
100
AcDbLine
 10
44.6493874712
 20
-37.4250220844
 30
0.0
 11
44.6292533448
 21
-37.3954305791
 31
0.0
  0
SPLINE
  5
12A
330
1F
100
AcDbEntity
  8
0
  6
Continuous
 62
     7
370
    25
100
AcDbSpline
210
0.0
220
0.0
230
1.0
 70
     8
 71
     3
 72
    15
 73
    11
 74
     0
 42
0.00000001
 43
0.00000001
 40
0.0
 40
0.0
 40
0.0
 40
0.0
 40
0.0913942292267501
 40
0.1562608672127009
 40
0.2267227674849005
 40
0.3059893555533331
 40
0.3985747306771407
 40
0.5104191907761346
 40
0.6478782966083095
 40
1.0
 40
1.0
 40
1.0
 40
1.0
 10
44.6292533448481
 20
-37.39543057914646
 30
0.0
 10
44.60819800134706
 20
-37.36561146662807
 30
0.0
 10
44.57503555315934
 20
-37.31267929821459
 30
0.0
 10
44.53181445269923
 20
-37.23307171096512
 30
0.0
 10
44.49612469620588
 20
-37.155072393428
 30
0.0
 10
44.46318872900167
 20
-37.0639440384705
 30
0.0
 10
44.43594080025778
 20
-36.95371338472906
 30
0.0
 10
44.4211449003249
 20
-36.81747090315638
 30
0.0
 10
44.43680472160376
 20
-36.57627662443004
 30
0.0
 10
44.51856136235609
 20
-36.39099703055935
 30
0.0
 10
44.60816337080529
 20
-36.28170007984114
 30
0.0
  0
ARC
  5
12B
330
1F
100
AcDbEntity
  8
0
  6
Continuous
 62
     7
370
    25
100
AcDbCircle
 10
0.0
 20
0.0
 30
0.0
 40
57.49999999999999
100
AcDbArc
 50
320.8770881273
 51
321.1229118727
  0
SPLINE
  5
12C
330
1F
100
AcDbEntity
  8
0
  6
Continuous
 62
     7
370
    25
100
AcDbSpline
210
0.0
220
0.0
230
1.0
 70
     8
 71
     3
 72
    15
 73
    11
 74
     0
 42
0.00000001
 43
0.00000001
 40
0.0
 40
0.0
 40
0.0
 40
0.0
 40
0.3521217033916905
 40
0.4895808092238654
 40
0.6014252693228592
 40
0.6940106444466669
 40
0.7732772325150995
 40
0.8437391327872991
 40
0.9086057707732499
 40
1.0
 40
1.0
 40
1.0
 40
1.0
 10
44.76341655433876
 20
-36.08997836495264
 30
0.0
 10
44.85169579937395
 20
-35.97961026154208
 30
0.0
 10
45.01592842816911
 20
-35.86111840591045
 30
0.0
 10
45.24859617329601
 20
-35.79565367899306
 30
0.0
 10
45.38493767033656
 20
-35.78179984830812
 30
0.0
 10
45.49842468275749
 20
-35.7855341028346
 30
0.0
 10
45.59440943714814
 20
-35.79880368977259
 30
0.0
 10
45.67812460007334
 20
-35.81749656946555
 30
0.0
 10
45.76497874261732
 20
-35.84322183711473
 30
0.0
 10
45.82364907682693
 20
-35.8646543896105
 30
0.0
 10
45.85719422226086
 20
-35.8790498812363
 30
0.0
  0
LINE
  5
12D
330
1F
100
AcDbEntity
  8
0
  6
Continuous
 62
     7
370
    25
100
AcDbLine
 10
45.8571942223
 20
-35.8790498812
 30
0.0
 11
45.8903252023
 21
-35.8925916087
 31
0.0
  0
SPLINE
  5
12E
330
1F
100
AcDbEntity
  8
0
  6
Continuous
 62
     7
370
    25
100
AcDbSpline
210
0.0
220
0.0
230
1.0
 70
     8
 71
     3
 72
    14
 73
    10
 74
     0
 42
0.00000001
 43
0.00000001
 40
0.0
 40
0.0
 40
0.0
 40
0.0
 40
0.1463524895720285
 40
0.2295876425155019
 40
0.3195287342547698
 40
0.4161757648032168
 40
0.5195287341716108
 40
0.6295876423687684
 40
0.6881776950847727
 40
0.6881776950847727
 40
0.6881776950847727
 40
0.6881776950847727
 10
45.89032520233442
 20
-35.89259160870642
 30
0.0
 10
46.14977448171094
 20
-36.0050580103532
 30
0.0
 10
46.56174741710837
 20
-36.16989316231218
 30
0.0
 10
47.14320135759897
 20
-36.37752733470444
 30
0.0
 10
47.6386352821442
 20
-36.53992719802303
 30
0.0
 10
48.17540013175129
 20
-36.70041784962685
 30
0.0
 10
48.75371253125563
 20
-36.85693201676629
 30
0.0
 10
49.26446857132962
 20
-36.98088252054299
 30
0.0
 10
49.58257015692217
 20
-37.05153888235838
 30
0.0
 10
49.69323824718943
 20
-37.07535667405718
 30
0.0
  0
ARC
  5
12F
330
1F
100
AcDbEntity
  8
0
  6
Continuous
 62
     7
370
    25
100
AcDbCircle
 10
0.0
 20
0.0
 30
0.0
 40
62.00000000000001
100
AcDbArc
 50
323.2739496673
 51
324.7260503327
  0
SPLINE
  5
130
330
1F
100
AcDbEntity
  8
0
  6
Continuous
 62
     7
370
    25
100
AcDbSpline
210
0.0
220
0.0
230
1.0
 70
     8
 71
     3
 72
    14
 73
    10
 74
     0
 42
0.00000001
 43
0.00000001
 40
0.3118223049152272
 40
0.3118223049152272
 40
0.3118223049152272
 40
0.3118223049152272
 40
0.3704123576312316
 40
0.4804712658283892
 40
0.5838242351967832
 40
0.6804712657452302
 40
0.7704123574844981
 40
0.8536475104279715
 40
1.0
 40
1.0
 40
1.0
 40
1.0
 10
50.61681468273341
 20
-35.80416276600123
 30
0.0
 10
50.55996429610691
 20
-35.70627126001003
 30
0.0
 10
50.39446730689895
 20
-35.42557269075008
 30
0.0
 10
50.11875107622154
 20
-34.97811764272893
 30
0.0
 10
49.7911888981665
 20
-34.47647540423257
 30
0.0
 10
49.47268375764253
 20
-34.01557603507946
 30
0.0
 10
49.16513480711358
 20
-33.59457469039663
 30
0.0
 10
48.78798382539651
 20
-33.10574161924975
 30
0.0
 10
48.50390964175109
 20
-32.76486893772846
 30
0.0
 10
48.31677350109497
 20
-32.55287203933441
 30
0.0
  0
LINE
  5
131
330
1F
100
AcDbEntity
  8
0
  6
Continuous
 62
     7
370
    25
100
AcDbLine
 10
48.3167735011
 20
-32.5528720393
 30
0.0
 11
48.2936565171
 21
-32.5255472288
 31
0.0
  0
SPLINE
  5
132
330
1F
100
AcDbEntity
  8
0
  6
Continuous
 62
     7
370
    25
100
AcDbSpline
210
0.0
220
0.0
230
1.0
 70
     8
 71
     3
 72
    15
 73
    11
 74
     0
 42
0.00000001
 43
0.00000001
 40
0.0
 40
0.0
 40
0.0
 40
0.0
 40
0.0913942292267501
 40
0.1562608672127009
 40
0.2267227674849005
 40
0.3059893555533331
 40
0.3985747306771407
 40
0.5104191907761346
 40
0.6478782966083095
 40
1.0
 40
1.0
 40
1.0
 40
1.0
 10
48.29365651705958
 20
-32.52554722876566
 30
0.0
 10
48.26959957092575
 20
-32.49809235116541
 30
0.0
 10
48.23108587187735
 20
-32.44891657045615
 30
0.0
 10
48.17978028236823
 20
-32.37426291711093
 30
0.0
 10
48.13613288929715
 20
-32.30042148339713
 30
0.0
 10
48.09385184186362
 20
-32.21323508514109
 30
0.0
 10
48.05523093928381
 20
-32.10645647057329
 30
0.0
 10
48.02627487560832
 20
-31.9725069322526
 30
0.0
 10
48.01663724344349
 20
-31.73099704396838
 30
0.0
 10
48.07857902154127
 20
-31.53818653507926
 30
0.0
 10
48.15626553851455
 20
-31.42012236424414
 30
0.0
  0
ARC
  5
133
330
1F
100
AcDbEntity
  8
0
  6
Continuous
 62
     7
370
    25
100
AcDbCircle
 10
0.0
 20
0.0
 30
0.0
 40
57.50000000000001
100
AcDbArc
 50
326.8770881273
 51
327.1229118727
  0
SPLINE
  5
134
330
1F
100
AcDbEntity
  8
0
  6
Continuous
 62
     7
370
    25
100
AcDbSpline
210
0.0
220
0.0
230
1.0
 70
     8
 71
     3
 72
    15
 73
    11
 74
     0
 42
0.00000001
 43
0.00000001
 40
0.0
 40
0.0
 40
0.0
 40
0.0
 40
0.3521217033916905
 40
0.4895808092238654
 40
0.6014252693228592
 40
0.6940106444466669
 40
0.7732772325150995
 40
0.8437391327872991
 40
0.9086057707732499
 40
1.0
 40
1.0
 40
1.0
 40
1.0
 10
48.29062785263191
 20
-31.21322254427781
 30
0.0
 10
48.36688688648271
 20
-31.09423135506378
 30
0.0
 10
48.51783406017449
 20
-30.95922162590895
 30
0.0
 10
48.74238429974623
 20
-30.86979511976523
 30
0.0
 10
48.87653078416848
 20
-30.84176561464907
 30
0.0
 10
48.98978643874813
 20
-30.83361678952933
 30
0.0
 10
49.08663242814201
 20
-30.83678054540808
 30
0.0
 10
49.17184292863379
 20
-30.84662040621744
 30
0.0
 10
49.26091029779172
 20
-30.86312601811021
 30
0.0
 10
49.32149954154805
 20
-30.87830844096655
 30
0.0
 10
49.35636566178304
 20
-30.88911865008069
 30
0.0
  0
LINE
  5
135
330
1F
100
AcDbEntity
  8
0
  6
Continuous
 62
     7
370
    25
100
AcDbLine
 10
49.3563656618
 20
-30.8891186501
 30
0.0
 11
49.3907306428
 21
-30.8991230641
 31
0.0
  0
SPLINE
  5
136
330
1F
100
AcDbEntity
  8
0
  6
Continuous
 62
     7
370
    25
100
AcDbSpline
210
0.0
220
0.0
230
1.0
 70
     8
 71
     3
 72
    14
 73
    10
 74
     0
 42
0.00000001
 43
0.00000001
 40
0.0
 40
0.0
 40
0.0
 40
0.0
 40
0.1463524895720285
 40
0.2295876425155019
 40
0.3195287342547698
 40
0.4161757648032168
 40
0.5195287341716108
 40
0.6295876423687684
 40
0.6881776950847696
 40
0.6881776950847696
 40
0.6881776950847696
 40
0.6881776950847696
 10
49.39073064284366
 20
-30.89912306411721
 30
0.0
 10
49.66051457205448
 20
-30.98385352857909
 30
0.0
 10
50.08746064173313
 20
-31.10472279848368
 30
0.0
 10
50.68743299766121
 20
-31.25044104229405
 30
0.0
 10
51.19712829147725
 20
-31.36016431538583
 30
0.0
 10
51.74772852825653
 20
-31.46366857754223
 30
0.0
 10
52.33923305729726
 20
-31.55887523728891
 30
0.0
 10
52.86014747802346
 20
-31.62875818326316
 30
0.0
 10
53.18389207076726
 20
-31.66577681223064
 30
0.0
 10
53.29644354682134
 20
-31.67789616216601
 30
0.0
  0
ARC
  5
137
330
1F
100
AcDbEntity
  8
0
  6
Continuous
 62
     7
370
    25
100
AcDbCircle
 10
0.0
 20
0.0
 30
0.0
 40
62.00000000000001
100
AcDbArc
 50
329.2739496673
 51
330.7260503327
  0
SPLINE
  5
138
330
1F
100
AcDbEntity
  8
0
  6
Continuous
 62
     7
370
    25
100
AcDbSpline
210
0.0
220
0.0
230
1.0
 70
     8
 71
     3
 72
    14
 73
    10
 74
     0
 42
0.00000001
 43
0.00000001
 40
0.3118223049152304
 40
0.3118223049152304
 40
0.3118223049152304
 40
0.3118223049152304
 40
0.3704123576312316
 40
0.4804712658283892
 40
0.5838242351967832
 40
0.6804712657452302
 40
0.7704123574844981
 40
0.8536475104279715
 40
1.0
 40
1.0
 40
1.0
 40
1.0
 10
54.08208458829174
 20
-30.31712596182798
 30
0.0
 10
54.0153131853433
 20
-30.22571319929939
 30
0.0
 10
53.8213818158723
 20
-29.96385147212915
 30
0.0
 10
53.50040419900421
 20
-29.54766782356973
 30
0.0
 10
53.12220054853377
 20
-29.08301320484024
 30
0.0
 10
52.75726310971672
 20
-28.65793154353786
 30
0.0
 10
52.40739232092486
 20
-28.27138410744967
 30
0.0
 10
51.9812104420262
 20
-27.82465192755275
 30
0.0
 10
51.6630615489126
 20
-27.5153404201174
 30
0.0
 10
51.45479084960874
 20
-27.32406591611898
 30
0.0
  0
LINE
  5
139
330
1F
100
AcDbEntity
  8
0
  6
Continuous
 62
     7
370
    25
100
AcDbLine
 10
51.4547908496
 20
-27.3240659161
 30
0.0
 11
51.4289442824
 21
-27.2993071765
 31
0.0
  0
SPLINE
  5
13A
330
1F
100
AcDbEntity
  8
0
  6
Continuous
 62
     7
370
    25
100
AcDbSpline
210
0.0
220
0.0
230
1.0
 70
     8
 71
     3
 72
    15
 73
    11
 74
     0
 42
0.00000001
 43
0.00000001
 40
0.0
 40
0.0
 40
0.0
 40
0.0
 40
0.0913942292267501
 40
0.1562608672127009
 40
0.2267227674849005
 40
0.3059893555533331
 40
0.3985747306771407
 40
0.5104191907761346
 40
0.6478782966083095
 40
1.0
 40
1.0
 40
1.0
 40
1.0
 10
51.42894428237284
 20
-27.29930717653817
 30
0.0
 10
51.40214930654228
 20
-27.27451733524035
 30
0.0
 10
51.35870632077951
 20
-27.22963672237944
 30
0.0
 10
51.29987835699642
 20
-27.16075492398682
 30
0.0
 10
51.2487515373199
 20
-27.09188039629642
 30
0.0
 10
51.1975886496606
 20
-27.00959118716606
 30
0.0
 10
51.14801791193547
 20
-26.90743450061798
 30
0.0
 10
51.10521893321044
 20
-26.77724548472186
 30
0.0
 10
51.07038943951673
 20
-26.53806601975499
 30
0.0
 10
51.11183770787699
 20
-26.33983706813103
 30
0.0
 10
51.17675758363745
 20
-26.21429921294116
 30
0.0
  0
ARC
  5
13B
330
1F
100
AcDbEntity
  8
0
  6
Continuous
 62
     7
370
    25
100
AcDbCircle
 10
0.0
 20
0.0
 30
0.0
 40
57.49999999999999
100
AcDbArc
 50
332.8770881273
 51
333.1229118727
  0
SPLINE
  5
13C
330
1F
100
AcDbEntity
  8
0
  6
Continuous
 62
     7
370
    25
100
AcDbSpline
210
0.0
220
0.0
230
1.0
 70
     8
 71
     3
 72
    15
 73
    11
 74
     0
 42
0.00000001
 43
0.00000001
 40
0.0
 40
0.0
 40
0.0
 40
0.0
 40
0.3521217033916905
 40
0.4895808092238654
 40
0.6014252693228592
 40
0.6940106444466669
 40
0.7732772325150995
 40
0.8437391327872991
 40
0.9086057707732499
 40
1.0
 40
1.0
 40
1.0
 40
1.0
 10
51.28875692670805
 20
-25.99448812562111
 30
0.0
 10
51.35216023944137
 20
-25.86817754297314
 30
0.0
 10
51.48816814920707
 20
-25.71812913514033
 30
0.0
 10
51.70214066380876
 20
-25.60572062528529
 30
0.0
 10
51.83262239865742
 20
-25.56382254286152
 30
0.0
 10
51.94440584274395
 20
-25.54387991832883
 30
0.0
 10
52.04105200221492
 20
-25.53690318037687
 30
0.0
 10
52.12682425619845
 20
-25.53778221472848
 30
0.0
 10
52.21712901123532
 20
-25.54488733192692
 30
0.0
 10
52.27897333610463
 20
-25.55365328334189
 30
0.0
 10
52.31477843063118
 20
-25.56075977103115
 30
0.0
  0
LINE
  5
13D
330
1F
100
AcDbEntity
  8
0
  6
Continuous
 62
     7
370
    25
100
AcDbLine
 10
52.3147784306
 20
-25.560759771
 30
0.0
 11
52.3500009028
 21
-25.5671172612
 31
0.0
  0
SPLINE
  5
13E
330
1F
100
AcDbEntity
  8
0
  6
Continuous
 62
     7
370
    25
100
AcDbSpline
210
0.0
220
0.0
230
1.0
 70
     8
 71
     3
 72
    14
 73
    10
 74
     0
 42
0.00000001
 43
0.00000001
 40
0.0
 40
0.0
 40
0.0
 40
0.0
 40
0.1463524895720285
 40
0.2295876425155019
 40
0.3195287342547698
 40
0.4161757648032168
 40
0.5195287341716108
 40
0.6295876423687684
 40
0.6881776950847709
 40
0.6881776950847709
 40
0.6881776950847709
 40
0.6881776950847709
 10
52.35000090275501
 20
-25.5671172611803
 30
0.0
 10
52.62716367261582
 20
-25.62318346375765
 30
0.0
 10
53.06440516609207
 20
-25.69876258259327
 30
0.0
 10
53.6763225147738
 20
-25.78096837824906
 30
0.0
 10
54.194694849561
 20
-25.83681290997296
 30
0.0
 10
54.75309798209779
 20
-25.8821967683261
 30
0.0
 10
55.35131399327447
 20
-25.91505281659256
 30
0.0
 10
55.87667954725107
 20
-25.93010255258432
 30
0.0
 10
56.20252013364011
 20
-25.93307786485827
 30
0.0
 10
56.31572185795645
 20
-25.93336599089619
 30
0.0
  0
ARC
  5
13F
330
1F
100
AcDbEntity
  8
0
  6
Continuous
 62
     7
370
    25
100
AcDbCircle
 10
0.0
 20
0.0
 30
0.0
 40
62.00000000000001
100
AcDbArc
 50
335.2739496673
 51
336.7260503327
  0
SPLINE
  5
140
330
1F
100
AcDbEntity
  8
0
  6
Continuous
 62
     7
370
    25
100
AcDbSpline
210
0.0
220
0.0
230
1.0
 70
     8
 71
     3
 72
    14
 73
    10
 74
     0
 42
0.00000001
 43
0.00000001
 40
0.3118223049152289
 40
0.3118223049152289
 40
0.3118223049152289
 40
0.3118223049152289
 40
0.3704123576312316
 40
0.4804712658283892
 40
0.5838242351967832
 40
0.6804712657452302
 40
0.7704123574844981
 40
0.8536475104279715
 40
1.0
 40
1.0
 40
1.0
 40
1.0
 10
56.95481985769695
 20
-24.49792838135045
 30
0.0
 10
56.87885899989011
 20
-24.41399589964009
 30
0.0
 10
56.65861800282272
 20
-24.17384002644053
 30
0.0
 10
56.29589569770324
 20
-23.79348757248847
 30
0.0
 10
55.87119425315615
 20
-23.37091142676388
 30
0.0
 10
55.46382284699379
 20
-22.98630475694752
 30
0.0
 10
55.07546347751616
 20
-22.63844632405401
 30
0.0
 10
54.60492003928541
 20
-22.23870952665472
 30
0.0
 10
54.25618214255355
 20
-21.96434807490837
 30
0.0
 10
54.02905874196696
 20
-21.79589160879814
 30
0.0
  0
LINE
  5
141
330
1F
100
AcDbEntity
  8
0
  6
Continuous
 62
     7
370
    25
100
AcDbLine
 10
54.029058742
 20
-21.7958916088
 30
0.0
 11
54.0007657719
 21
-21.7739702021
 31
0.0
  0
SPLINE
  5
142
330
1F
100
AcDbEntity
  8
0
  6
Continuous
 62
     7
370
    25
100
AcDbSpline
210
0.0
220
0.0
230
1.0
 70
     8
 71
     3
 72
    15
 73
    11
 74
     0
 42
0.00000001
 43
0.00000001
 40
0.0
 40
0.0
 40
0.0
 40
0.0
 40
0.0913942292267501
 40
0.1562608672127009
 40
0.2267227674849005
 40
0.3059893555533331
 40
0.3985747306771407
 40
0.5104191907761346
 40
0.6478782966083095
 40
1.0
 40
1.0
 40
1.0
 40
1.0
 10
54.00076577192991
 20
-21.77397020213722
 30
0.0
 10
53.97152633776506
 20
-21.7521169998307
 30
0.0
 10
53.92363003573094
 20
-21.71202327620452
 30
0.0
 10
53.85792422915564
 20
-21.64966801616212
 30
0.0
 10
53.79987813900903
 20
-21.58651499823342
 30
0.0
 10
53.74039396242769
 20
-21.5100245560241
 30
0.0
 10
53.6804164969331
 20
-21.41360904753121
 30
0.0
 10
53.62424351772571
 20
-21.28860693216162
 30
0.0
 10
53.56460376172455
 20
-21.0543783907818
 30
0.0
 10
53.58510440444551
 20
-20.85290283429907
 30
0.0
 10
53.63654636324897
 20
-20.7212667137664
 30
0.0
  0
ARC
  5
143
330
1F
100
AcDbEntity
  8
0
  6
Continuous
 62
     7
370
    25
100
AcDbCircle
 10
0.0
 20
0.0
 30
0.0
 40
57.5
100
AcDbArc
 50
338.8770881273
 51
339.1229118727
  0
SPLINE
  5
144
330
1F
100
AcDbEntity
  8
0
  6
Continuous
 62
     7
370
    25
100
AcDbSpline
210
0.0
220
0.0
230
1.0
 70
     8
 71
     3
 72
    15
 73
    11
 74
     0
 42
0.00000001
 43
0.00000001
 40
0.0
 40
0.0
 40
0.0
 40
0.0
 40
0.3521217033916905
 40
0.4895808092238654
 40
0.6014252693228592
 40
0.6940106444466669
 40
0.7732772325150995
 40
0.8437391327872991
 40
0.9086057707732499
 40
1.0
 40
1.0
 40
1.0
 40
1.0
 10
53.72495564703279
 20
-20.49095265536376
 30
0.0
 10
53.77480857868633
 20
-20.35870656445755
 30
0.0
 10
53.89438709340506
 20
-20.19526343970261
 30
0.0
 10
54.0954375553901
 20
-20.06110449729322
 30
0.0
 10
54.22082495547311
 20
-20.00579688172061
 30
0.0
 10
54.32991146626091
 20
-19.97427895334261
 30
0.0
 10
54.42529892026131
 20
-19.95723816016092
 30
0.0
 10
54.51069318897295
 20
-19.94914673717048
 30
0.0
 10
54.60124593209507
 20
-19.94677351452371
 30
0.0
 10
54.66366775871237
 20
-19.94902695289922
 30
0.0
 10
54.70001953942213
 20
-19.95235185899734
 30
0.0
  0
LINE
  5
145
330
1F
100
AcDbEntity
  8
0
  6
Continuous
 62
     7
370
    25
100
AcDbLine
 10
54.7000195394
 20
-19.952351859
 30
0.0
 11
54.7357135978
 21
-19.9549927713
 31
0.0
  0
SPLINE
  5
146
330
1F
100
AcDbEntity
  8
0
  6
Continuous
 62
     7
370
    25
100
AcDbSpline
210
0.0
220
0.0
230
1.0
 70
     8
 71
     3
 72
    14
 73
    10
 74
     0
 42
0.00000001
 43
0.00000001
 40
0.0
 40
0.0
 40
0.0
 40
0.0
 40
0.1463524895720285
 40
0.2295876425155019
 40
0.3195287342547698
 40
0.4161757648032168
 40
0.5195287341716108
 40
0.6295876423687684
 40
0.688177695084772
 40
0.688177695084772
 40
0.688177695084772
 40
0.688177695084772
 10
54.7357135978338
 20
-19.95499277126667
 30
0.0
 10
55.01721855503796
 20
-19.98178043891144
 30
0.0
 10
55.45996496301063
 20
-20.01124134603618
 30
0.0
 10
56.0771230099219
 20
-20.02903402963751
 30
0.0
 10
56.59849298990395
 20
-20.03038797561775
 30
0.0
 10
57.15858103662484
 20
-20.01715419511832
 30
0.0
 10
57.75695435013425
 20
-19.98729965416419
 30
0.0
 10
58.28101502241206
 20
-19.94735129211658
 30
0.0
 10
58.60538162479534
 20
-19.9162506895531
 30
0.0
 10
58.71799333559337
 20
-19.9047044349244
 30
0.0
  0
ARC
  5
147
330
1F
100
AcDbEntity
  8
0
  6
Continuous
 62
     7
370
    25
100
AcDbCircle
 10
0.0
 20
0.0
 30
0.0
 40
62.00000000000001
100
AcDbArc
 50
341.2739496673
 51
342.7260503327
  0
SPLINE
  5
148
330
1F
100
AcDbEntity
  8
0
  6
Continuous
 62
     7
370
    25
100
AcDbSpline
210
0.0
220
0.0
230
1.0
 70
     8
 71
     3
 72
    14
 73
    10
 74
     0
 42
0.00000001
 43
0.00000001
 40
0.3118223049152264
 40
0.3118223049152264
 40
0.3118223049152264
 40
0.3118223049152264
 40
0.3704123576312316
 40
0.4804712658283892
 40
0.5838242351967832
 40
0.6804712657452302
 40
0.7704123574844981
 40
0.8536475104279715
 40
1.0
 40
1.0
 40
1.0
 40
1.0
 10
59.20354620217895
 20
-18.41032637100577
 30
0.0
 10
59.11922813256767
 20
-18.33479375194726
 30
0.0
 10
58.87509051435616
 20
-18.11897493072099
 30
0.0
 10
58.47459758246467
 20
-17.77862089245565
 30
0.0
 10
58.00805146174191
 20
-17.40275305241828
 30
0.0
 10
57.56270933460809
 20
-17.06283520524657
 30
0.0
 10
57.1401163309661
 20
-16.75747698533257
 30
0.0
 10
56.63036670578008
 20
-16.40911517043352
 30
0.0
 10
56.25486065080464
 20
-16.17270973585533
 30
0.0
 10
56.01137296044077
 20
-16.02891695192778
 30
0.0
  0
LINE
  5
149
330
1F
100
AcDbEntity
  8
0
  6
Continuous
 62
     7
370
    25
100
AcDbLine
 10
56.0113729604
 20
-16.0289169519
 30
0.0
 11
55.9809435713
 21
-16.0100730537
 31
0.0
  0
SPLINE
  5
14A
330
1F
100
AcDbEntity
  8
0
  6
Continuous
 62
     7
370
    25
100
AcDbSpline
210
0.0
220
0.0
230
1.0
 70
     8
 71
     3
 72
    15
 73
    11
 74
     0
 42
0.00000001
 43
0.00000001
 40
0.0
 40
0.0
 40
0.0
 40
0.0
 40
0.0913942292267501
 40
0.1562608672127009
 40
0.2267227674849005
 40
0.3059893555533331
 40
0.3985747306771407
 40
0.5104191907761346
 40
0.6478782966083095
 40
1.0
 40
1.0
 40
1.0
 40
1.0
 10
55.980943571303
 20
-16.01007305370548
 30
0.0
 10
55.9495800321633
 20
-15.99139591864779
 30
0.0
 10
55.89775517576587
 20
-15.95652835948254
 30
0.0
 10
55.82589141296501
 20
-15.90138281506807
 30
0.0
 10
55.76156201745889
 20
-15.84464322458111
 30
0.0
 10
55.69440827304199
 20
-15.77478959458434
 30
0.0
 10
55.62468120544099
 20
-15.68517161263393
 30
0.0
 10
55.55574966866639
 20
-15.56672594712524
 30
0.0
 10
55.47195307600495
 20
-15.34001458624729
 30
0.0
 10
55.47128148375494
 20
-15.13749983326409
 30
0.0
 10
55.50868191673582
 20
-15.00120768027181
 30
0.0
  0
ARC
  5
14B
330
1F
100
AcDbEntity
  8
0
  6
Continuous
 62
     7
370
    25
100
AcDbCircle
 10
0.0
 20
0.0
 30
0.0
 40
57.49999999999999
100
AcDbArc
 50
344.8770881273
 51
345.1229118727
  0
SPLINE
  5
14C
330
1F
100
AcDbEntity
  8
0
  6
Continuous
 62
     7
370
    25
100
AcDbSpline
210
0.0
220
0.0
230
1.0
 70
     8
 71
     3
 72
    15
 73
    11
 74
     0
 42
0.00000001
 43
0.00000001
 40
0.0
 40
0.0
 40
0.0
 40
0.0
 40
0.3521217033916905
 40
0.4895808092238654
 40
0.6014252693228592
 40
0.6940106444466669
 40
0.7732772325150995
 40
0.8437391327872991
 40
0.9086057707732499
 40
1.0
 40
1.0
 40
1.0
 40
1.0
 10
55.5725325106189
 20
-14.76291401980672
 30
0.0
 10
55.60828886204106
 20
-14.62618133648849
 30
0.0
 10
55.71012785448217
 20
-14.45113421188893
 30
0.0
 10
55.89605351291652
 20
-14.2966947103728
 30
0.0
 10
56.01497280763957
 20
-14.22858352346142
 30
0.0
 10
56.12016721048864
 20
-14.18583560825697
 30
0.0
 10
56.21325087411132
 20
-14.15891746234166
 30
0.0
 10
56.29733156007318
 20
-14.14194423333268
 30
0.0
 10
56.38714017647752
 20
-14.13011867236467
 30
0.0
 10
56.44945559824777
 20
-14.12583490855831
 30
0.0
 10
56.4859557874242
 20
-14.1253418046983
 30
0.0
  0
LINE
  5
14D
330
1F
100
AcDbEntity
  8
0
  6
Continuous
 62
     7
370
    25
100
AcDbLine
 10
56.4859557874
 20
-14.1253418047
 30
0.0
 11
56.5217303606
 21
-14.1242372047
 31
0.0
  0
SPLINE
  5
14E
330
1F
100
AcDbEntity
  8
0
  6
Continuous
 62
     7
370
    25
100
AcDbSpline
210
0.0
220
0.0
230
1.0
 70
     8
 71
     3
 72
    14
 73
    10
 74
     0
 42
0.00000001
 43
0.00000001
 40
0.0
 40
0.0
 40
0.0
 40
0.0
 40
0.1463524895720285
 40
0.2295876425155019
 40
0.3195287342547698
 40
0.4161757648032168
 40
0.5195287341716108
 40
0.6295876423687684
 40
0.6881776950847701
 40
0.6881776950847701
 40
0.6881776950847701
 40
0.6881776950847701
 10
56.52173036055031
 20
-14.12423720470033
 30
0.0
 10
56.80449327787798
 20
-14.12145284612012
 30
0.0
 10
57.24789377805067
 20
-14.10447276167043
 30
0.0
 10
57.8635308104809
 20
-14.05765739285242
 30
0.0
 10
58.38218619705342
 20
-14.0045059189735
 30
0.0
 10
58.93782271611257
 20
-13.93279949169
 30
0.0
 10
59.52979742871426
 20
-13.84056145411343
 30
0.0
 10
60.04681150090106
 20
-13.74605267664077
 30
0.0
 10
60.36615029090478
 20
-13.68121690394977
 30
0.0
 10
60.47693819071547
 20
-13.65796277183638
 30
0.0
  0
ARC
  5
14F
330
1F
100
AcDbEntity
  8
0
  6
Continuous
 62
     7
370
    25
100
AcDbCircle
 10
0.0
 20
0.0
 30
0.0
 40
62.0
100
AcDbArc
 50
347.2739496673
 51
348.7260503327
  0
SPLINE
  5
150
330
1F
100
AcDbEntity
  8
0
  6
Continuous
 62
     7
370
    25
100
AcDbSpline
210
0.0
220
0.0
230
1.0
 70
     8
 71
     3
 72
    14
 73
    10
 74
     0
 42
0.00000001
 43
0.00000001
 40
0.3118223049152305
 40
0.3118223049152305
 40
0.3118223049152305
 40
0.3118223049152305
 40
0.3704123576312316
 40
0.4804712658283892
 40
0.5838242351967832
 40
0.6804712657452302
 40
0.7704123574844981
 40
0.8536475104279715
 40
1.0
 40
1.0
 40
1.0
 40
1.0
 10
60.80362610533133
 20
-12.12101697233184
 30
0.0
 10
60.71187463033096
 20
-12.05471176710581
 30
0.0
 10
60.44651521380955
 20
-11.86559455402119
 30
0.0
 10
60.01263953951643
 20
-11.56896792150948
 30
0.0
 10
59.50936031954766
 20
-11.24392647387017
 30
0.0
 10
59.03092673298109
 20
-10.9524216604091
 30
0.0
 10
58.57873011255593
 20
-10.69290922203231
 30
0.0
 10
58.03535922398014
 20
-10.39973911457694
 30
0.0
 10
57.63719913367911
 20
-10.20387980457915
 30
0.0
 10
57.38001485562668
 20
-10.08632612666557
 30
0.0
  0
LINE
  5
151
330
1F
100
AcDbEntity
  8
0
  6
Continuous
 62
     7
370
    25
100
AcDbLine
 10
57.3800148556
 20
-10.0863261267
 30
0.0
 11
57.3477824381
 21
-10.0707661946
 31
0.0
  0
SPLINE
  5
152
330
1F
100
AcDbEntity
  8
0
  6
Continuous
 62
     7
370
    25
100
AcDbSpline
210
0.0
220
0.0
230
1.0
 70
     8
 71
     3
 72
    15
 73
    11
 74
     0
 42
0.00000001
 43
0.00000001
 40
0.0
 40
0.0
 40
0.0
 40
0.0
 40
0.0913942292267501
 40
0.1562608672127009
 40
0.2267227674849005
 40
0.3059893555533331
 40
0.3985747306771407
 40
0.5104191907761346
 40
0.6478782966083095
 40
1.0
 40
1.0
 40
1.0
 40
1.0
 10
57.34778243814333
 20
-10.07076619457414
 30
0.0
 10
57.31463841952683
 20
-10.05546975736543
 30
0.0
 10
57.25945281273784
 20
-10.02621037893583
 30
0.0
 10
57.18221844813513
 20
-9.978878736273847
 30
0.0
 10
57.11231055358845
 20
-9.929174224055526
 30
0.0
 10
57.03822299181265
 20
-9.866722737259346
 30
0.0
 10
56.95951026644921
 20
-9.784884155215442
 30
0.0
 10
56.87857540044914
 20
-9.674292655065306
 30
0.0
 10
56.7715400641322
 20
-9.457582371801408
 30
0.0
 10
56.74970359501643
 20
-9.256247216330356
 30
0.0
 10
56.77265273520445
 20
-9.116792276227619
 30
0.0
  0
ARC
  5
153
330
1F
100
AcDbEntity
  8
0
  6
Continuous
 62
     7
370
    25
100
AcDbCircle
 10
0.0
 20
0.0
 30
0.0
 40
57.49999999999999
100
AcDbArc
 50
350.8770881273
 51
351.1229118727
  0
SPLINE
  5
154
330
1F
100
AcDbEntity
  8
0
  6
Continuous
 62
     7
370
    25
100
AcDbSpline
210
0.0
220
0.0
230
1.0
 70
     8
 71
     3
 72
    15
 73
    11
 74
     0
 42
0.00000001
 43
0.00000001
 40
0.0
 40
0.0
 40
0.0
 40
0.0
 40
0.3521217033916905
 40
0.4895808092238654
 40
0.6014252693228592
 40
0.6940106444466669
 40
0.7732772325150995
 40
0.8437391327872991
 40
0.9086057707732499
 40
1.0
 40
1.0
 40
1.0
 40
1.0
 10
56.81124507871858
 20
-8.87312980891032
 30
0.0
 10
56.83251309584069
 20
-8.733408605071672
 30
0.0
 10
56.91549679669179
 20
-8.548675333555547
 30
0.0
 10
57.08426061115422
 20
-8.375647344429822
 30
0.0
 10
57.19540889583887
 20
-8.295478826596659
 30
0.0
 10
57.29555865885823
 20
-8.24196927967032
 30
0.0
 10
57.38531868800555
 20
-8.205468701861019
 30
0.0
 10
57.4671645856272
 20
-8.17979962908241
 30
0.0
 10
57.55524511331878
 20
-8.158651293113769
 30
0.0
 10
57.61677138944072
 20
-8.147877260938241
 30
0.0
 10
57.65302008337304
 20
-8.143571549669177
 30
0.0
  0
LINE
  5
155
330
1F
100
AcDbEntity
  8
0
  6
Continuous
 62
     7
370
    25
100
AcDbLine
 10
57.6530200834
 20
-8.1435715497
 30
0.0
 11
57.6884832175
 21
-8.1387335396
 31
0.0
  0
SPLINE
  5
156
330
1F
100
AcDbEntity
  8
0
  6
Continuous
 62
     7
370
    25
100
AcDbSpline
210
0.0
220
0.0
230
1.0
 70
     8
 71
     3
 72
    14
 73
    10
 74
     0
 42
0.00000001
 43
0.00000001
 40
0.0
 40
0.0
 40
0.0
 40
0.0
 40
0.1463524895720285
 40
0.2295876425155019
 40
0.3195287342547698
 40
0.4161757648032168
 40
0.5195287341716108
 40
0.6295876423687684
 40
0.6881776950847746
 40
0.6881776950847746
 40
0.6881776950847746
 40
0.6881776950847746
 10
57.6884832175041
 20
-8.138733539632652
 30
0.0
 10
57.96940608526111
 20
-8.106407660842738
 30
0.0
 10
58.40860268896642
 20
-8.043172622177153
 30
0.0
 10
59.01597365875797
 20
-7.932262119917313
 30
0.0
 10
59.52623195497006
 20
-7.825187564849713
 30
0.0
 10
60.07132927639024
 20
-7.695794121404999
 30
0.0
 10
60.65041958925426
 20
-7.542183166447739
 30
0.0
 10
61.15472254698302
 20
-7.394149431493247
 30
0.0
 10
61.46553478199798
 20
-7.296288842968085
 30
0.0
 10
61.57328505540715
 20
-7.261581610507662
 30
0.0
  0
ARC
  5
157
330
1F
100
AcDbEntity
  8
0
  6
Continuous
 62
     7
370
    25
100
AcDbCircle
 10
0.0
 20
0.0
 30
0.0
 40
62.00000000000001
100
AcDbArc
 50
353.2739496673
 51
354.7260503327
  0
SPLINE
  5
158
330
1F
100
AcDbEntity
  8
0
  6
Continuous
 62
     7
370
    25
100
AcDbSpline
210
0.0
220
0.0
230
1.0
 70
     8
 71
     3
 72
    14
 73
    10
 74
     0
 42
0.00000001
 43
0.00000001
 40
0.3118223049152266
 40
0.3118223049152266
 40
0.3118223049152266
 40
0.3118223049152266
 40
0.3704123576312316
 40
0.4804712658283892
 40
0.5838242351967832
 40
0.6804712657452302
 40
0.7704123574844981
 40
0.8536475104279715
 40
1.0
 40
1.0
 40
1.0
 40
1.0
 10
61.73752875689694
 20
-5.698907175223209
 30
0.0
 10
61.63934912486781
 20
-5.642555837533361
 30
0.0
 10
61.35567524333391
 20
-5.482212240352268
 30
0.0
 10
60.89317045932101
 20
-5.23256291705308
 30
0.0
 10
60.35867217255819
 20
-4.961909083931462
 30
0.0
 10
59.85238894505194
 20
-4.722011091918626
 30
0.0
 10
59.37554306864522
 20
-4.511187707660364
 30
0.0
 10
58.80450420184255
 20
-4.276421340695734
 30
0.0
 10
58.38805240148564
 20
-4.123254030864888
 30
0.0
 10
58.11998930051425
 20
-4.033227401660188
 30
0.0
  0
LINE
  5
159
330
1F
100
AcDbEntity
  8
0
  6
Continuous
 62
     7
370
    25
100
AcDbLine
 10
58.1199893005
 20
-4.0332274017
 30
0.0
 11
58.0863069998
 21
-4.0211219136
 31
0.0
  0
SPLINE
  5
15A
330
1F
100
AcDbEntity
  8
0
  6
Continuous
 62
     7
370
    25
100
AcDbSpline
210
0.0
220
0.0
230
1.0
 70
     8
 71
     3
 72
    15
 73
    11
 74
     0
 42
0.00000001
 43
0.00000001
 40
0.0
 40
0.0
 40
0.0
 40
0.0
 40
0.0913942292267501
 40
0.1562608672127009
 40
0.2267227674849005
 40
0.3059893555533331
 40
0.3985747306771407
 40
0.5104191907761346
 40
0.6478782966083095
 40
1.0
 40
1.0
 40
1.0
 40
1.0
 10
58.08630699979635
 20
-4.021121913571751
 30
0.0
 10
58.05174563450684
 20
-4.009373765179061
 30
0.0
 10
57.9938039023826
 20
-3.986043139358102
 30
0.0
 10
57.91204513183896
 20
-3.947043973830387
 30
0.0
 10
57.83732466377353
 20
-3.904919112917911
 30
0.0
 10
57.75711500346947
 20
-3.850554000880478
 30
0.0
 10
57.67027901343436
 20
-3.777391459373771
 30
0.0
 10
57.57822755753745
 20
-3.675865788200598
 30
0.0
 10
57.44912617910826
 20
-3.471530905763738
 30
0.0
 10
57.40636407805196
 20
-3.273581217900264
 30
0.0
 10
57.41461048986479
 20
-3.132491388193652
 30
0.0
  0
ARC
  5
15B
330
1F
100
AcDbEntity
  8
0
  6
Continuous
 62
     7
370
    25
100
AcDbCircle
 10
0.0
 20
0.0
 30
0.0
 40
57.5
100
AcDbArc
 50
356.8770881273
 51
357.1229118727
  0
SPLINE
  5
15C
330
1F
100
AcDbEntity
  8
0
  6
Continuous
 62
     7
370
    25
100
AcDbSpline
210
0.0
220
0.0
230
1.0
 70
     8
 71
     3
 72
    15
 73
    11
 74
     0
 42
0.00000001
 43
0.00000001
 40
0.0
 40
0.0
 40
0.0
 40
0.0
 40
0.3521217033916905
 40
0.4895808092238654
 40
0.6014252693228592
 40
0.6940106444466669
 40
0.7732772325150995
 40
0.8437391327872991
 40
0.9086057707732499
 40
1.0
 40
1.0
 40
1.0
 40
1.0
 10
57.42752175721851
 20
-2.886129731005715
 30
0.0
 10
57.43406842319435
 20
-2.744950821394439
 30
0.0
 10
57.49728764566347
 20
-2.552555379342413
 30
0.0
 10
57.64704060448662
 20
-2.362834633464392
 30
0.0
 10
57.74920011526658
 20
-2.271487127767168
 30
0.0
 10
57.84320797669493
 20
-2.207802210912653
 30
0.0
 10
57.92866094170403
 20
-2.162119109178082
 30
0.0
 10
58.00737533020378
 20
-2.1280354283628
 30
0.0
 10
58.09276274048919
 20
-2.097796022987976
 30
0.0
 10
58.15282577620643
 20
-2.080649764994404
 30
0.0
 10
58.18842582661839
 20
-2.072578620589981
 30
0.0
  0
LINE
  5
15D
330
1F
100
AcDbEntity
  8
0
  6
Continuous
 62
     7
370
    25
100
AcDbLine
 10
58.1884258266
 20
-2.0725786206
 30
0.0
 11
58.2231889802
 21
-2.0640602068
 31
0.0
  0
SPLINE
  5
15E
330
1F
100
AcDbEntity
  8
0
  6
Continuous
 62
     7
370
    25
100
AcDbSpline
210
0.0
220
0.0
230
1.0
 70
     8
 71
     3
 72
    14
 73
    10
 74
     0
 42
0.00000001
 43
0.00000001
 40
0.0
 40
0.0
 40
0.0
 40
0.0
 40
0.1463524895720285
 40
0.2295876425155019
 40
0.3195287342547698
 40
0.4161757648032168
 40
0.5195287341716108
 40
0.6295876423687684
 40
0.6881776950847716
 40
0.6881776950847716
 40
0.6881776950847716
 40
0.6881776950847716
 10
58.22318898023571
 20
-2.064060206765272
 30
0.0
 10
58.49919394869602
 20
-2.002546976858298
 30
0.0
 10
58.92937472603595
 20
-1.893749800293227
 30
0.0
 10
59.52182514974324
 20
-1.719959323263827
 30
0.0
 10
60.0180958589232
 20
-1.560134818239663
 30
0.0
 10
60.54668178238197
 20
-1.374472020277433
 30
0.0
 10
61.10654306085814
 20
-1.161171141707147
 30
0.0
 10
61.59260965539182
 20
-0.9612343378490442
 30
0.0
 10
61.89149001152953
 20
-0.831421114576249
 30
0.0
 10
61.9950221239935
 20
-0.7856410414705947
 30
0.0
  0
ARC
  5
15F
330
1F
100
AcDbEntity
  8
0
  6
Continuous
 62
     7
370
    25
100
AcDbCircle
 10
0.0
 20
0.0
 30
0.0
 40
62.00000000000001
100
AcDbArc
 50
359.2739496673
 51
0.7260503327
  0
SPLINE
  5
160
330
1F
100
AcDbEntity
  8
0
  6
Continuous
 62
     7
370
    25
100
AcDbSpline
210
0.0
220
0.0
230
1.0
 70
     8
 71
     3
 72
    14
 73
    10
 74
     0
 42
0.00000001
 43
0.00000001
 40
0.3118223049152272
 40
0.3118223049152272
 40
0.3118223049152272
 40
0.3118223049152272
 40
0.3704123576312316
 40
0.4804712658283892
 40
0.5838242351967832
 40
0.6804712657452302
 40
0.7704123574844981
 40
0.8536475104279715
 40
1.0
 40
1.0
 40
1.0
 40
1.0
 10
61.99502212399351
 20
0.785641041470174
 30
0.0
 10
61.89149001152953
 20
0.83142111457583
 30
0.0
 10
61.59260965539183
 20
0.9612343378486282
 30
0.0
 10
61.10654306085816
 20
1.161171141706736
 30
0.0
 10
60.54668178238199
 20
1.374472020277024
 30
0.0
 10
60.01809585892322
 20
1.560134818239258
 30
0.0
 10
59.52182514974326
 20
1.719959323263427
 30
0.0
 10
58.92937472603597
 20
1.893749800292829
 30
0.0
 10
58.49919394869603
 20
2.002546976857905
 30
0.0
 10
58.22318898023573
 20
2.064060206764879
 30
0.0
  0
LINE
  5
161
330
1F
100
AcDbEntity
  8
0
  6
Continuous
 62
     7
370
    25
100
AcDbLine
 10
58.2231889802
 20
2.0640602068
 30
0.0
 11
58.1884258266
 21
2.0725786206
 31
0.0
  0
SPLINE
  5
162
330
1F
100
AcDbEntity
  8
0
  6
Continuous
 62
     7
370
    25
100
AcDbSpline
210
0.0
220
0.0
230
1.0
 70
     8
 71
     3
 72
    15
 73
    11
 74
     0
 42
0.00000001
 43
0.00000001
 40
0.0
 40
0.0
 40
0.0
 40
0.0
 40
0.0913942292267501
 40
0.1562608672127009
 40
0.2267227674849005
 40
0.3059893555533331
 40
0.3985747306771407
 40
0.5104191907761346
 40
0.6478782966083095
 40
1.0
 40
1.0
 40
1.0
 40
1.0
 10
58.18842582661841
 20
2.072578620589589
 30
0.0
 10
58.15282577620645
 20
2.080649764994011
 30
0.0
 10
58.09276274048919
 20
2.097796022987585
 30
0.0
 10
58.00737533020381
 20
2.128035428362409
 30
0.0
 10
57.92866094170403
 20
2.162119109177691
 30
0.0
 10
57.84320797669494
 20
2.207802210912263
 30
0.0
 10
57.7492001152666
 20
2.271487127766779
 30
0.0
 10
57.64704060448663
 20
2.362834633464003
 30
0.0
 10
57.49728764566348
 20
2.552555379342024
 30
0.0
 10
57.43406842319436
 20
2.744950821394053
 30
0.0
 10
57.42752175721852
 20
2.886129731005328
 30
0.0
  0
ARC
  5
163
330
1F
100
AcDbEntity
  8
0
  6
Continuous
 62
     7
370
    25
100
AcDbCircle
 10
0.0
 20
0.0
 30
0.0
 40
57.49999999999999
100
AcDbArc
 50
2.8770881273
 51
3.1229118727
  0
SPLINE
  5
164
330
1F
100
AcDbEntity
  8
0
  6
Continuous
 62
     7
370
    25
100
AcDbSpline
210
0.0
220
0.0
230
1.0
 70
     8
 71
     3
 72
    15
 73
    11
 74
     0
 42
0.00000001
 43
0.00000001
 40
0.0
 40
0.0
 40
0.0
 40
0.0
 40
0.3521217033916905
 40
0.4895808092238654
 40
0.6014252693228592
 40
0.6940106444466669
 40
0.7732772325150995
 40
0.8437391327872991
 40
0.9086057707732499
 40
1.0
 40
1.0
 40
1.0
 40
1.0
 10
57.41461048986482
 20
3.132491388193279
 30
0.0
 10
57.40636407805199
 20
3.273581217899891
 30
0.0
 10
57.44912617910828
 20
3.471530905763363
 30
0.0
 10
57.57822755753747
 20
3.675865788200222
 30
0.0
 10
57.6702790134344
 20
3.777391459373396
 30
0.0
 10
57.7571150034695
 20
3.850554000880102
 30
0.0
 10
57.83732466377359
 20
3.904919112917535
 30
0.0
 10
57.91204513183898
 20
3.947043973830009
 30
0.0
 10
57.99380390238266
 20
3.986043139357728
 30
0.0
 10
58.05174563450687
 20
4.009373765178681
 30
0.0
 10
58.08630699979639
 20
4.021121913571373
 30
0.0
  0
LINE
  5
165
330
1F
100
AcDbEntity
  8
0
  6
Continuous
 62
     7
370
    25
100
AcDbLine
 10
58.0863069998
 20
4.0211219136
 30
0.0
 11
58.1199893005
 21
4.0332274017
 31
0.0
  0
SPLINE
  5
166
330
1F
100
AcDbEntity
  8
0
  6
Continuous
 62
     7
370
    25
100
AcDbSpline
210
0.0
220
0.0
230
1.0
 70
     8
 71
     3
 72
    14
 73
    10
 74
     0
 42
0.00000001
 43
0.00000001
 40
0.0
 40
0.0
 40
0.0
 40
0.0
 40
0.1463524895720285
 40
0.2295876425155019
 40
0.3195287342547698
 40
0.4161757648032168
 40
0.5195287341716108
 40
0.6295876423687684
 40
0.6881776950847686
 40
0.6881776950847686
 40
0.6881776950847686
 40
0.6881776950847686
 10
58.11998930051428
 20
4.033227401659809
 30
0.0
 10
58.38805240148569
 20
4.123254030864511
 30
0.0
 10
58.80450420184258
 20
4.276421340695348
 30
0.0
 10
59.37554306864526
 20
4.511187707659977
 30
0.0
 10
59.85238894505197
 20
4.722011091918236
 30
0.0
 10
60.35867217255824
 20
4.96190908393107
 30
0.0
 10
60.89317045932106
 20
5.232562917052685
 30
0.0
 10
61.35567524333395
 20
5.482212240351864
 30
0.0
 10
61.63934912486784
 20
5.64255583753295
 30
0.0
 10
61.73752875689696
 20
5.698907175222794
 30
0.0
  0
ARC
  5
167
330
1F
100
AcDbEntity
  8
0
  6
Continuous
 62
     7
370
    25
100
AcDbCircle
 10
0.0
 20
0.0
 30
0.0
 40
61.99999999999999
100
AcDbArc
 50
5.2739496673
 51
6.7260503327
  0
SPLINE
  5
168
330
1F
100
AcDbEntity
  8
0
  6
Continuous
 62
     7
370
    25
100
AcDbSpline
210
0.0
220
0.0
230
1.0
 70
     8
 71
     3
 72
    14
 73
    10
 74
     0
 42
0.00000001
 43
0.00000001
 40
0.311822304915231
 40
0.311822304915231
 40
0.311822304915231
 40
0.311822304915231
 40
0.3704123576312316
 40
0.4804712658283892
 40
0.5838242351967832
 40
0.6804712657452302
 40
0.7704123574844981
 40
0.8536475104279715
 40
1.0
 40
1.0
 40
1.0
 40
1.0
 10
61.57328505540718
 20
7.261581610507273
 30
0.0
 10
61.46553478199803
 20
7.296288842967694
 30
0.0
 10
61.15472254698308
 20
7.394149431492854
 30
0.0
 10
60.65041958925433
 20
7.542183166447345
 30
0.0
 10
60.07132927639031
 20
7.695794121404609
 30
0.0
 10
59.52623195497013
 20
7.825187564849328
 30
0.0
 10
59.01597365875804
 20
7.932262119916929
 30
0.0
 10
58.40860268896649
 20
8.043172622176774
 30
0.0
 10
57.96940608526117
 20
8.106407660842363
 30
0.0
 10
57.68848321750416
 20
8.138733539632277
 30
0.0
  0
LINE
  5
169
330
1F
100
AcDbEntity
  8
0
  6
Continuous
 62
     7
370
    25
100
AcDbLine
 10
57.6884832175
 20
8.1387335396
 30
0.0
 11
57.6530200834
 21
8.1435715497
 31
0.0
  0
SPLINE
  5
16A
330
1F
100
AcDbEntity
  8
0
  6
Continuous
 62
     7
370
    25
100
AcDbSpline
210
0.0
220
0.0
230
1.0
 70
     8
 71
     3
 72
    15
 73
    11
 74
     0
 42
0.00000001
 43
0.00000001
 40
0.0
 40
0.0
 40
0.0
 40
0.0
 40
0.0913942292267501
 40
0.1562608672127009
 40
0.2267227674849005
 40
0.3059893555533331
 40
0.3985747306771407
 40
0.5104191907761346
 40
0.6478782966083095
 40
1.0
 40
1.0
 40
1.0
 40
1.0
 10
57.65302008337311
 20
8.143571549668803
 30
0.0
 10
57.61677138944081
 20
8.147877260937866
 30
0.0
 10
57.55524511331883
 20
8.158651293113394
 30
0.0
 10
57.46716458562727
 20
8.179799629082037
 30
0.0
 10
57.3853186880056
 20
8.205468701860646
 30
0.0
 10
57.2955586588583
 20
8.241969279669949
 30
0.0
 10
57.19540889583893
 20
8.29547882659629
 30
0.0
 10
57.08426061115428
 20
8.375647344429453
 30
0.0
 10
56.91549679669185
 20
8.548675333555178
 30
0.0
 10
56.83251309584076
 20
8.733408605071304
 30
0.0
 10
56.81124507871866
 20
8.873129808909953
 30
0.0
  0
ARC
  5
16B
330
1F
100
AcDbEntity
  8
0
  6
Continuous
 62
     7
370
    25
100
AcDbCircle
 10
0.0
 20
0.0
 30
0.0
 40
57.50000000000001
100
AcDbArc
 50
8.8770881273
 51
9.1229118727
  0
SPLINE
  5
16C
330
1F
100
AcDbEntity
  8
0
  6
Continuous
 62
     7
370
    25
100
AcDbSpline
210
0.0
220
0.0
230
1.0
 70
     8
 71
     3
 72
    15
 73
    11
 74
     0
 42
0.00000001
 43
0.00000001
 40
0.0
 40
0.0
 40
0.0
 40
0.0
 40
0.3521217033916905
 40
0.4895808092238654
 40
0.6014252693228592
 40
0.6940106444466669
 40
0.7732772325150995
 40
0.8437391327872991
 40
0.9086057707732499
 40
1.0
 40
1.0
 40
1.0
 40
1.0
 10
56.7726527352045
 20
9.116792276227246
 30
0.0
 10
56.74970359501648
 20
9.256247216329987
 30
0.0
 10
56.77154006413225
 20
9.457582371801037
 30
0.0
 10
56.87857540044919
 20
9.674292655064932
 30
0.0
 10
56.95951026644926
 20
9.784884155215067
 30
0.0
 10
57.0382229918127
 20
9.866722737258971
 30
0.0
 10
57.11231055358851
 20
9.929174224055155
 30
0.0
 10
57.18221844813517
 20
9.978878736273469
 30
0.0
 10
57.25945281273791
 20
10.02621037893546
 30
0.0
 10
57.31463841952687
 20
10.05546975736505
 30
0.0
 10
57.34778243814339
 20
10.07076619457377
 30
0.0
  0
LINE
  5
16D
330
1F
100
AcDbEntity
  8
0
  6
Continuous
 62
     7
370
    25
100
AcDbLine
 10
57.3477824381
 20
10.0707661946
 30
0.0
 11
57.3800148556
 21
10.0863261267
 31
0.0
  0
SPLINE
  5
16E
330
1F
100
AcDbEntity
  8
0
  6
Continuous
 62
     7
370
    25
100
AcDbSpline
210
0.0
220
0.0
230
1.0
 70
     8
 71
     3
 72
    14
 73
    10
 74
     0
 42
0.00000001
 43
0.00000001
 40
0.0
 40
0.0
 40
0.0
 40
0.0
 40
0.1463524895720285
 40
0.2295876425155019
 40
0.3195287342547698
 40
0.4161757648032168
 40
0.5195287341716108
 40
0.6295876423687684
 40
0.6881776950847703
 40
0.6881776950847703
 40
0.6881776950847703
 40
0.6881776950847703
 10
57.38001485562673
 20
10.0863261266652
 30
0.0
 10
57.63719913367917
 20
10.20387980457878
 30
0.0
 10
58.03535922398018
 20
10.39973911457655
 30
0.0
 10
58.57873011255599
 20
10.69290922203193
 30
0.0
 10
59.03092673298114
 20
10.95242166040871
 30
0.0
 10
59.50936031954772
 20
11.24392647386978
 30
0.0
 10
60.01263953951648
 20
11.56896792150909
 30
0.0
 10
60.44651521380961
 20
11.8655945540208
 30
0.0
 10
60.71187463033104
 20
12.05471176710541
 30
0.0
 10
60.80362610533141
 20
12.12101697233144
 30
0.0
  0
ARC
  5
16F
330
1F
100
AcDbEntity
  8
0
  6
Continuous
 62
     7
370
    25
100
AcDbCircle
 10
0.0
 20
0.0
 30
0.0
 40
62.00000000000001
100
AcDbArc
 50
11.2739496673
 51
12.7260503327
  0
SPLINE
  5
170
330
1F
100
AcDbEntity
  8
0
  6
Continuous
 62
     7
370
    25
100
AcDbSpline
210
0.0
220
0.0
230
1.0
 70
     8
 71
     3
 72
    14
 73
    10
 74
     0
 42
0.00000001
 43
0.00000001
 40
0.311822304915226
 40
0.311822304915226
 40
0.311822304915226
 40
0.311822304915226
 40
0.3704123576312316
 40
0.4804712658283892
 40
0.5838242351967832
 40
0.6804712657452302
 40
0.7704123574844981
 40
0.8536475104279715
 40
1.0
 40
1.0
 40
1.0
 40
1.0
 10
60.47693819071556
 20
13.65796277183598
 30
0.0
 10
60.36615029090486
 20
13.68121690394937
 30
0.0
 10
60.04681150090114
 20
13.74605267664038
 30
0.0
 10
59.52979742871434
 20
13.84056145411305
 30
0.0
 10
58.93782271611266
 20
13.93279949168961
 30
0.0
 10
58.38218619705351
 20
14.00450591897312
 30
0.0
 10
57.86353081048098
 20
14.05765739285204
 30
0.0
 10
57.24789377805077
 20
14.10447276167006
 30
0.0
 10
56.80449327787805
 20
14.12145284611975
 30
0.0
 10
56.52173036055038
 20
14.12423720469996
 30
0.0
  0
LINE
  5
171
330
1F
100
AcDbEntity
  8
0
  6
Continuous
 62
     7
370
    25
100
AcDbLine
 10
56.5217303606
 20
14.1242372047
 30
0.0
 11
56.4859557874
 21
14.1253418047
 31
0.0
  0
SPLINE
  5
172
330
1F
100
AcDbEntity
  8
0
  6
Continuous
 62
     7
370
    25
100
AcDbSpline
210
0.0
220
0.0
230
1.0
 70
     8
 71
     3
 72
    15
 73
    11
 74
     0
 42
0.00000001
 43
0.00000001
 40
0.0
 40
0.0
 40
0.0
 40
0.0
 40
0.0913942292267501
 40
0.1562608672127009
 40
0.2267227674849005
 40
0.3059893555533331
 40
0.3985747306771407
 40
0.5104191907761346
 40
0.6478782966083095
 40
1.0
 40
1.0
 40
1.0
 40
1.0
 10
56.48595578742427
 20
14.12534180469793
 30
0.0
 10
56.44945559824787
 20
14.12583490855794
 30
0.0
 10
56.38714017647759
 20
14.13011867236429
 30
0.0
 10
56.29733156007327
 20
14.14194423333231
 30
0.0
 10
56.21325087411139
 20
14.15891746234128
 30
0.0
 10
56.12016721048872
 20
14.1858356082566
 30
0.0
 10
56.01497280763965
 20
14.22858352346105
 30
0.0
 10
55.89605351291661
 20
14.29669471037243
 30
0.0
 10
55.71012785448224
 20
14.45113421188856
 30
0.0
 10
55.60828886204114
 20
14.62618133648813
 30
0.0
 10
55.57253251061898
 20
14.76291401980636
 30
0.0
  0
ARC
  5
173
330
1F
100
AcDbEntity
  8
0
  6
Continuous
 62
     7
370
    25
100
AcDbCircle
 10
0.0
 20
0.0
 30
0.0
 40
57.49999999999999
100
AcDbArc
 50
14.8770881273
 51
15.1229118727
  0
SPLINE
  5
174
330
1F
100
AcDbEntity
  8
0
  6
Continuous
 62
     7
370
    25
100
AcDbSpline
210
0.0
220
0.0
230
1.0
 70
     8
 71
     3
 72
    15
 73
    11
 74
     0
 42
0.00000001
 43
0.00000001
 40
0.0
 40
0.0
 40
0.0
 40
0.0
 40
0.3521217033916905
 40
0.4895808092238654
 40
0.6014252693228592
 40
0.6940106444466669
 40
0.7732772325150995
 40
0.8437391327872991
 40
0.9086057707732499
 40
1.0
 40
1.0
 40
1.0
 40
1.0
 10
55.50868191673592
 20
15.00120768027145
 30
0.0
 10
55.47128148375504
 20
15.13749983326373
 30
0.0
 10
55.47195307600505
 20
15.34001458624692
 30
0.0
 10
55.55574966866649
 20
15.56672594712487
 30
0.0
 10
55.6246812054411
 20
15.68517161263357
 30
0.0
 10
55.6944082730421
 20
15.77478959458397
 30
0.0
 10
55.76156201745901
 20
15.84464322458076
 30
0.0
 10
55.82589141296511
 20
15.90138281506771
 30
0.0
 10
55.897755175766
 20
15.95652835948218
 30
0.0
 10
55.94958003216339
 20
15.99139591864742
 30
0.0
 10
55.98094357130311
 20
16.01007305370511
 30
0.0
  0
LINE
  5
175
330
1F
100
AcDbEntity
  8
0
  6
Continuous
 62
     7
370
    25
100
AcDbLine
 10
55.9809435713
 20
16.0100730537
 30
0.0
 11
56.0113729604
 21
16.0289169519
 31
0.0
  0
SPLINE
  5
176
330
1F
100
AcDbEntity
  8
0
  6
Continuous
 62
     7
370
    25
100
AcDbSpline
210
0.0
220
0.0
230
1.0
 70
     8
 71
     3
 72
    14
 73
    10
 74
     0
 42
0.00000001
 43
0.00000001
 40
0.0
 40
0.0
 40
0.0
 40
0.0
 40
0.1463524895720285
 40
0.2295876425155019
 40
0.3195287342547698
 40
0.4161757648032168
 40
0.5195287341716108
 40
0.6295876423687684
 40
0.6881776950847714
 40
0.6881776950847714
 40
0.6881776950847714
 40
0.6881776950847714
 10
56.01137296044088
 20
16.02891695192742
 30
0.0
 10
56.25486065080474
 20
16.17270973585497
 30
0.0
 10
56.63036670578017
 20
16.40911517043315
 30
0.0
 10
57.14011633096621
 20
16.7574769853322
 30
0.0
 10
57.56270933460819
 20
17.06283520524619
 30
0.0
 10
58.00805146174203
 20
17.4027530524179
 30
0.0
 10
58.47459758246479
 20
17.77862089245527
 30
0.0
 10
58.87509051435627
 20
18.11897493072061
 30
0.0
 10
59.11922813256778
 20
18.33479375194687
 30
0.0
 10
59.20354620217907
 20
18.41032637100537
 30
0.0
  0
ARC
  5
177
330
1F
100
AcDbEntity
  8
0
  6
Continuous
 62
     7
370
    25
100
AcDbCircle
 10
0.0
 20
0.0
 30
0.0
 40
62.00000000000001
100
AcDbArc
 50
17.2739496673
 51
18.7260503327
  0
SPLINE
  5
178
330
1F
100
AcDbEntity
  8
0
  6
Continuous
 62
     7
370
    25
100
AcDbSpline
210
0.0
220
0.0
230
1.0
 70
     8
 71
     3
 72
    14
 73
    10
 74
     0
 42
0.00000001
 43
0.00000001
 40
0.3118223049152305
 40
0.3118223049152305
 40
0.3118223049152305
 40
0.3118223049152305
 40
0.3704123576312316
 40
0.4804712658283892
 40
0.5838242351967832
 40
0.6804712657452302
 40
0.7704123574844981
 40
0.8536475104279715
 40
1.0
 40
1.0
 40
1.0
 40
1.0
 10
58.71799333559349
 20
19.90470443492402
 30
0.0
 10
58.60538162479546
 20
19.91625068955272
 30
0.0
 10
58.2810150224122
 20
19.9473512921162
 30
0.0
 10
57.75695435013439
 20
19.98729965416381
 30
0.0
 10
57.15858103662497
 20
20.01715419511795
 30
0.0
 10
56.59849298990408
 20
20.03038797561738
 30
0.0
 10
56.07712300992203
 20
20.02903402963715
 30
0.0
 10
55.45996496301078
 20
20.01124134603582
 30
0.0
 10
55.01721855503809
 20
19.98178043891108
 30
0.0
 10
54.73571359783394
 20
19.95499277126631
 30
0.0
  0
LINE
  5
179
330
1F
100
AcDbEntity
  8
0
  6
Continuous
 62
     7
370
    25
100
AcDbLine
 10
54.7357135978
 20
19.9549927713
 30
0.0
 11
54.7000195394
 21
19.952351859
 31
0.0
  0
SPLINE
  5
17A
330
1F
100
AcDbEntity
  8
0
  6
Continuous
 62
     7
370
    25
100
AcDbSpline
210
0.0
220
0.0
230
1.0
 70
     8
 71
     3
 72
    15
 73
    11
 74
     0
 42
0.00000001
 43
0.00000001
 40
0.0
 40
0.0
 40
0.0
 40
0.0
 40
0.0913942292267501
 40
0.1562608672127009
 40
0.2267227674849005
 40
0.3059893555533331
 40
0.3985747306771407
 40
0.5104191907761346
 40
0.6478782966083095
 40
1.0
 40
1.0
 40
1.0
 40
1.0
 10
54.70001953942226
 20
19.95235185899698
 30
0.0
 10
54.66366775871251
 20
19.94902695289887
 30
0.0
 10
54.60124593209518
 20
19.94677351452335
 30
0.0
 10
54.5106931889731
 20
19.94914673717012
 30
0.0
 10
54.42529892026143
 20
19.95723816016056
 30
0.0
 10
54.32991146626104
 20
19.97427895334226
 30
0.0
 10
54.22082495547324
 20
20.00579688172025
 30
0.0
 10
54.09543755539023
 20
20.06110449729287
 30
0.0
 10
53.89438709340519
 20
20.19526343970226
 30
0.0
 10
53.77480857868646
 20
20.35870656445719
 30
0.0
 10
53.72495564703293
 20
20.49095265536341
 30
0.0
  0
ARC
  5
17B
330
1F
100
AcDbEntity
  8
0
  6
Continuous
 62
     7
370
    25
100
AcDbCircle
 10
0.0
 20
0.0
 30
0.0
 40
57.50000000000001
100
AcDbArc
 50
20.8770881273
 51
21.1229118727
  0
SPLINE
  5
17C
330
1F
100
AcDbEntity
  8
0
  6
Continuous
 62
     7
370
    25
100
AcDbSpline
210
0.0
220
0.0
230
1.0
 70
     8
 71
     3
 72
    15
 73
    11
 74
     0
 42
0.00000001
 43
0.00000001
 40
0.0
 40
0.0
 40
0.0
 40
0.0
 40
0.3521217033916905
 40
0.4895808092238654
 40
0.6014252693228592
 40
0.6940106444466669
 40
0.7732772325150995
 40
0.8437391327872991
 40
0.9086057707732499
 40
1.0
 40
1.0
 40
1.0
 40
1.0
 10
53.6365463632491
 20
20.72126671376606
 30
0.0
 10
53.58510440444564
 20
20.85290283429872
 30
0.0
 10
53.56460376172468
 20
21.05437839078144
 30
0.0
 10
53.62424351772584
 20
21.28860693216127
 30
0.0
 10
53.68041649693323
 20
21.41360904753086
 30
0.0
 10
53.74039396242782
 20
21.51002455602375
 30
0.0
 10
53.79987813900918
 20
21.58651499823307
 30
0.0
 10
53.85792422915576
 20
21.64966801616176
 30
0.0
 10
53.9236300357311
 20
21.71202327620417
 30
0.0
 10
53.97152633776519
 20
21.75211699983034
 30
0.0
 10
54.00076577193006
 20
21.77397020213687
 30
0.0
  0
LINE
  5
17D
330
1F
100
AcDbEntity
  8
0
  6
Continuous
 62
     7
370
    25
100
AcDbLine
 10
54.0007657719
 20
21.7739702021
 30
0.0
 11
54.029058742
 21
21.7958916088
 31
0.0
  0
SPLINE
  5
17E
330
1F
100
AcDbEntity
  8
0
  6
Continuous
 62
     7
370
    25
100
AcDbSpline
210
0.0
220
0.0
230
1.0
 70
     8
 71
     3
 72
    14
 73
    10
 74
     0
 42
0.00000001
 43
0.00000001
 40
0.0
 40
0.0
 40
0.0
 40
0.0
 40
0.1463524895720285
 40
0.2295876425155019
 40
0.3195287342547698
 40
0.4161757648032168
 40
0.5195287341716108
 40
0.6295876423687684
 40
0.6881776950847731
 40
0.6881776950847731
 40
0.6881776950847731
 40
0.6881776950847731
 10
54.0290587419671
 20
21.79589160879779
 30
0.0
 10
54.25618214255369
 20
21.96434807490802
 30
0.0
 10
54.60492003928553
 20
22.23870952665436
 30
0.0
 10
55.07546347751629
 20
22.63844632405365
 30
0.0
 10
55.46382284699393
 20
22.98630475694716
 30
0.0
 10
55.8711942531563
 20
23.37091142676351
 30
0.0
 10
56.29589569770338
 20
23.79348757248809
 30
0.0
 10
56.65861800282288
 20
24.17384002644016
 30
0.0
 10
56.87885899989027
 20
24.41399589963972
 30
0.0
 10
56.95481985769711
 20
24.49792838135008
 30
0.0
  0
ARC
  5
17F
330
1F
100
AcDbEntity
  8
0
  6
Continuous
 62
     7
370
    25
100
AcDbCircle
 10
0.0
 20
0.0
 30
0.0
 40
62.00000000000001
100
AcDbArc
 50
23.2739496673
 51
24.7260503327
  0
SPLINE
  5
180
330
1F
100
AcDbEntity
  8
0
  6
Continuous
 62
     7
370
    25
100
AcDbSpline
210
0.0
220
0.0
230
1.0
 70
     8
 71
     3
 72
    14
 73
    10
 74
     0
 42
0.00000001
 43
0.00000001
 40
0.3118223049152279
 40
0.3118223049152279
 40
0.3118223049152279
 40
0.3118223049152279
 40
0.3704123576312316
 40
0.4804712658283892
 40
0.5838242351967832
 40
0.6804712657452302
 40
0.7704123574844981
 40
0.8536475104279715
 40
1.0
 40
1.0
 40
1.0
 40
1.0
 10
56.31572185795663
 20
25.93336599089582
 30
0.0
 10
56.20252013364028
 20
25.9330778648579
 30
0.0
 10
55.87667954725123
 20
25.93010255258395
 30
0.0
 10
55.35131399327464
 20
25.9150528165922
 30
0.0
 10
54.75309798209797
 20
25.88219676832574
 30
0.0
 10
54.19469484956116
 20
25.83681290997261
 30
0.0
 10
53.67632251477396
 20
25.78096837824871
 30
0.0
 10
53.06440516609225
 20
25.69876258259292
 30
0.0
 10
52.62716367261598
 20
25.6231834637573
 30
0.0
 10
52.35000090275517
 20
25.56711726117996
 30
0.0
  0
LINE
  5
181
330
1F
100
AcDbEntity
  8
0
  6
Continuous
 62
     7
370
    25
100
AcDbLine
 10
52.3500009028
 20
25.5671172612
 30
0.0
 11
52.3147784306
 21
25.560759771
 31
0.0
  0
SPLINE
  5
182
330
1F
100
AcDbEntity
  8
0
  6
Continuous
 62
     7
370
    25
100
AcDbSpline
210
0.0
220
0.0
230
1.0
 70
     8
 71
     3
 72
    15
 73
    11
 74
     0
 42
0.00000001
 43
0.00000001
 40
0.0
 40
0.0
 40
0.0
 40
0.0
 40
0.0913942292267501
 40
0.1562608672127009
 40
0.2267227674849005
 40
0.3059893555533331
 40
0.3985747306771407
 40
0.5104191907761346
 40
0.6478782966083095
 40
1.0
 40
1.0
 40
1.0
 40
1.0
 10
52.31477843063134
 20
25.5607597710308
 30
0.0
 10
52.27897333610482
 20
25.55365328334155
 30
0.0
 10
52.21712901123546
 20
25.54488733192657
 30
0.0
 10
52.12682425619862
 20
25.53778221472814
 30
0.0
 10
52.04105200221507
 20
25.53690318037652
 30
0.0
 10
51.94440584274411
 20
25.54387991832849
 30
0.0
 10
51.83262239865759
 20
25.56382254286118
 30
0.0
 10
51.70214066380892
 20
25.60572062528495
 30
0.0
 10
51.48816814920723
 20
25.71812913513999
 30
0.0
 10
51.35216023944154
 20
25.86817754297281
 30
0.0
 10
51.28875692670822
 20
25.99448812562077
 30
0.0
  0
ARC
  5
183
330
1F
100
AcDbEntity
  8
0
  6
Continuous
 62
     7
370
    25
100
AcDbCircle
 10
0.0
 20
0.0
 30
0.0
 40
57.49999999999999
100
AcDbArc
 50
26.8770881273
 51
27.1229118727
  0
SPLINE
  5
184
330
1F
100
AcDbEntity
  8
0
  6
Continuous
 62
     7
370
    25
100
AcDbSpline
210
0.0
220
0.0
230
1.0
 70
     8
 71
     3
 72
    15
 73
    11
 74
     0
 42
0.00000001
 43
0.00000001
 40
0.0
 40
0.0
 40
0.0
 40
0.0
 40
0.3521217033916905
 40
0.4895808092238654
 40
0.6014252693228592
 40
0.6940106444466669
 40
0.7732772325150995
 40
0.8437391327872991
 40
0.9086057707732499
 40
1.0
 40
1.0
 40
1.0
 40
1.0
 10
51.17675758363762
 20
26.21429921294082
 30
0.0
 10
51.11183770787714
 20
26.33983706813069
 30
0.0
 10
51.07038943951689
 20
26.53806601975464
 30
0.0
 10
51.10521893321062
 20
26.77724548472151
 30
0.0
 10
51.14801791193564
 20
26.90743450061764
 30
0.0
 10
51.19758864966079
 20
27.00959118716572
 30
0.0
 10
51.24875153732008
 20
27.09188039629608
 30
0.0
 10
51.29987835699659
 20
27.16075492398647
 30
0.0
 10
51.3587063207797
 20
27.22963672237911
 30
0.0
 10
51.40214930654246
 20
27.27451733524
 30
0.0
 10
51.42894428237301
 20
27.29930717653782
 30
0.0
  0
LINE
  5
185
330
1F
100
AcDbEntity
  8
0
  6
Continuous
 62
     7
370
    25
100
AcDbLine
 10
51.4289442824
 20
27.2993071765
 30
0.0
 11
51.4547908496
 21
27.3240659161
 31
0.0
  0
SPLINE
  5
186
330
1F
100
AcDbEntity
  8
0
  6
Continuous
 62
     7
370
    25
100
AcDbSpline
210
0.0
220
0.0
230
1.0
 70
     8
 71
     3
 72
    14
 73
    10
 74
     0
 42
0.00000001
 43
0.00000001
 40
0.0
 40
0.0
 40
0.0
 40
0.0
 40
0.1463524895720285
 40
0.2295876425155019
 40
0.3195287342547698
 40
0.4161757648032168
 40
0.5195287341716108
 40
0.6295876423687684
 40
0.6881776950847714
 40
0.6881776950847714
 40
0.6881776950847714
 40
0.6881776950847714
 10
51.45479084960892
 20
27.32406591611863
 30
0.0
 10
51.66306154891278
 20
27.51534042011706
 30
0.0
 10
51.98121044202635
 20
27.82465192755239
 30
0.0
 10
52.40739232092503
 20
28.27138410744932
 30
0.0
 10
52.75726310971691
 20
28.65793154353749
 30
0.0
 10
53.12220054853395
 20
29.08301320483988
 30
0.0
 10
53.5004041990044
 20
29.54766782356937
 30
0.0
 10
53.8213818158725
 20
29.96385147212879
 30
0.0
 10
54.0153131853435
 20
30.22571319929903
 30
0.0
 10
54.08208458829193
 20
30.31712596182761
 30
0.0
  0
ARC
  5
187
330
1F
100
AcDbEntity
  8
0
  6
Continuous
 62
     7
370
    25
100
AcDbCircle
 10
0.0
 20
0.0
 30
0.0
 40
61.99999999999999
100
AcDbArc
 50
29.2739496673
 51
30.7260503327
  0
SPLINE
  5
188
330
1F
100
AcDbEntity
  8
0
  6
Continuous
 62
     7
370
    25
100
AcDbSpline
210
0.0
220
0.0
230
1.0
 70
     8
 71
     3
 72
    14
 73
    10
 74
     0
 42
0.00000001
 43
0.00000001
 40
0.3118223049152283
 40
0.3118223049152283
 40
0.3118223049152283
 40
0.3118223049152283
 40
0.3704123576312316
 40
0.4804712658283892
 40
0.5838242351967832
 40
0.6804712657452302
 40
0.7704123574844981
 40
0.8536475104279715
 40
1.0
 40
1.0
 40
1.0
 40
1.0
 10
53.29644354682154
 20
31.67789616216565
 30
0.0
 10
53.18389207076746
 20
31.66577681223028
 30
0.0
 10
52.86014747802366
 20
31.6287581832628
 30
0.0
 10
52.33923305729747
 20
31.55887523728856
 30
0.0
 10
51.74772852825673
 20
31.46366857754187
 30
0.0
 10
51.19712829147745
 20
31.36016431538549
 30
0.0
 10
50.68743299766141
 20
31.25044104229371
 30
0.0
 10
50.08746064173334
 20
31.10472279848334
 30
0.0
 10
49.66051457205468
 20
30.98385352857875
 30
0.0
 10
49.39073064284386
 20
30.89912306411687
 30
0.0
  0
LINE
  5
189
330
1F
100
AcDbEntity
  8
0
  6
Continuous
 62
     7
370
    25
100
AcDbLine
 10
49.3907306428
 20
30.8991230641
 30
0.0
 11
49.3563656618
 21
30.8891186501
 31
0.0
  0
SPLINE
  5
18A
330
1F
100
AcDbEntity
  8
0
  6
Continuous
 62
     7
370
    25
100
AcDbSpline
210
0.0
220
0.0
230
1.0
 70
     8
 71
     3
 72
    15
 73
    11
 74
     0
 42
0.00000001
 43
0.00000001
 40
0.0
 40
0.0
 40
0.0
 40
0.0
 40
0.0913942292267501
 40
0.1562608672127009
 40
0.2267227674849005
 40
0.3059893555533331
 40
0.3985747306771407
 40
0.5104191907761346
 40
0.6478782966083095
 40
1.0
 40
1.0
 40
1.0
 40
1.0
 10
49.35636566178324
 20
30.88911865008036
 30
0.0
 10
49.32149954154826
 20
30.87830844096622
 30
0.0
 10
49.26091029779192
 20
30.86312601810987
 30
0.0
 10
49.171842928634
 20
30.84662040621711
 30
0.0
 10
49.0866324281422
 20
30.83678054540774
 30
0.0
 10
48.98978643874833
 20
30.833616789529
 30
0.0
 10
48.87653078416869
 20
30.84176561464874
 30
0.0
 10
48.74238429974643
 20
30.86979511976489
 30
0.0
 10
48.51783406017469
 20
30.95922162590862
 30
0.0
 10
48.36688688648291
 20
31.09423135506345
 30
0.0
 10
48.29062785263211
 20
31.21322254427748
 30
0.0
  0
ARC
  5
18B
330
1F
100
AcDbEntity
  8
0
  6
Continuous
 62
     7
370
    25
100
AcDbCircle
 10
0.0
 20
0.0
 30
0.0
 40
57.5
100
AcDbArc
 50
32.8770881273
 51
33.1229118727
  0
SPLINE
  5
18C
330
1F
100
AcDbEntity
  8
0
  6
Continuous
 62
     7
370
    25
100
AcDbSpline
210
0.0
220
0.0
230
1.0
 70
     8
 71
     3
 72
    15
 73
    11
 74
     0
 42
0.00000001
 43
0.00000001
 40
0.0
 40
0.0
 40
0.0
 40
0.0
 40
0.3521217033916905
 40
0.4895808092238654
 40
0.6014252693228592
 40
0.6940106444466669
 40
0.7732772325150995
 40
0.8437391327872991
 40
0.9086057707732499
 40
1.0
 40
1.0
 40
1.0
 40
1.0
 10
48.15626553851477
 20
31.42012236424382
 30
0.0
 10
48.07857902154149
 20
31.53818653507895
 30
0.0
 10
48.0166372434437
 20
31.73099704396806
 30
0.0
 10
48.02627487560854
 20
31.97250693225229
 30
0.0
 10
48.05523093928402
 20
32.10645647057298
 30
0.0
 10
48.09385184186385
 20
32.21323508514077
 30
0.0
 10
48.13613288929739
 20
32.30042148339681
 30
0.0
 10
48.17978028236844
 20
32.37426291711061
 30
0.0
 10
48.23108587187759
 20
32.44891657045584
 30
0.0
 10
48.26959957092595
 20
32.49809235116509
 30
0.0
 10
48.2936565170598
 20
32.52554722876534
 30
0.0
  0
LINE
  5
18D
330
1F
100
AcDbEntity
  8
0
  6
Continuous
 62
     7
370
    25
100
AcDbLine
 10
48.2936565171
 20
32.5255472288
 30
0.0
 11
48.3167735011
 21
32.5528720393
 31
0.0
  0
SPLINE
  5
18E
330
1F
100
AcDbEntity
  8
0
  6
Continuous
 62
     7
370
    25
100
AcDbSpline
210
0.0
220
0.0
230
1.0
 70
     8
 71
     3
 72
    14
 73
    10
 74
     0
 42
0.00000001
 43
0.00000001
 40
0.0
 40
0.0
 40
0.0
 40
0.0
 40
0.1463524895720285
 40
0.2295876425155019
 40
0.3195287342547698
 40
0.4161757648032168
 40
0.5195287341716108
 40
0.6295876423687684
 40
0.688177695084774
 40
0.688177695084774
 40
0.688177695084774
 40
0.688177695084774
 10
48.31677350109519
 20
32.55287203933409
 30
0.0
 10
48.50390964175131
 20
32.76486893772814
 30
0.0
 10
48.78798382539672
 20
33.10574161924941
 30
0.0
 10
49.16513480711382
 20
33.59457469039631
 30
0.0
 10
49.47268375764275
 20
34.01557603507912
 30
0.0
 10
49.79118889816672
 20
34.47647540423224
 30
0.0
 10
50.11875107622178
 20
34.97811764272861
 30
0.0
 10
50.39446730689919
 20
35.42557269074975
 30
0.0
 10
50.55996429610715
 20
35.7062712600097
 30
0.0
 10
50.61681468273365
 20
35.80416276600091
 30
0.0
  0
ARC
  5
18F
330
1F
100
AcDbEntity
  8
0
  6
Continuous
 62
     7
370
    25
100
AcDbCircle
 10
0.0
 20
0.0
 30
0.0
 40
62.00000000000001
100
AcDbArc
 50
35.2739496673
 51
36.7260503327
  0
SPLINE
  5
190
330
1F
100
AcDbEntity
  8
0
  6
Continuous
 62
     7
370
    25
100
AcDbSpline
210
0.0
220
0.0
230
1.0
 70
     8
 71
     3
 72
    14
 73
    10
 74
     0
 42
0.00000001
 43
0.00000001
 40
0.3118223049152277
 40
0.3118223049152277
 40
0.3118223049152277
 40
0.3118223049152277
 40
0.3704123576312316
 40
0.4804712658283892
 40
0.5838242351967832
 40
0.6804712657452302
 40
0.7704123574844981
 40
0.8536475104279715
 40
1.0
 40
1.0
 40
1.0
 40
1.0
 10
49.69323824718967
 20
37.07535667405686
 30
0.0
 10
49.58257015692241
 20
37.05153888235805
 30
0.0
 10
49.26446857132986
 20
36.98088252054266
 30
0.0
 10
48.75371253125588
 20
36.85693201676596
 30
0.0
 10
48.17540013175153
 20
36.70041784962653
 30
0.0
 10
47.63863528214445
 20
36.53992719802272
 30
0.0
 10
47.14320135759921
 20
36.37752733470413
 30
0.0
 10
46.56174741710863
 20
36.16989316231187
 30
0.0
 10
46.14977448171117
 20
36.0050580103529
 30
0.0
 10
45.89032520233467
 20
35.89259160870612
 30
0.0
  0
LINE
  5
191
330
1F
100
AcDbEntity
  8
0
  6
Continuous
 62
     7
370
    25
100
AcDbLine
 10
45.8903252023
 20
35.8925916087
 30
0.0
 11
45.8571942223
 21
35.8790498812
 31
0.0
  0
SPLINE
  5
192
330
1F
100
AcDbEntity
  8
0
  6
Continuous
 62
     7
370
    25
100
AcDbSpline
210
0.0
220
0.0
230
1.0
 70
     8
 71
     3
 72
    15
 73
    11
 74
     0
 42
0.00000001
 43
0.00000001
 40
0.0
 40
0.0
 40
0.0
 40
0.0
 40
0.0913942292267501
 40
0.1562608672127009
 40
0.2267227674849005
 40
0.3059893555533331
 40
0.3985747306771407
 40
0.5104191907761346
 40
0.6478782966083095
 40
1.0
 40
1.0
 40
1.0
 40
1.0
 10
45.85719422226111
 20
35.87904988123599
 30
0.0
 10
45.82364907682719
 20
35.86465438961021
 30
0.0
 10
45.76497874261754
 20
35.84322183711441
 30
0.0
 10
45.67812460007359
 20
35.81749656946526
 30
0.0
 10
45.59440943714837
 20
35.79880368977228
 30
0.0
 10
45.49842468275774
 20
35.7855341028343
 30
0.0
 10
45.3849376703368
 20
35.78179984830782
 30
0.0
 10
45.24859617329625
 20
35.79565367899276
 30
0.0
 10
45.01592842816936
 20
35.86111840591015
 30
0.0
 10
44.8516957993742
 20
35.97961026154179
 30
0.0
 10
44.763416554339
 20
36.08997836495235
 30
0.0
  0
ARC
  5
193
330
1F
100
AcDbEntity
  8
0
  6
Continuous
 62
     7
370
    25
100
AcDbCircle
 10
0.0
 20
0.0
 30
0.0
 40
57.49999999999999
100
AcDbArc
 50
38.8770881273
 51
39.1229118727
  0
SPLINE
  5
194
330
1F
100
AcDbEntity
  8
0
  6
Continuous
 62
     7
370
    25
100
AcDbSpline
210
0.0
220
0.0
230
1.0
 70
     8
 71
     3
 72
    15
 73
    11
 74
     0
 42
0.00000001
 43
0.00000001
 40
0.0
 40
0.0
 40
0.0
 40
0.0
 40
0.3521217033916905
 40
0.4895808092238654
 40
0.6014252693228592
 40
0.6940106444466669
 40
0.7732772325150995
 40
0.8437391327872991
 40
0.9086057707732499
 40
1.0
 40
1.0
 40
1.0
 40
1.0
 10
44.60816337080553
 20
36.28170007984085
 30
0.0
 10
44.51856136235632
 20
36.39099703055906
 30
0.0
 10
44.43680472160401
 20
36.57627662442975
 30
0.0
 10
44.42114490032515
 20
36.81747090315609
 30
0.0
 10
44.43594080025802
 20
36.95371338472877
 30
0.0
 10
44.46318872900191
 20
37.0639440384702
 30
0.0
 10
44.49612469620613
 20
37.15507239342772
 30
0.0
 10
44.53181445269946
 20
37.23307171096482
 30
0.0
 10
44.57503555315959
 20
37.31267929821432
 30
0.0
 10
44.6081980013473
 20
37.36561146662777
 30
0.0
 10
44.62925334484834
 20
37.39543057914617
 30
0.0
  0
LINE
  5
195
330
1F
100
AcDbEntity
  8
0
  6
Continuous
 62
     7
370
    25
100
AcDbLine
 10
44.6292533448
 20
37.3954305791
 30
0.0
 11
44.6493874712
 21
37.4250220844
 31
0.0
  0
SPLINE
  5
196
330
1F
100
AcDbEntity
  8
0
  6
Continuous
 62
     7
370
    25
100
AcDbSpline
210
0.0
220
0.0
230
1.0
 70
     8
 71
     3
 72
    14
 73
    10
 74
     0
 42
0.00000001
 43
0.00000001
 40
0.0
 40
0.0
 40
0.0
 40
0.0
 40
0.1463524895720285
 40
0.2295876425155019
 40
0.3195287342547698
 40
0.4161757648032168
 40
0.5195287341716108
 40
0.6295876423687684
 40
0.6881776950847696
 40
0.6881776950847696
 40
0.6881776950847696
 40
0.6881776950847696
 10
44.64938747116859
 20
37.42502208436017
 30
0.0
 10
44.81333875045917
 20
37.65541869476786
 30
0.0
 10
45.06022584843406
 20
38.02411787794412
 30
0.0
 10
45.38421378788995
 20
38.54969608291859
 30
0.0
 10
45.64607132949521
 20
39.00053875736351
 30
0.0
 10
45.91465456275505
 20
39.49220612442953
 30
0.0
 10
46.18798642862514
 20
40.02533988535242
 30
0.0
 10
46.41542046839123
 20
40.49916392169317
 30
0.0
 10
46.55066985768989
 20
40.79562394077806
 30
0.0
 10
46.59697636326188
 20
40.89892167040713
 30
0.0
  0
ARC
  5
197
330
1F
100
AcDbEntity
  8
0
  6
Continuous
 62
     7
370
    25
100
AcDbCircle
 10
0.0
 20
0.0
 30
0.0
 40
62.0
100
AcDbArc
 50
41.2739496673
 51
42.7260503327
  0
SPLINE
  5
198
330
1F
100
AcDbEntity
  8
0
  6
Continuous
 62
     7
370
    25
100
AcDbSpline
210
0.0
220
0.0
230
1.0
 70
     8
 71
     3
 72
    14
 73
    10
 74
     0
 42
0.00000001
 43
0.00000001
 40
0.3118223049152291
 40
0.3118223049152291
 40
0.3118223049152291
 40
0.3118223049152291
 40
0.3704123576312316
 40
0.4804712658283892
 40
0.5838242351967832
 40
0.6804712657452302
 40
0.7704123574844981
 40
0.8536475104279715
 40
1.0
 40
1.0
 40
1.0
 40
1.0
 10
45.54558343034293
 20
42.06661181970991
 30
0.0
 10
45.43801122861826
 20
42.03135653895774
 30
0.0
 10
45.12903783771574
 20
41.92783657018028
 30
0.0
 10
44.6340361283516
 20
41.75117653625881
 30
0.0
 10
44.07525197005227
 20
41.5350696636945
 30
0.0
 10
43.55820341563494
 20
41.31935099180706
 30
0.0
 10
43.08245893811403
 20
41.10605382514853
 30
0.0
 10
42.52589394411
 20
40.83877860761736
 30
0.0
 10
42.13340780468485
 20
40.63178354202284
 30
0.0
 10
41.88713575574078
 20
40.49281340862272
 30
0.0
  0
LINE
  5
199
330
1F
100
AcDbEntity
  8
0
  6
Continuous
 62
     7
370
    25
100
AcDbLine
 10
41.8871357557
 20
40.4928134086
 30
0.0
 11
41.8556017666
 21
40.4758827337
 31
0.0
  0
SPLINE
  5
19A
330
1F
100
AcDbEntity
  8
0
  6
Continuous
 62
     7
370
    25
100
AcDbSpline
210
0.0
220
0.0
230
1.0
 70
     8
 71
     3
 72
    15
 73
    11
 74
     0
 42
0.00000001
 43
0.00000001
 40
0.0
 40
0.0
 40
0.0
 40
0.0
 40
0.0913942292267501
 40
0.1562608672127009
 40
0.2267227674849005
 40
0.3059893555533331
 40
0.3985747306771407
 40
0.5104191907761346
 40
0.6478782966083095
 40
1.0
 40
1.0
 40
1.0
 40
1.0
 10
41.85560176660505
 20
40.47588273371893
 30
0.0
 10
41.82374512360533
 20
40.45805967960018
 30
0.0
 10
41.76763650340155
 20
40.43061181699517
 30
0.0
 10
41.68394717963267
 20
40.39594874500531
 30
0.0
 10
41.60264455511758
 20
40.3686076495304
 30
0.0
 10
41.50857266478536
 20
40.3453776159045
 30
0.0
 10
41.39609768197992
 20
40.32980119500584
 30
0.0
 10
41.25905495829393
 20
40.32932756579148
 30
0.0
 10
41.02081886411637
 20
40.37011326823507
 30
0.0
 10
40.84510014726678
 20
40.47078902877718
 30
0.0
 10
40.74576789692943
 20
40.57132483034729
 30
0.0
  0
ARC
  5
19B
330
1F
100
AcDbEntity
  8
0
  6
Continuous
 62
     7
370
    25
100
AcDbCircle
 10
0.0
 20
0.0
 30
0.0
 40
57.49999999999999
100
AcDbArc
 50
44.8770881273
 51
45.1229118727
  0
SPLINE
  5
19C
330
1F
100
AcDbEntity
  8
0
  6
Continuous
 62
     7
370
    25
100
AcDbSpline
210
0.0
220
0.0
230
1.0
 70
     8
 71
     3
 72
    15
 73
    11
 74
     0
 42
0.00000001
 43
0.00000001
 40
0.0
 40
0.0
 40
0.0
 40
0.0
 40
0.3521217033916905
 40
0.4895808092238654
 40
0.6014252693228592
 40
0.6940106444466669
 40
0.7732772325150995
 40
0.8437391327872991
 40
0.9086057707732499
 40
1.0
 40
1.0
 40
1.0
 40
1.0
 10
40.57132483034742
 20
40.74576789692929
 30
0.0
 10
40.4707890287773
 20
40.84510014726666
 30
0.0
 10
40.37011326823521
 20
41.02081886411624
 30
0.0
 10
40.32932756579162
 20
41.25905495829381
 30
0.0
 10
40.32980119500598
 20
41.39609768197979
 30
0.0
 10
40.34537761590462
 20
41.50857266478524
 30
0.0
 10
40.36860764953054
 20
41.60264455511746
 30
0.0
 10
40.39594874500543
 20
41.68394717963255
 30
0.0
 10
40.43061181699532
 20
41.76763650340145
 30
0.0
 10
40.45805967960032
 20
41.82374512360519
 30
0.0
 10
40.47588273371905
 20
41.85560176660493
 30
0.0
  0
LINE
  5
19D
330
1F
100
AcDbEntity
  8
0
  6
Continuous
 62
     7
370
    25
100
AcDbLine
 10
40.4758827337
 20
41.8556017666
 30
0.0
 11
40.4928134086
 21
41.8871357557
 31
0.0
  0
SPLINE
  5
19E
330
1F
100
AcDbEntity
  8
0
  6
Continuous
 62
     7
370
    25
100
AcDbSpline
210
0.0
220
0.0
230
1.0
 70
     8
 71
     3
 72
    14
 73
    10
 74
     0
 42
0.00000001
 43
0.00000001
 40
0.0
 40
0.0
 40
0.0
 40
0.0
 40
0.1463524895720285
 40
0.2295876425155019
 40
0.3195287342547698
 40
0.4161757648032168
 40
0.5195287341716108
 40
0.6295876423687684
 40
0.6881776950847702
 40
0.6881776950847702
 40
0.6881776950847702
 40
0.6881776950847702
 10
40.49281340862285
 20
41.88713575574066
 30
0.0
 10
40.63178354202299
 20
42.13340780468474
 30
0.0
 10
40.83877860761749
 20
42.52589394410986
 30
0.0
 10
41.10605382514867
 20
43.0824589381139
 30
0.0
 10
41.3193509918072
 20
43.55820341563481
 30
0.0
 10
41.53506966369465
 20
44.07525197005214
 30
0.0
 10
41.75117653625895
 20
44.63403612835147
 30
0.0
 10
41.92783657018042
 20
45.12903783771561
 30
0.0
 10
42.03135653895789
 20
45.43801122861813
 30
0.0
 10
42.06661181971007
 20
45.5455834303428
 30
0.0
  0
ARC
  5
19F
330
1F
100
AcDbEntity
  8
0
  6
Continuous
 62
     7
370
    25
100
AcDbCircle
 10
0.0
 20
0.0
 30
0.0
 40
62.00000000000001
100
AcDbArc
 50
47.2739496673
 51
48.7260503327
  0
SPLINE
  5
1A0
330
1F
100
AcDbEntity
  8
0
  6
Continuous
 62
     7
370
    25
100
AcDbSpline
210
0.0
220
0.0
230
1.0
 70
     8
 71
     3
 72
    14
 73
    10
 74
     0
 42
0.00000001
 43
0.00000001
 40
0.3118223049152281
 40
0.3118223049152281
 40
0.3118223049152281
 40
0.3118223049152281
 40
0.3704123576312316
 40
0.4804712658283892
 40
0.5838242351967832
 40
0.6804712657452302
 40
0.7704123574844981
 40
0.8536475104279715
 40
1.0
 40
1.0
 40
1.0
 40
1.0
 10
40.89892167040729
 20
46.59697636326178
 30
0.0
 10
40.79562394077821
 20
46.55066985768977
 30
0.0
 10
40.49916392169332
 20
46.41542046839112
 30
0.0
 10
40.02533988535258
 20
46.18798642862502
 30
0.0
 10
39.49220612442969
 20
45.91465456275492
 30
0.0
 10
39.00053875736366
 20
45.64607132949509
 30
0.0
 10
38.54969608291874
 20
45.38421378788983
 30
0.0
 10
38.02411787794428
 20
45.06022584843395
 30
0.0
 10
37.655418694768
 20
44.81333875045905
 30
0.0
 10
37.42502208436033
 20
44.64938747116847
 30
0.0
  0
LINE
  5
1A1
330
1F
100
AcDbEntity
  8
0
  6
Continuous
 62
     7
370
    25
100
AcDbLine
 10
37.4250220844
 20
44.6493874712
 30
0.0
 11
37.3954305791
 21
44.6292533448
 31
0.0
  0
SPLINE
  5
1A2
330
1F
100
AcDbEntity
  8
0
  6
Continuous
 62
     7
370
    25
100
AcDbSpline
210
0.0
220
0.0
230
1.0
 70
     8
 71
     3
 72
    15
 73
    11
 74
     0
 42
0.00000001
 43
0.00000001
 40
0.0
 40
0.0
 40
0.0
 40
0.0
 40
0.0913942292267501
 40
0.1562608672127009
 40
0.2267227674849005
 40
0.3059893555533331
 40
0.3985747306771407
 40
0.5104191907761346
 40
0.6478782966083095
 40
1.0
 40
1.0
 40
1.0
 40
1.0
 10
37.39543057914631
 20
44.62925334484824
 30
0.0
 10
37.36561146662793
 20
44.6081980013472
 30
0.0
 10
37.31267929821446
 20
44.57503555315947
 30
0.0
 10
37.23307171096497
 20
44.53181445269936
 30
0.0
 10
37.15507239342785
 20
44.49612469620601
 30
0.0
 10
37.06394403847035
 20
44.46318872900181
 30
0.0
 10
36.95371338472891
 20
44.43594080025791
 30
0.0
 10
36.81747090315623
 20
44.42114490032503
 30
0.0
 10
36.5762766244299
 20
44.43680472160389
 30
0.0
 10
36.39099703055921
 20
44.51856136235622
 30
0.0
 10
36.28170007984099
 20
44.60816337080541
 30
0.0
  0
ARC
  5
1A3
330
1F
100
AcDbEntity
  8
0
  6
Continuous
 62
     7
370
    25
100
AcDbCircle
 10
0.0
 20
0.0
 30
0.0
 40
57.5
100
AcDbArc
 50
50.8770881273
 51
51.1229118727
  0
SPLINE
  5
1A4
330
1F
100
AcDbEntity
  8
0
  6
Continuous
 62
     7
370
    25
100
AcDbSpline
210
0.0
220
0.0
230
1.0
 70
     8
 71
     3
 72
    15
 73
    11
 74
     0
 42
0.00000001
 43
0.00000001
 40
0.0
 40
0.0
 40
0.0
 40
0.0
 40
0.3521217033916905
 40
0.4895808092238654
 40
0.6014252693228592
 40
0.6940106444466669
 40
0.7732772325150995
 40
0.8437391327872991
 40
0.9086057707732499
 40
1.0
 40
1.0
 40
1.0
 40
1.0
 10
36.08997836495248
 20
44.76341655433889
 30
0.0
 10
35.97961026154192
 20
44.85169579937408
 30
0.0
 10
35.8611184059103
 20
45.01592842816924
 30
0.0
 10
35.7956536789929
 20
45.24859617329613
 30
0.0
 10
35.78179984830796
 20
45.38493767033668
 30
0.0
 10
35.78553410283443
 20
45.49842468275762
 30
0.0
 10
35.79880368977243
 20
45.59440943714827
 30
0.0
 10
35.81749656946538
 20
45.67812460007347
 30
0.0
 10
35.84322183711457
 20
45.76497874261744
 30
0.0
 10
35.86465438961034
 20
45.82364907682705
 30
0.0
 10
35.87904988123613
 20
45.85719422226099
 30
0.0
  0
LINE
  5
1A5
330
1F
100
AcDbEntity
  8
0
  6
Continuous
 62
     7
370
    25
100
AcDbLine
 10
35.8790498812
 20
45.8571942223
 30
0.0
 11
35.8925916087
 21
45.8903252023
 31
0.0
  0
SPLINE
  5
1A6
330
1F
100
AcDbEntity
  8
0
  6
Continuous
 62
     7
370
    25
100
AcDbSpline
210
0.0
220
0.0
230
1.0
 70
     8
 71
     3
 72
    14
 73
    10
 74
     0
 42
0.00000001
 43
0.00000001
 40
0.0
 40
0.0
 40
0.0
 40
0.0
 40
0.1463524895720285
 40
0.2295876425155019
 40
0.3195287342547698
 40
0.4161757648032168
 40
0.5195287341716108
 40
0.6295876423687684
 40
0.6881776950847707
 40
0.6881776950847707
 40
0.6881776950847707
 40
0.6881776950847707
 10
35.89259160870626
 20
45.89032520233455
 30
0.0
 10
36.00505801035305
 20
46.14977448171106
 30
0.0
 10
36.16989316231201
 20
46.56174741710849
 30
0.0
 10
36.37752733470427
 20
47.1432013575991
 30
0.0
 10
36.53992719802285
 20
47.63863528214434
 30
0.0
 10
36.70041784962668
 20
48.17540013175142
 30
0.0
 10
36.8569320167661
 20
48.75371253125576
 30
0.0
 10
36.98088252054281
 20
49.26446857132974
 30
0.0
 10
37.05153888235819
 20
49.5825701569223
 30
0.0
 10
37.075356674057
 20
49.69323824718956
 30
0.0
  0
ARC
  5
1A7
330
1F
100
AcDbEntity
  8
0
  6
Continuous
 62
     7
370
    25
100
AcDbCircle
 10
0.0
 20
0.0
 30
0.0
 40
62.0
100
AcDbArc
 50
53.2739496673
 51
54.7260503327
  0
SPLINE
  5
1A8
330
1F
100
AcDbEntity
  8
0
  6
Continuous
 62
     7
370
    25
100
AcDbSpline
210
0.0
220
0.0
230
1.0
 70
     8
 71
     3
 72
    14
 73
    10
 74
     0
 42
0.00000001
 43
0.00000001
 40
0.311822304915228
 40
0.311822304915228
 40
0.311822304915228
 40
0.311822304915228
 40
0.3704123576312316
 40
0.4804712658283892
 40
0.5838242351967832
 40
0.6804712657452302
 40
0.7704123574844981
 40
0.8536475104279715
 40
1.0
 40
1.0
 40
1.0
 40
1.0
 10
35.80416276600106
 20
50.61681468273355
 30
0.0
 10
35.70627126000984
 20
50.55996429610704
 30
0.0
 10
35.4255726907499
 20
50.39446730689909
 30
0.0
 10
34.97811764272876
 20
50.11875107622168
 30
0.0
 10
34.47647540423239
 20
49.79118889816661
 30
0.0
 10
34.01557603507928
 20
49.47268375764265
 30
0.0
 10
33.59457469039646
 20
49.16513480711371
 30
0.0
 10
33.10574161924957
 20
48.78798382539663
 30
0.0
 10
32.76486893772828
 20
48.5039096417512
 30
0.0
 10
32.55287203933423
 20
48.31677350109509
 30
0.0
  0
LINE
  5
1A9
330
1F
100
AcDbEntity
  8
0
  6
Continuous
 62
     7
370
    25
100
AcDbLine
 10
32.5528720393
 20
48.3167735011
 30
0.0
 11
32.5255472288
 21
48.2936565171
 31
0.0
  0
SPLINE
  5
1AA
330
1F
100
AcDbEntity
  8
0
  6
Continuous
 62
     7
370
    25
100
AcDbSpline
210
0.0
220
0.0
230
1.0
 70
     8
 71
     3
 72
    15
 73
    11
 74
     0
 42
0.00000001
 43
0.00000001
 40
0.0
 40
0.0
 40
0.0
 40
0.0
 40
0.0913942292267501
 40
0.1562608672127009
 40
0.2267227674849005
 40
0.3059893555533331
 40
0.3985747306771407
 40
0.5104191907761346
 40
0.6478782966083095
 40
1.0
 40
1.0
 40
1.0
 40
1.0
 10
32.52554722876549
 20
48.29365651705969
 30
0.0
 10
32.49809235116524
 20
48.26959957092586
 30
0.0
 10
32.44891657045598
 20
48.23108587187748
 30
0.0
 10
32.37426291711076
 20
48.17978028236835
 30
0.0
 10
32.30042148339697
 20
48.13613288929727
 30
0.0
 10
32.21323508514092
 20
48.09385184186374
 30
0.0
 10
32.10645647057313
 20
48.05523093928392
 30
0.0
 10
31.97250693225243
 20
48.02627487560844
 30
0.0
 10
31.73099704396821
 20
48.0166372434436
 30
0.0
 10
31.5381865350791
 20
48.07857902154138
 30
0.0
 10
31.42012236424396
 20
48.15626553851467
 30
0.0
  0
ARC
  5
1AB
330
1F
100
AcDbEntity
  8
0
  6
Continuous
 62
     7
370
    25
100
AcDbCircle
 10
0.0
 20
0.0
 30
0.0
 40
57.50000000000001
100
AcDbArc
 50
56.8770881273
 51
57.1229118727
  0
SPLINE
  5
1AC
330
1F
100
AcDbEntity
  8
0
  6
Continuous
 62
     7
370
    25
100
AcDbSpline
210
0.0
220
0.0
230
1.0
 70
     8
 71
     3
 72
    15
 73
    11
 74
     0
 42
0.00000001
 43
0.00000001
 40
0.0
 40
0.0
 40
0.0
 40
0.0
 40
0.3521217033916905
 40
0.4895808092238654
 40
0.6014252693228592
 40
0.6940106444466669
 40
0.7732772325150995
 40
0.8437391327872991
 40
0.9086057707732499
 40
1.0
 40
1.0
 40
1.0
 40
1.0
 10
31.21322254427763
 20
48.290627852632
 30
0.0
 10
31.09423135506361
 20
48.36688688648281
 30
0.0
 10
30.95922162590877
 20
48.51783406017459
 30
0.0
 10
30.86979511976505
 20
48.74238429974633
 30
0.0
 10
30.8417656146489
 20
48.87653078416858
 30
0.0
 10
30.83361678952916
 20
48.98978643874823
 30
0.0
 10
30.8367805454079
 20
49.08663242814211
 30
0.0
 10
30.84662040621726
 20
49.17184292863389
 30
0.0
 10
30.86312601811003
 20
49.26091029779182
 30
0.0
 10
30.87830844096638
 20
49.32149954154814
 30
0.0
 10
30.88911865008052
 20
49.35636566178314
 30
0.0
  0
LINE
  5
1AD
330
1F
100
AcDbEntity
  8
0
  6
Continuous
 62
     7
370
    25
100
AcDbLine
 10
30.8891186501
 20
49.3563656618
 30
0.0
 11
30.8991230641
 21
49.3907306428
 31
0.0
  0
SPLINE
  5
1AE
330
1F
100
AcDbEntity
  8
0
  6
Continuous
 62
     7
370
    25
100
AcDbSpline
210
0.0
220
0.0
230
1.0
 70
     8
 71
     3
 72
    14
 73
    10
 74
     0
 42
0.00000001
 43
0.00000001
 40
0.0
 40
0.0
 40
0.0
 40
0.0
 40
0.1463524895720285
 40
0.2295876425155019
 40
0.3195287342547698
 40
0.4161757648032168
 40
0.5195287341716108
 40
0.6295876423687684
 40
0.688177695084772
 40
0.688177695084772
 40
0.688177695084772
 40
0.688177695084772
 10
30.89912306411703
 20
49.39073064284375
 30
0.0
 10
30.98385352857891
 20
49.66051457205458
 30
0.0
 10
31.1047227984835
 20
50.08746064173323
 30
0.0
 10
31.25044104229387
 20
50.68743299766131
 30
0.0
 10
31.36016431538565
 20
51.19712829147735
 30
0.0
 10
31.46366857754204
 20
51.74772852825662
 30
0.0
 10
31.55887523728872
 20
52.33923305729736
 30
0.0
 10
31.62875818326297
 20
52.86014747802356
 30
0.0
 10
31.66577681223044
 20
53.18389207076736
 30
0.0
 10
31.67789616216582
 20
53.29644354682145
 30
0.0
  0
ARC
  5
1AF
330
1F
100
AcDbEntity
  8
0
  6
Continuous
 62
     7
370
    25
100
AcDbCircle
 10
0.0
 20
0.0
 30
0.0
 40
62.00000000000001
100
AcDbArc
 50
59.2739496673
 51
60.7260503327
  0
SPLINE
  5
1B0
330
1F
100
AcDbEntity
  8
0
  6
Continuous
 62
     7
370
    25
100
AcDbSpline
210
0.0
220
0.0
230
1.0
 70
     8
 71
     3
 72
    14
 73
    10
 74
     0
 42
0.00000001
 43
0.00000001
 40
0.3118223049152273
 40
0.3118223049152273
 40
0.3118223049152273
 40
0.3118223049152273
 40
0.3704123576312316
 40
0.4804712658283892
 40
0.5838242351967832
 40
0.6804712657452302
 40
0.7704123574844981
 40
0.8536475104279715
 40
1.0
 40
1.0
 40
1.0
 40
1.0
 10
30.3171259618278
 20
54.08208458829184
 30
0.0
 10
30.2257131992992
 20
54.01531318534341
 30
0.0
 10
29.96385147212896
 20
53.82138181587241
 30
0.0
 10
29.54766782356954
 20
53.50040419900431
 30
0.0
 10
29.08301320484005
 20
53.12220054853386
 30
0.0
 10
28.65793154353767
 20
52.75726310971682
 30
0.0
 10
28.27138410744949
 20
52.40739232092493
 30
0.0
 10
27.82465192755257
 20
51.98121044202627
 30
0.0
 10
27.51534042011722
 20
51.66306154891268
 30
0.0
 10
27.3240659161188
 20
51.45479084960883
 30
0.0
  0
LINE
  5
1B1
330
1F
100
AcDbEntity
  8
0
  6
Continuous
 62
     7
370
    25
100
AcDbLine
 10
27.3240659161
 20
51.4547908496
 30
0.0
 11
27.2993071765
 21
51.4289442824
 31
0.0
  0
SPLINE
  5
1B2
330
1F
100
AcDbEntity
  8
0
  6
Continuous
 62
     7
370
    25
100
AcDbSpline
210
0.0
220
0.0
230
1.0
 70
     8
 71
     3
 72
    15
 73
    11
 74
     0
 42
0.00000001
 43
0.00000001
 40
0.0
 40
0.0
 40
0.0
 40
0.0
 40
0.0913942292267501
 40
0.1562608672127009
 40
0.2267227674849005
 40
0.3059893555533331
 40
0.3985747306771407
 40
0.5104191907761346
 40
0.6478782966083095
 40
1.0
 40
1.0
 40
1.0
 40
1.0
 10
27.29930717653799
 20
51.42894428237292
 30
0.0
 10
27.27451733524017
 20
51.40214930654237
 30
0.0
 10
27.22963672237926
 20
51.3587063207796
 30
0.0
 10
27.16075492398664
 20
51.2998783569965
 30
0.0
 10
27.09188039629624
 20
51.24875153731998
 30
0.0
 10
27.00959118716588
 20
51.19758864966069
 30
0.0
 10
26.9074345006178
 20
51.14801791193555
 30
0.0
 10
26.77724548472168
 20
51.10521893321052
 30
0.0
 10
26.53806601975481
 20
51.07038943951681
 30
0.0
 10
26.33983706813085
 20
51.11183770787706
 30
0.0
 10
26.21429921294098
 20
51.17675758363753
 30
0.0
  0
ARC
  5
1B3
330
1F
100
AcDbEntity
  8
0
  6
Continuous
 62
     7
370
    25
100
AcDbCircle
 10
0.0
 20
0.0
 30
0.0
 40
57.5
100
AcDbArc
 50
62.8770881273
 51
63.1229118727
  0
SPLINE
  5
1B4
330
1F
100
AcDbEntity
  8
0
  6
Continuous
 62
     7
370
    25
100
AcDbSpline
210
0.0
220
0.0
230
1.0
 70
     8
 71
     3
 72
    15
 73
    11
 74
     0
 42
0.00000001
 43
0.00000001
 40
0.0
 40
0.0
 40
0.0
 40
0.0
 40
0.3521217033916905
 40
0.4895808092238654
 40
0.6014252693228592
 40
0.6940106444466669
 40
0.7732772325150995
 40
0.8437391327872991
 40
0.9086057707732499
 40
1.0
 40
1.0
 40
1.0
 40
1.0
 10
25.99448812562093
 20
51.28875692670814
 30
0.0
 10
25.86817754297297
 20
51.35216023944146
 30
0.0
 10
25.71812913514015
 20
51.48816814920716
 30
0.0
 10
25.60572062528512
 20
51.70214066380884
 30
0.0
 10
25.56382254286134
 20
51.83262239865751
 30
0.0
 10
25.54387991832866
 20
51.94440584274403
 30
0.0
 10
25.53690318037669
 20
52.041052002215
 30
0.0
 10
25.5377822147283
 20
52.12682425619854
 30
0.0
 10
25.54488733192674
 20
52.2171290112354
 30
0.0
 10
25.55365328334171
 20
52.27897333610473
 30
0.0
 10
25.56075977103097
 20
52.31477843063126
 30
0.0
  0
LINE
  5
1B5
330
1F
100
AcDbEntity
  8
0
  6
Continuous
 62
     7
370
    25
100
AcDbLine
 10
25.560759771
 20
52.3147784306
 30
0.0
 11
25.5671172612
 21
52.3500009028
 31
0.0
  0
SPLINE
  5
1B6
330
1F
100
AcDbEntity
  8
0
  6
Continuous
 62
     7
370
    25
100
AcDbSpline
210
0.0
220
0.0
230
1.0
 70
     8
 71
     3
 72
    14
 73
    10
 74
     0
 42
0.00000001
 43
0.00000001
 40
0.0
 40
0.0
 40
0.0
 40
0.0
 40
0.1463524895720285
 40
0.2295876425155019
 40
0.3195287342547698
 40
0.4161757648032168
 40
0.5195287341716108
 40
0.6295876423687684
 40
0.688177695084771
 40
0.688177695084771
 40
0.688177695084771
 40
0.688177695084771
 10
25.56711726118012
 20
52.35000090275509
 30
0.0
 10
25.62318346375747
 20
52.62716367261591
 30
0.0
 10
25.69876258259309
 20
53.06440516609216
 30
0.0
 10
25.78096837824888
 20
53.67632251477388
 30
0.0
 10
25.83681290997278
 20
54.19469484956107
 30
0.0
 10
25.88219676832591
 20
54.75309798209788
 30
0.0
 10
25.91505281659237
 20
55.35131399327455
 30
0.0
 10
25.93010255258413
 20
55.87667954725115
 30
0.0
 10
25.93307786485808
 20
56.20252013364018
 30
0.0
 10
25.933365990896
 20
56.31572185795654
 30
0.0
  0
ARC
  5
1B7
330
1F
100
AcDbEntity
  8
0
  6
Continuous
 62
     7
370
    25
100
AcDbCircle
 10
0.0
 20
0.0
 30
0.0
 40
62.00000000000001
100
AcDbArc
 50
65.2739496673
 51
66.7260503327
  0
SPLINE
  5
1B8
330
1F
100
AcDbEntity
  8
0
  6
Continuous
 62
     7
370
    25
100
AcDbSpline
210
0.0
220
0.0
230
1.0
 70
     8
 71
     3
 72
    14
 73
    10
 74
     0
 42
0.00000001
 43
0.00000001
 40
0.3118223049152279
 40
0.3118223049152279
 40
0.3118223049152279
 40
0.3118223049152279
 40
0.3704123576312316
 40
0.4804712658283892
 40
0.5838242351967832
 40
0.6804712657452302
 40
0.7704123574844981
 40
0.8536475104279715
 40
1.0
 40
1.0
 40
1.0
 40
1.0
 10
24.49792838135025
 20
56.95481985769703
 30
0.0
 10
24.4139958996399
 20
56.8788589998902
 30
0.0
 10
24.17384002644033
 20
56.65861800282281
 30
0.0
 10
23.79348757248827
 20
56.29589569770332
 30
0.0
 10
23.37091142676369
 20
55.87119425315623
 30
0.0
 10
22.98630475694733
 20
55.46382284699387
 30
0.0
 10
22.63844632405382
 20
55.07546347751622
 30
0.0
 10
22.23870952665454
 20
54.60492003928549
 30
0.0
 10
21.96434807490818
 20
54.25618214255361
 30
0.0
 10
21.79589160879796
 20
54.02905874196703
 30
0.0
  0
LINE
  5
1B9
330
1F
100
AcDbEntity
  8
0
  6
Continuous
 62
     7
370
    25
100
AcDbLine
 10
21.7958916088
 20
54.029058742
 30
0.0
 11
21.7739702021
 21
54.0007657719
 31
0.0
  0
SPLINE
  5
1BA
330
1F
100
AcDbEntity
  8
0
  6
Continuous
 62
     7
370
    25
100
AcDbSpline
210
0.0
220
0.0
230
1.0
 70
     8
 71
     3
 72
    15
 73
    11
 74
     0
 42
0.00000001
 43
0.00000001
 40
0.0
 40
0.0
 40
0.0
 40
0.0
 40
0.0913942292267501
 40
0.1562608672127009
 40
0.2267227674849005
 40
0.3059893555533331
 40
0.3985747306771407
 40
0.5104191907761346
 40
0.6478782966083095
 40
1.0
 40
1.0
 40
1.0
 40
1.0
 10
21.77397020213704
 20
54.00076577192998
 30
0.0
 10
21.75211699983052
 20
53.97152633776513
 30
0.0
 10
21.71202327620433
 20
53.92363003573102
 30
0.0
 10
21.64966801616194
 20
53.85792422915571
 30
0.0
 10
21.58651499823324
 20
53.7998781390091
 30
0.0
 10
21.51002455602393
 20
53.74039396242776
 30
0.0
 10
21.41360904753103
 20
53.68041649693317
 30
0.0
 10
21.28860693216144
 20
53.62424351772578
 30
0.0
 10
21.05437839078161
 20
53.56460376172462
 30
0.0
 10
20.85290283429889
 20
53.58510440444557
 30
0.0
 10
20.72126671376623
 20
53.63654636324903
 30
0.0
  0
ARC
  5
1BB
330
1F
100
AcDbEntity
  8
0
  6
Continuous
 62
     7
370
    25
100
AcDbCircle
 10
0.0
 20
0.0
 30
0.0
 40
57.5
100
AcDbArc
 50
68.8770881273
 51
69.1229118727
  0
SPLINE
  5
1BC
330
1F
100
AcDbEntity
  8
0
  6
Continuous
 62
     7
370
    25
100
AcDbSpline
210
0.0
220
0.0
230
1.0
 70
     8
 71
     3
 72
    15
 73
    11
 74
     0
 42
0.00000001
 43
0.00000001
 40
0.0
 40
0.0
 40
0.0
 40
0.0
 40
0.3521217033916905
 40
0.4895808092238654
 40
0.6014252693228592
 40
0.6940106444466669
 40
0.7732772325150995
 40
0.8437391327872991
 40
0.9086057707732499
 40
1.0
 40
1.0
 40
1.0
 40
1.0
 10
20.49095265536357
 20
53.72495564703286
 30
0.0
 10
20.35870656445736
 20
53.7748085786864
 30
0.0
 10
20.19526343970242
 20
53.89438709340514
 30
0.0
 10
20.06110449729304
 20
54.09543755539017
 30
0.0
 10
20.00579688172042
 20
54.22082495547318
 30
0.0
 10
19.97427895334242
 20
54.32991146626098
 30
0.0
 10
19.95723816016073
 20
54.42529892026138
 30
0.0
 10
19.94914673717028
 20
54.51069318897302
 30
0.0
 10
19.94677351452352
 20
54.60124593209515
 30
0.0
 10
19.94902695289903
 20
54.66366775871244
 30
0.0
 10
19.95235185899715
 20
54.7000195394222
 30
0.0
  0
LINE
  5
1BD
330
1F
100
AcDbEntity
  8
0
  6
Continuous
 62
     7
370
    25
100
AcDbLine
 10
19.952351859
 20
54.7000195394
 30
0.0
 11
19.9549927713
 21
54.7357135978
 31
0.0
  0
SPLINE
  5
1BE
330
1F
100
AcDbEntity
  8
0
  6
Continuous
 62
     7
370
    25
100
AcDbSpline
210
0.0
220
0.0
230
1.0
 70
     8
 71
     3
 72
    14
 73
    10
 74
     0
 42
0.00000001
 43
0.00000001
 40
0.0
 40
0.0
 40
0.0
 40
0.0
 40
0.1463524895720285
 40
0.2295876425155019
 40
0.3195287342547698
 40
0.4161757648032168
 40
0.5195287341716108
 40
0.6295876423687684
 40
0.6881776950847717
 40
0.6881776950847717
 40
0.6881776950847717
 40
0.6881776950847717
 10
19.95499277126648
 20
54.73571359783387
 30
0.0
 10
19.98178043891124
 20
55.01721855503803
 30
0.0
 10
20.01124134603598
 20
55.45996496301071
 30
0.0
 10
20.02903402963732
 20
56.07712300992197
 30
0.0
 10
20.03038797561755
 20
56.59849298990401
 30
0.0
 10
20.01715419511812
 20
57.15858103662491
 30
0.0
 10
19.98729965416398
 20
57.75695435013432
 30
0.0
 10
19.94735129211637
 20
58.28101502241213
 30
0.0
 10
19.91625068955289
 20
58.60538162479541
 30
0.0
 10
19.90470443492419
 20
58.71799333559344
 30
0.0
  0
ARC
  5
1BF
330
1F
100
AcDbEntity
  8
0
  6
Continuous
 62
     7
370
    25
100
AcDbCircle
 10
0.0
 20
0.0
 30
0.0
 40
62.00000000000001
100
AcDbArc
 50
71.2739496673
 51
72.7260503327
  0
SPLINE
  5
1C0
330
1F
100
AcDbEntity
  8
0
  6
Continuous
 62
     7
370
    25
100
AcDbSpline
210
0.0
220
0.0
230
1.0
 70
     8
 71
     3
 72
    14
 73
    10
 74
     0
 42
0.00000001
 43
0.00000001
 40
0.3118223049152277
 40
0.3118223049152277
 40
0.3118223049152277
 40
0.3118223049152277
 40
0.3704123576312316
 40
0.4804712658283892
 40
0.5838242351967832
 40
0.6804712657452302
 40
0.7704123574844981
 40
0.8536475104279715
 40
1.0
 40
1.0
 40
1.0
 40
1.0
 10
18.41032637100556
 20
59.20354620217902
 30
0.0
 10
18.33479375194705
 20
59.11922813256773
 30
0.0
 10
18.11897493072079
 20
58.87509051435622
 30
0.0
 10
17.77862089245545
 20
58.47459758246475
 30
0.0
 10
17.40275305241808
 20
58.00805146174198
 30
0.0
 10
17.06283520524637
 20
57.56270933460815
 30
0.0
 10
16.75747698533237
 20
57.14011633096617
 30
0.0
 10
16.40911517043333
 20
56.63036670578014
 30
0.0
 10
16.17270973585513
 20
56.25486065080469
 30
0.0
 10
16.02891695192759
 20
56.01137296044083
 30
0.0
  0
LINE
  5
1C1
330
1F
100
AcDbEntity
  8
0
  6
Continuous
 62
     7
370
    25
100
AcDbLine
 10
16.0289169519
 20
56.0113729604
 30
0.0
 11
16.0100730537
 21
55.9809435713
 31
0.0
  0
SPLINE
  5
1C2
330
1F
100
AcDbEntity
  8
0
  6
Continuous
 62
     7
370
    25
100
AcDbSpline
210
0.0
220
0.0
230
1.0
 70
     8
 71
     3
 72
    15
 73
    11
 74
     0
 42
0.00000001
 43
0.00000001
 40
0.0
 40
0.0
 40
0.0
 40
0.0
 40
0.0913942292267501
 40
0.1562608672127009
 40
0.2267227674849005
 40
0.3059893555533331
 40
0.3985747306771407
 40
0.5104191907761346
 40
0.6478782966083095
 40
1.0
 40
1.0
 40
1.0
 40
1.0
 10
16.01007305370528
 20
55.98094357130306
 30
0.0
 10
15.99139591864759
 20
55.94958003216335
 30
0.0
 10
15.95652835948234
 20
55.89775517576593
 30
0.0
 10
15.90138281506788
 20
55.82589141296507
 30
0.0
 10
15.84464322458092
 20
55.76156201745894
 30
0.0
 10
15.77478959458414
 20
55.69440827304205
 30
0.0
 10
15.68517161263374
 20
55.62468120544105
 30
0.0
 10
15.56672594712504
 20
55.55574966866644
 30
0.0
 10
15.34001458624709
 20
55.47195307600501
 30
0.0
 10
15.13749983326389
 20
55.47128148375499
 30
0.0
 10
15.00120768027162
 20
55.50868191673587
 30
0.0
  0
ARC
  5
1C3
330
1F
100
AcDbEntity
  8
0
  6
Continuous
 62
     7
370
    25
100
AcDbCircle
 10
0.0
 20
0.0
 30
0.0
 40
57.49999999999999
100
AcDbArc
 50
74.8770881273
 51
75.1229118727
  0
SPLINE
  5
1C4
330
1F
100
AcDbEntity
  8
0
  6
Continuous
 62
     7
370
    25
100
AcDbSpline
210
0.0
220
0.0
230
1.0
 70
     8
 71
     3
 72
    15
 73
    11
 74
     0
 42
0.00000001
 43
0.00000001
 40
0.0
 40
0.0
 40
0.0
 40
0.0
 40
0.3521217033916905
 40
0.4895808092238654
 40
0.6014252693228592
 40
0.6940106444466669
 40
0.7732772325150995
 40
0.8437391327872991
 40
0.9086057707732499
 40
1.0
 40
1.0
 40
1.0
 40
1.0
 10
14.76291401980654
 20
55.57253251061894
 30
0.0
 10
14.62618133648831
 20
55.60828886204111
 30
0.0
 10
14.45113421188874
 20
55.7101278544822
 30
0.0
 10
14.29669471037261
 20
55.89605351291656
 30
0.0
 10
14.22858352346123
 20
56.01497280763962
 30
0.0
 10
14.18583560825678
 20
56.12016721048868
 30
0.0
 10
14.15891746234146
 20
56.21325087411136
 30
0.0
 10
14.14194423333249
 20
56.29733156007322
 30
0.0
 10
14.13011867236447
 20
56.38714017647757
 30
0.0
 10
14.12583490855812
 20
56.44945559824781
 30
0.0
 10
14.1253418046981
 20
56.48595578742423
 30
0.0
  0
LINE
  5
1C5
330
1F
100
AcDbEntity
  8
0
  6
Continuous
 62
     7
370
    25
100
AcDbLine
 10
14.1253418047
 20
56.4859557874
 30
0.0
 11
14.1242372047
 21
56.5217303606
 31
0.0
  0
SPLINE
  5
1C6
330
1F
100
AcDbEntity
  8
0
  6
Continuous
 62
     7
370
    25
100
AcDbSpline
210
0.0
220
0.0
230
1.0
 70
     8
 71
     3
 72
    14
 73
    10
 74
     0
 42
0.00000001
 43
0.00000001
 40
0.0
 40
0.0
 40
0.0
 40
0.0
 40
0.1463524895720285
 40
0.2295876425155019
 40
0.3195287342547698
 40
0.4161757648032168
 40
0.5195287341716108
 40
0.6295876423687684
 40
0.6881776950847709
 40
0.6881776950847709
 40
0.6881776950847709
 40
0.6881776950847709
 10
14.12423720470014
 20
56.52173036055034
 30
0.0
 10
14.12145284611993
 20
56.80449327787802
 30
0.0
 10
14.10447276167024
 20
57.24789377805072
 30
0.0
 10
14.05765739285223
 20
57.86353081048095
 30
0.0
 10
14.0045059189733
 20
58.38218619705346
 30
0.0
 10
13.9327994916898
 20
58.93782271611261
 30
0.0
 10
13.84056145411324
 20
59.52979742871429
 30
0.0
 10
13.74605267664057
 20
60.0468115009011
 30
0.0
 10
13.68121690394957
 20
60.36615029090482
 30
0.0
 10
13.65796277183617
 20
60.47693819071551
 30
0.0
  0
ARC
  5
1C7
330
1F
100
AcDbEntity
  8
0
  6
Continuous
 62
     7
370
    25
100
AcDbCircle
 10
0.0
 20
0.0
 30
0.0
 40
62.00000000000001
100
AcDbArc
 50
77.2739496673
 51
78.7260503327
  0
SPLINE
  5
1C8
330
1F
100
AcDbEntity
  8
0
  6
Continuous
 62
     7
370
    25
100
AcDbSpline
210
0.0
220
0.0
230
1.0
 70
     8
 71
     3
 72
    14
 73
    10
 74
     0
 42
0.00000001
 43
0.00000001
 40
0.3118223049152309
 40
0.3118223049152309
 40
0.3118223049152309
 40
0.3118223049152309
 40
0.3704123576312316
 40
0.4804712658283892
 40
0.5838242351967832
 40
0.6804712657452302
 40
0.7704123574844981
 40
0.8536475104279715
 40
1.0
 40
1.0
 40
1.0
 40
1.0
 10
12.12101697233163
 20
60.80362610533135
 30
0.0
 10
12.0547117671056
 20
60.71187463033099
 30
0.0
 10
11.86559455402099
 20
60.44651521380958
 30
0.0
 10
11.56896792150928
 20
60.01263953951645
 30
0.0
 10
11.24392647386997
 20
59.5093603195477
 30
0.0
 10
10.95242166040891
 20
59.03092673298111
 30
0.0
 10
10.69290922203211
 20
58.57873011255596
 30
0.0
 10
10.39973911457674
 20
58.03535922398017
 30
0.0
 10
10.20387980457896
 20
57.63719913367914
 30
0.0
 10
10.08632612666538
 20
57.3800148556267
 30
0.0
  0
LINE
  5
1C9
330
1F
100
AcDbEntity
  8
0
  6
Continuous
 62
     7
370
    25
100
AcDbLine
 10
10.0863261267
 20
57.3800148556
 30
0.0
 11
10.0707661946
 21
57.3477824381
 31
0.0
  0
SPLINE
  5
1CA
330
1F
100
AcDbEntity
  8
0
  6
Continuous
 62
     7
370
    25
100
AcDbSpline
210
0.0
220
0.0
230
1.0
 70
     8
 71
     3
 72
    15
 73
    11
 74
     0
 42
0.00000001
 43
0.00000001
 40
0.0
 40
0.0
 40
0.0
 40
0.0
 40
0.0913942292267501
 40
0.1562608672127009
 40
0.2267227674849005
 40
0.3059893555533331
 40
0.3985747306771407
 40
0.5104191907761346
 40
0.6478782966083095
 40
1.0
 40
1.0
 40
1.0
 40
1.0
 10
10.07076619457395
 20
57.34778243814336
 30
0.0
 10
10.05546975736524
 20
57.31463841952686
 30
0.0
 10
10.02621037893564
 20
57.25945281273786
 30
0.0
 10
9.978878736273655
 20
57.18221844813515
 30
0.0
 10
9.929174224055336
 20
57.11231055358847
 30
0.0
 10
9.866722737259154
 20
57.03822299181267
 30
0.0
 10
9.78488415521525
 20
56.95951026644924
 30
0.0
 10
9.674292655065114
 20
56.87857540044916
 30
0.0
 10
9.457582371801218
 20
56.77154006413222
 30
0.0
 10
9.256247216330166
 20
56.74970359501646
 30
0.0
 10
9.116792276227427
 20
56.77265273520447
 30
0.0
  0
ARC
  5
1CB
330
1F
100
AcDbEntity
  8
0
  6
Continuous
 62
     7
370
    25
100
AcDbCircle
 10
0.0
 20
0.0
 30
0.0
 40
57.49999999999999
100
AcDbArc
 50
80.8770881273
 51
81.1229118727
  0
SPLINE
  5
1CC
330
1F
100
AcDbEntity
  8
0
  6
Continuous
 62
     7
370
    25
100
AcDbSpline
210
0.0
220
0.0
230
1.0
 70
     8
 71
     3
 72
    15
 73
    11
 74
     0
 42
0.00000001
 43
0.00000001
 40
0.0
 40
0.0
 40
0.0
 40
0.0
 40
0.3521217033916905
 40
0.4895808092238654
 40
0.6014252693228592
 40
0.6940106444466669
 40
0.7732772325150995
 40
0.8437391327872991
 40
0.9086057707732499
 40
1.0
 40
1.0
 40
1.0
 40
1.0
 10
8.873129808910127
 20
56.81124507871862
 30
0.0
 10
8.733408605071476
 20
56.83251309584072
 30
0.0
 10
8.548675333555352
 20
56.91549679669182
 30
0.0
 10
8.375647344429627
 20
57.08426061115424
 30
0.0
 10
8.295478826596465
 20
57.1954088958389
 30
0.0
 10
8.241969279670126
 20
57.29555865885826
 30
0.0
 10
8.205468701860823
 20
57.38531868800558
 30
0.0
 10
8.179799629082213
 20
57.46716458562722
 30
0.0
 10
8.158651293113572
 20
57.55524511331881
 30
0.0
 10
8.147877260938044
 20
57.61677138944075
 30
0.0
 10
8.143571549668978
 20
57.65302008337307
 30
0.0
  0
LINE
  5
1CD
330
1F
100
AcDbEntity
  8
0
  6
Continuous
 62
     7
370
    25
100
AcDbLine
 10
8.1435715497
 20
57.6530200834
 30
0.0
 11
8.1387335396
 21
57.6884832175
 31
0.0
  0
SPLINE
  5
1CE
330
1F
100
AcDbEntity
  8
0
  6
Continuous
 62
     7
370
    25
100
AcDbSpline
210
0.0
220
0.0
230
1.0
 70
     8
 71
     3
 72
    14
 73
    10
 74
     0
 42
0.00000001
 43
0.00000001
 40
0.0
 40
0.0
 40
0.0
 40
0.0
 40
0.1463524895720285
 40
0.2295876425155019
 40
0.3195287342547698
 40
0.4161757648032168
 40
0.5195287341716108
 40
0.6295876423687684
 40
0.6881776950855198
 40
0.6881776950855198
 40
0.6881776950855198
 40
0.6881776950855198
 10
8.138733539632456
 20
57.68848321750412
 30
0.0
 10
8.106407660842539
 20
57.96940608526113
 30
0.0
 10
8.043172622176954
 20
58.40860268896645
 30
0.0
 10
7.932262119917111
 20
59.015973658758
 30
0.0
 10
7.82518756484951
 20
59.52623195497009
 30
0.0
 10
7.695794121404795
 20
60.07132927639027
 30
0.0
 10
7.54218316644753
 20
60.65041958925428
 30
0.0
 10
7.394149431492634
 20
61.15472254698443
 30
0.0
 10
7.296288842967011
 20
61.46553478200076
 30
0.0
 10
7.261581610506128
 20
61.57328505541128
 30
0.0
  0
ARC
  5
1CF
330
1F
100
AcDbEntity
  8
0
  6
Continuous
 62
     7
370
    25
100
AcDbCircle
 10
0.0
 20
0.0
 30
0.0
 40
62.00000000000394
100
AcDbArc
 50
83.2739496673
 51
84.7260503327
  0
SPLINE
  5
1D0
330
1F
100
AcDbEntity
  8
0
  6
Continuous
 62
     7
370
    25
100
AcDbSpline
210
0.0
220
0.0
230
1.0
 70
     8
 71
     3
 72
    14
 73
    10
 74
     0
 42
0.00000001
 43
0.00000001
 40
0.3118223049152281
 40
0.3118223049152281
 40
0.3118223049152281
 40
0.3118223049152281
 40
0.3704123576312316
 40
0.4804712658283892
 40
0.5838242351967832
 40
0.6804712657452302
 40
0.7704123574844981
 40
0.8536475104279715
 40
1.0
 40
1.0
 40
1.0
 40
1.0
 10
5.698907175222994
 20
61.73752875689696
 30
0.0
 10
5.642555837533147
 20
61.63934912486782
 30
0.0
 10
5.482212240352056
 20
61.35567524333393
 30
0.0
 10
5.232562917052873
 20
60.89317045932103
 30
0.0
 10
4.961909083931256
 20
60.3586721725582
 30
0.0
 10
4.722011091918421
 20
59.85238894505196
 30
0.0
 10
4.511187707660161
 20
59.37554306864524
 30
0.0
 10
4.276421340695532
 20
58.80450420184257
 30
0.0
 10
4.123254030864689
 20
58.38805240148565
 30
0.0
 10
4.033227401659989
 20
58.11998930051426
 30
0.0
  0
LINE
  5
1D1
330
1F
100
AcDbEntity
  8
0
  6
Continuous
 62
     7
370
    25
100
AcDbLine
 10
4.0332274017
 20
58.1199893005
 30
0.0
 11
4.0211219136
 21
58.0863069998
 31
0.0
  0
SPLINE
  5
1D2
330
1F
100
AcDbEntity
  8
0
  6
Continuous
 62
     7
370
    25
100
AcDbSpline
210
0.0
220
0.0
230
1.0
 70
     8
 71
     3
 72
    15
 73
    11
 74
     0
 42
0.00000001
 43
0.00000001
 40
0.0
 40
0.0
 40
0.0
 40
0.0
 40
0.0913942292267501
 40
0.1562608672127009
 40
0.2267227674849005
 40
0.3059893555533331
 40
0.3985747306771407
 40
0.5104191907761346
 40
0.6478782966083095
 40
1.0
 40
1.0
 40
1.0
 40
1.0
 10
4.021121913571553
 20
58.08630699979636
 30
0.0
 10
4.009373765178863
 20
58.05174563450686
 30
0.0
 10
3.986043139357903
 20
57.99380390238261
 30
0.0
 10
3.947043973830189
 20
57.91204513183897
 30
0.0
 10
3.904919112917713
 20
57.83732466377354
 30
0.0
 10
3.850554000880281
 20
57.75711500346948
 30
0.0
 10
3.777391459373574
 20
57.67027901343437
 30
0.0
 10
3.675865788200401
 20
57.57822755753745
 30
0.0
 10
3.471530905763541
 20
57.44912617910828
 30
0.0
 10
3.273581217900068
 20
57.40636407805196
 30
0.0
 10
3.132491388193456
 20
57.41461048986481
 30
0.0
  0
ARC
  5
1D3
330
1F
100
AcDbEntity
  8
0
  6
Continuous
 62
     7
370
    25
100
AcDbCircle
 10
0.0
 20
0.0
 30
0.0
 40
57.49999999999999
100
AcDbArc
 50
86.8770881273
 51
87.1229118727
  0
SPLINE
  5
1D4
330
1F
100
AcDbEntity
  8
0
  6
Continuous
 62
     7
370
    25
100
AcDbSpline
210
0.0
220
0.0
230
1.0
 70
     8
 71
     3
 72
    15
 73
    11
 74
     0
 42
0.00000001
 43
0.00000001
 40
0.0
 40
0.0
 40
0.0
 40
0.0
 40
0.3521217033916905
 40
0.4895808092238654
 40
0.6014252693228592
 40
0.6940106444466669
 40
0.7732772325150995
 40
0.8437391327872991
 40
0.9086057707732499
 40
1.0
 40
1.0
 40
1.0
 40
1.0
 10
2.886129731005514
 20
57.42752175721851
 30
0.0
 10
2.744950821394239
 20
57.43406842319435
 30
0.0
 10
2.552555379342212
 20
57.49728764566348
 30
0.0
 10
2.362834633464191
 20
57.64704060448663
 30
0.0
 10
2.271487127766966
 20
57.74920011526659
 30
0.0
 10
2.207802210912451
 20
57.84320797669493
 30
0.0
 10
2.16211910917788
 20
57.92866094170404
 30
0.0
 10
2.128035428362598
 20
58.00737533020379
 30
0.0
 10
2.097796022987773
 20
58.0927627404892
 30
0.0
 10
2.080649764994201
 20
58.15282577620643
 30
0.0
 10
2.072578620589778
 20
58.1884258266184
 30
0.0
  0
LINE
  5
1D5
330
1F
100
AcDbEntity
  8
0
  6
Continuous
 62
     7
370
    25
100
AcDbLine
 10
2.0725786206
 20
58.1884258266
 30
0.0
 11
2.0640602068
 21
58.2231889802
 31
0.0
  0
SPLINE
  5
1D6
330
1F
100
AcDbEntity
  8
0
  6
Continuous
 62
     7
370
    25
100
AcDbSpline
210
0.0
220
0.0
230
1.0
 70
     8
 71
     3
 72
    14
 73
    10
 74
     0
 42
0.00000001
 43
0.00000001
 40
0.0
 40
0.0
 40
0.0
 40
0.0
 40
0.1463524895720285
 40
0.2295876425155019
 40
0.3195287342547698
 40
0.4161757648032168
 40
0.5195287341716108
 40
0.6295876423687684
 40
0.6881776950847717
 40
0.6881776950847717
 40
0.6881776950847717
 40
0.6881776950847717
 10
2.064060206765069
 20
58.22318898023572
 30
0.0
 10
2.002546976858093
 20
58.49919394869603
 30
0.0
 10
1.893749800293021
 20
58.92937472603595
 30
0.0
 10
1.71995932326362
 20
59.52182514974325
 30
0.0
 10
1.560134818239453
 20
60.0180958589232
 30
0.0
 10
1.374472020277222
 20
60.54668178238198
 30
0.0
 10
1.161171141706933
 20
61.10654306085814
 30
0.0
 10
0.9612343378488291
 20
61.59260965539182
 30
0.0
 10
0.8314211145760328
 20
61.89149001152953
 30
0.0
 10
0.785641041470378
 20
61.99502212399349
 30
0.0
  0
ARC
  5
1D7
330
1F
100
AcDbEntity
  8
0
  6
Continuous
 62
     7
370
    25
100
AcDbCircle
 10
0.0
 20
0.0
 30
0.0
 40
62.0
100
AcDbArc
 50
89.2739496673
 51
90.7260503327
  0
SPLINE
  5
1D8
330
1F
100
AcDbEntity
  8
0
  6
Continuous
 62
     7
370
    25
100
AcDbSpline
210
0.0
220
0.0
230
1.0
 70
     8
 71
     3
 72
    14
 73
    10
 74
     0
 42
0.00000001
 43
0.00000001
 40
0.3118223049152274
 40
0.3118223049152274
 40
0.3118223049152274
 40
0.3118223049152274
 40
0.3704123576312316
 40
0.4804712658283892
 40
0.5838242351967832
 40
0.6804712657452302
 40
0.7704123574844981
 40
0.8536475104279715
 40
1.0
 40
1.0
 40
1.0
 40
1.0
 10
-0.785641041470391
 20
61.99502212399351
 30
0.0
 10
-0.8314211145760465
 20
61.89149001152954
 30
0.0
 10
-0.9612343378488434
 20
61.59260965539183
 30
0.0
 10
-1.161171141706949
 20
61.10654306085815
 30
0.0
 10
-1.374472020277236
 20
60.54668178238198
 30
0.0
 10
-1.560134818239468
 20
60.01809585892321
 30
0.0
 10
-1.719959323263635
 20
59.52182514974325
 30
0.0
 10
-1.893749800293034
 20
58.92937472603597
 30
0.0
 10
-2.00254697685811
 20
58.49919394869602
 30
0.0
 10
-2.064060206765082
 20
58.22318898023572
 30
0.0
  0
LINE
  5
1D9
330
1F
100
AcDbEntity
  8
0
  6
Continuous
 62
     7
370
    25
100
AcDbLine
 10
-2.0640602068
 20
58.2231889802
 30
0.0
 11
-2.0725786206
 21
58.1884258266
 31
0.0
  0
SPLINE
  5
1DA
330
1F
100
AcDbEntity
  8
0
  6
Continuous
 62
     7
370
    25
100
AcDbSpline
210
0.0
220
0.0
230
1.0
 70
     8
 71
     3
 72
    15
 73
    11
 74
     0
 42
0.00000001
 43
0.00000001
 40
0.0
 40
0.0
 40
0.0
 40
0.0
 40
0.0913942292267501
 40
0.1562608672127009
 40
0.2267227674849005
 40
0.3059893555533331
 40
0.3985747306771407
 40
0.5104191907761346
 40
0.6478782966083095
 40
1.0
 40
1.0
 40
1.0
 40
1.0
 10
-2.072578620589792
 20
58.1884258266184
 30
0.0
 10
-2.080649764994214
 20
58.15282577620644
 30
0.0
 10
-2.097796022987788
 20
58.09276274048918
 30
0.0
 10
-2.128035428362612
 20
58.0073753302038
 30
0.0
 10
-2.162119109177894
 20
57.92866094170402
 30
0.0
 10
-2.207802210912465
 20
57.84320797669493
 30
0.0
 10
-2.27148712776698
 20
57.74920011526659
 30
0.0
 10
-2.362834633464205
 20
57.64704060448663
 30
0.0
 10
-2.552555379342226
 20
57.49728764566348
 30
0.0
 10
-2.744950821394254
 20
57.43406842319435
 30
0.0
 10
-2.886129731005528
 20
57.42752175721851
 30
0.0
  0
ARC
  5
1DB
330
1F
100
AcDbEntity
  8
0
  6
Continuous
 62
     7
370
    25
100
AcDbCircle
 10
0.0
 20
0.0
 30
0.0
 40
57.5
100
AcDbArc
 50
92.8770881273
 51
93.1229118727
  0
SPLINE
  5
1DC
330
1F
100
AcDbEntity
  8
0
  6
Continuous
 62
     7
370
    25
100
AcDbSpline
210
0.0
220
0.0
230
1.0
 70
     8
 71
     3
 72
    15
 73
    11
 74
     0
 42
0.00000001
 43
0.00000001
 40
0.0
 40
0.0
 40
0.0
 40
0.0
 40
0.3521217033916905
 40
0.4895808092238654
 40
0.6014252693228592
 40
0.6940106444466669
 40
0.7732772325150995
 40
0.8437391327872991
 40
0.9086057707732499
 40
1.0
 40
1.0
 40
1.0
 40
1.0
 10
-3.132491388192688
 20
57.41461048986485
 30
0.0
 10
-3.273581217899302
 20
57.40636407805201
 30
0.0
 10
-3.471530905762773
 20
57.44912617910832
 30
0.0
 10
-3.675865788199631
 20
57.5782275575375
 30
0.0
 10
-3.777391459372803
 20
57.67027901343442
 30
0.0
 10
-3.850554000879509
 20
57.75711500346953
 30
0.0
 10
-3.904919112916941
 20
57.83732466377361
 30
0.0
 10
-3.947043973829414
 20
57.91204513183901
 30
0.0
 10
-3.986043139357132
 20
57.99380390238269
 30
0.0
 10
-4.009373765178085
 20
58.0517456345069
 30
0.0
 10
-4.021121913570775
 20
58.08630699979641
 30
0.0
  0
LINE
  5
1DD
330
1F
100
AcDbEntity
  8
0
  6
Continuous
 62
     7
370
    25
100
AcDbLine
 10
-4.0211219136
 20
58.0863069998
 30
0.0
 11
-4.0332274017
 21
58.1199893005
 31
0.0
  0
SPLINE
  5
1DE
330
1F
100
AcDbEntity
  8
0
  6
Continuous
 62
     7
370
    25
100
AcDbSpline
210
0.0
220
0.0
230
1.0
 70
     8
 71
     3
 72
    14
 73
    10
 74
     0
 42
0.00000001
 43
0.00000001
 40
0.0
 40
0.0
 40
0.0
 40
0.0
 40
0.1463524895720285
 40
0.2295876425155019
 40
0.3195287342547698
 40
0.4161757648032168
 40
0.5195287341716108
 40
0.6295876423687684
 40
0.6881776950847727
 40
0.6881776950847727
 40
0.6881776950847727
 40
0.6881776950847727
 10
-4.033227401659213
 20
58.11998930051432
 30
0.0
 10
-4.123254030863911
 20
58.38805240148572
 30
0.0
 10
-4.276421340694744
 20
58.80450420184261
 30
0.0
 10
-4.511187707659367
 20
59.3755430686453
 30
0.0
 10
-4.722011091917621
 20
59.85238894505201
 30
0.0
 10
-4.961909083930449
 20
60.35867217255826
 30
0.0
 10
-5.23256291705206
 20
60.89317045932109
 30
0.0
 10
-5.482212240351238
 20
61.35567524333401
 30
0.0
 10
-5.642555837532326
 20
61.63934912486791
 30
0.0
 10
-5.698907175222171
 20
61.73752875689703
 30
0.0
  0
ARC
  5
1DF
330
1F
100
AcDbEntity
  8
0
  6
Continuous
 62
     7
370
    25
100
AcDbCircle
 10
0.0
 20
0.0
 30
0.0
 40
62.00000000000001
100
AcDbArc
 50
95.2739496673
 51
96.7260503327
  0
SPLINE
  5
1E0
330
1F
100
AcDbEntity
  8
0
  6
Continuous
 62
     7
370
    25
100
AcDbSpline
210
0.0
220
0.0
230
1.0
 70
     8
 71
     3
 72
    14
 73
    10
 74
     0
 42
0.00000001
 43
0.00000001
 40
0.3118223049152278
 40
0.3118223049152278
 40
0.3118223049152278
 40
0.3118223049152278
 40
0.3704123576312316
 40
0.4804712658283892
 40
0.5838242351967832
 40
0.6804712657452302
 40
0.7704123574844981
 40
0.8536475104279715
 40
1.0
 40
1.0
 40
1.0
 40
1.0
 10
-7.261581610506633
 20
61.57328505540727
 30
0.0
 10
-7.296288842967057
 20
61.46553478199811
 30
0.0
 10
-7.394149431492223
 20
61.15472254698314
 30
0.0
 10
-7.542183166446722
 20
60.65041958925438
 30
0.0
 10
-7.695794121403992
 20
60.07132927639037
 30
0.0
 10
-7.825187564848716
 20
59.52623195497021
 30
0.0
 10
-7.932262119916322
 20
59.0159736587581
 30
0.0
 10
-8.043172622176172
 20
58.40860268896656
 30
0.0
 10
-8.106407660841766
 20
57.96940608526123
 30
0.0
 10
-8.138733539631685
 20
57.68848321750423
 30
0.0
  0
LINE
  5
1E1
330
1F
100
AcDbEntity
  8
0
  6
Continuous
 62
     7
370
    25
100
AcDbLine
 10
-8.1387335396
 20
57.6884832175
 30
0.0
 11
-8.1435715497
 21
57.6530200834
 31
0.0
  0
SPLINE
  5
1E2
330
1F
100
AcDbEntity
  8
0
  6
Continuous
 62
     7
370
    25
100
AcDbSpline
210
0.0
220
0.0
230
1.0
 70
     8
 71
     3
 72
    15
 73
    11
 74
     0
 42
0.00000001
 43
0.00000001
 40
0.0
 40
0.0
 40
0.0
 40
0.0
 40
0.0913942292267501
 40
0.1562608672127009
 40
0.2267227674849005
 40
0.3059893555533331
 40
0.3985747306771407
 40
0.5104191907761346
 40
0.6478782966083095
 40
1.0
 40
1.0
 40
1.0
 40
1.0
 10
-8.14357154966821
 20
57.65302008337319
 30
0.0
 10
-8.147877260937273
 20
57.61677138944087
 30
0.0
 10
-8.1586512931128
 20
57.5552451133189
 30
0.0
 10
-8.179799629081447
 20
57.46716458562734
 30
0.0
 10
-8.205468701860054
 20
57.38531868800567
 30
0.0
 10
-8.241969279669359
 20
57.29555865885838
 30
0.0
 10
-8.2954788265957
 20
57.195408895839
 30
0.0
 10
-8.375647344428863
 20
57.08426061115436
 30
0.0
 10
-8.548675333554591
 20
56.91549679669194
 30
0.0
 10
-8.73340860507072
 20
56.83251309584084
 30
0.0
 10
-8.873129808909367
 20
56.81124507871873
 30
0.0
  0
ARC
  5
1E3
330
1F
100
AcDbEntity
  8
0
  6
Continuous
 62
     7
370
    25
100
AcDbCircle
 10
0.0
 20
0.0
 30
0.0
 40
57.49999999999999
100
AcDbArc
 50
98.8770881273
 51
99.1229118727
  0
SPLINE
  5
1E4
330
1F
100
AcDbEntity
  8
0
  6
Continuous
 62
     7
370
    25
100
AcDbSpline
210
0.0
220
0.0
230
1.0
 70
     8
 71
     3
 72
    15
 73
    11
 74
     0
 42
0.00000001
 43
0.00000001
 40
0.0
 40
0.0
 40
0.0
 40
0.0
 40
0.3521217033916905
 40
0.4895808092238654
 40
0.6014252693228592
 40
0.6940106444466669
 40
0.7732772325150995
 40
0.8437391327872991
 40
0.9086057707732499
 40
1.0
 40
1.0
 40
1.0
 40
1.0
 10
-9.11679227622669
 20
56.77265273520459
 30
0.0
 10
-9.25624721632943
 20
56.74970359501658
 30
0.0
 10
-9.457582371800479
 20
56.77154006413233
 30
0.0
 10
-9.674292655064374
 20
56.87857540044929
 30
0.0
 10
-9.784884155214508
 20
56.95951026644936
 30
0.0
 10
-9.866722737258412
 20
57.03822299181279
 30
0.0
 10
-9.929174224054595
 20
57.11231055358861
 30
0.0
 10
-9.978878736272907
 20
57.18221844813527
 30
0.0
 10
-10.0262103789349
 20
57.25945281273801
 30
0.0
 10
-10.05546975736449
 20
57.31463841952697
 30
0.0
 10
-10.0707661945732
 20
57.34778243814349
 30
0.0
  0
LINE
  5
1E5
330
1F
100
AcDbEntity
  8
0
  6
Continuous
 62
     7
370
    25
100
AcDbLine
 10
-10.0707661946
 20
57.3477824381
 30
0.0
 11
-10.0863261267
 21
57.3800148556
 31
0.0
  0
SPLINE
  5
1E6
330
1F
100
AcDbEntity
  8
0
  6
Continuous
 62
     7
370
    25
100
AcDbSpline
210
0.0
220
0.0
230
1.0
 70
     8
 71
     3
 72
    14
 73
    10
 74
     0
 42
0.00000001
 43
0.00000001
 40
0.0
 40
0.0
 40
0.0
 40
0.0
 40
0.1463524895720285
 40
0.2295876425155019
 40
0.3195287342547698
 40
0.4161757648032168
 40
0.5195287341716108
 40
0.6295876423687684
 40
0.6881776950847724
 40
0.6881776950847724
 40
0.6881776950847724
 40
0.6881776950847724
 10
-10.08632612666463
 20
57.38001485562683
 30
0.0
 10
-10.20387980457821
 20
57.63719913367927
 30
0.0
 10
-10.39973911457598
 20
58.03535922398028
 30
0.0
 10
-10.69290922203135
 20
58.5787301125561
 30
0.0
 10
-10.95242166040813
 20
59.03092673298124
 30
0.0
 10
-11.24392647386919
 20
59.50936031954784
 30
0.0
 10
-11.5689679215085
 20
60.0126395395166
 30
0.0
 10
-11.86559455402021
 20
60.44651521380973
 30
0.0
 10
-12.05471176710482
 20
60.71187463033115
 30
0.0
 10
-12.12101697233085
 20
60.80362610533153
 30
0.0
  0
ARC
  5
1E7
330
1F
100
AcDbEntity
  8
0
  6
Continuous
 62
     7
370
    25
100
AcDbCircle
 10
0.0
 20
0.0
 30
0.0
 40
62.00000000000001
100
AcDbArc
 50
101.2739496673
 51
102.7260503327
  0
SPLINE
  5
1E8
330
1F
100
AcDbEntity
  8
0
  6
Continuous
 62
     7
370
    25
100
AcDbSpline
210
0.0
220
0.0
230
1.0
 70
     8
 71
     3
 72
    14
 73
    10
 74
     0
 42
0.00000001
 43
0.00000001
 40
0.3118223049152274
 40
0.3118223049152274
 40
0.3118223049152274
 40
0.3118223049152274
 40
0.3704123576312316
 40
0.4804712658283892
 40
0.5838242351967832
 40
0.6804712657452302
 40
0.7704123574844981
 40
0.8536475104279715
 40
1.0
 40
1.0
 40
1.0
 40
1.0
 10
-13.65796277183539
 20
60.47693819071569
 30
0.0
 10
-13.68121690394879
 20
60.366150290905
 30
0.0
 10
-13.74605267663979
 20
60.04681150090127
 30
0.0
 10
-13.84056145411246
 20
59.52979742871447
 30
0.0
 10
-13.93279949168904
 20
58.93782271611279
 30
0.0
 10
-14.00450591897255
 20
58.38218619705364
 30
0.0
 10
-14.05765739285147
 20
57.86353081048112
 30
0.0
 10
-14.10447276166949
 20
57.2478937780509
 30
0.0
 10
-14.1214528461192
 20
56.80449327787819
 30
0.0
 10
-14.12423720469941
 20
56.52173036055052
 30
0.0
  0
LINE
  5
1E9
330
1F
100
AcDbEntity
  8
0
  6
Continuous
 62
     7
370
    25
100
AcDbLine
 10
-14.1242372047
 20
56.5217303606
 30
0.0
 11
-14.1253418047
 21
56.4859557874
 31
0.0
  0
SPLINE
  5
1EA
330
1F
100
AcDbEntity
  8
0
  6
Continuous
 62
     7
370
    25
100
AcDbSpline
210
0.0
220
0.0
230
1.0
 70
     8
 71
     3
 72
    15
 73
    11
 74
     0
 42
0.00000001
 43
0.00000001
 40
0.0
 40
0.0
 40
0.0
 40
0.0
 40
0.0913942292267501
 40
0.1562608672127009
 40
0.2267227674849005
 40
0.3059893555533331
 40
0.3985747306771407
 40
0.5104191907761346
 40
0.6478782966083095
 40
1.0
 40
1.0
 40
1.0
 40
1.0
 10
-14.12534180469737
 20
56.48595578742442
 30
0.0
 10
-14.12583490855738
 20
56.44945559824799
 30
0.0
 10
-14.13011867236374
 20
56.38714017647772
 30
0.0
 10
-14.14194423333176
 20
56.29733156007341
 30
0.0
 10
-14.15891746234073
 20
56.21325087411152
 30
0.0
 10
-14.18583560825605
 20
56.12016721048886
 30
0.0
 10
-14.2285835234605
 20
56.0149728076398
 30
0.0
 10
-14.29669471037188
 20
55.89605351291674
 30
0.0
 10
-14.45113421188801
 20
55.71012785448239
 30
0.0
 10
-14.62618133648759
 20
55.60828886204129
 30
0.0
 10
-14.76291401980581
 20
55.57253251061913
 30
0.0
  0
ARC
  5
1EB
330
1F
100
AcDbEntity
  8
0
  6
Continuous
 62
     7
370
    25
100
AcDbCircle
 10
0.0
 20
0.0
 30
0.0
 40
57.5
100
AcDbArc
 50
104.8770881273
 51
105.1229118727
  0
SPLINE
  5
1EC
330
1F
100
AcDbEntity
  8
0
  6
Continuous
 62
     7
370
    25
100
AcDbSpline
210
0.0
220
0.0
230
1.0
 70
     8
 71
     3
 72
    15
 73
    11
 74
     0
 42
0.00000001
 43
0.00000001
 40
0.0
 40
0.0
 40
0.0
 40
0.0
 40
0.3521217033916905
 40
0.4895808092238654
 40
0.6014252693228592
 40
0.6940106444466669
 40
0.7732772325150995
 40
0.8437391327872991
 40
0.9086057707732499
 40
1.0
 40
1.0
 40
1.0
 40
1.0
 10
-15.00120768027086
 20
55.50868191673607
 30
0.0
 10
-15.13749983326314
 20
55.47128148375519
 30
0.0
 10
-15.34001458624634
 20
55.47195307600521
 30
0.0
 10
-15.56672594712429
 20
55.55574966866665
 30
0.0
 10
-15.68517161263298
 20
55.62468120544126
 30
0.0
 10
-15.77478959458339
 20
55.69440827304226
 30
0.0
 10
-15.84464322458017
 20
55.76156201745918
 30
0.0
 10
-15.90138281506712
 20
55.82589141296528
 30
0.0
 10
-15.95652835948159
 20
55.89775517576616
 30
0.0
 10
-15.99139591864683
 20
55.94958003216355
 30
0.0
 10
-16.01007305370452
 20
55.98094357130328
 30
0.0
  0
LINE
  5
1ED
330
1F
100
AcDbEntity
  8
0
  6
Continuous
 62
     7
370
    25
100
AcDbLine
 10
-16.0100730537
 20
55.9809435713
 30
0.0
 11
-16.0289169519
 21
56.0113729604
 31
0.0
  0
SPLINE
  5
1EE
330
1F
100
AcDbEntity
  8
0
  6
Continuous
 62
     7
370
    25
100
AcDbSpline
210
0.0
220
0.0
230
1.0
 70
     8
 71
     3
 72
    14
 73
    10
 74
     0
 42
0.00000001
 43
0.00000001
 40
0.0
 40
0.0
 40
0.0
 40
0.0
 40
0.1463524895720285
 40
0.2295876425155019
 40
0.3195287342547698
 40
0.4161757648032168
 40
0.5195287341716108
 40
0.6295876423687684
 40
0.6881776950847708
 40
0.6881776950847708
 40
0.6881776950847708
 40
0.6881776950847708
 10
-16.02891695192683
 20
56.01137296044105
 30
0.0
 10
-16.17270973585437
 20
56.25486065080491
 30
0.0
 10
-16.40911517043256
 20
56.63036670578035
 30
0.0
 10
-16.7574769853316
 20
57.14011633096639
 30
0.0
 10
-17.06283520524559
 20
57.56270933460837
 30
0.0
 10
-17.40275305241729
 20
58.00805146174221
 30
0.0
 10
-17.77862089245465
 20
58.47459758246497
 30
0.0
 10
-18.11897493071999
 20
58.87509051435647
 30
0.0
 10
-18.33479375194624
 20
59.11922813256797
 30
0.0
 10
-18.41032637100475
 20
59.20354620217925
 30
0.0
  0
ARC
  5
1EF
330
1F
100
AcDbEntity
  8
0
  6
Continuous
 62
     7
370
    25
100
AcDbCircle
 10
0.0
 20
0.0
 30
0.0
 40
62.00000000000001
100
AcDbArc
 50
107.2739496673
 51
108.7260503327
  0
SPLINE
  5
1F0
330
1F
100
AcDbEntity
  8
0
  6
Continuous
 62
     7
370
    25
100
AcDbSpline
210
0.0
220
0.0
230
1.0
 70
     8
 71
     3
 72
    14
 73
    10
 74
     0
 42
0.00000001
 43
0.00000001
 40
0.3118223049152283
 40
0.3118223049152283
 40
0.3118223049152283
 40
0.3118223049152283
 40
0.3704123576312316
 40
0.4804712658283892
 40
0.5838242351967832
 40
0.6804712657452302
 40
0.7704123574844981
 40
0.8536475104279715
 40
1.0
 40
1.0
 40
1.0
 40
1.0
 10
-19.9047044349234
 20
58.7179933355937
 30
0.0
 10
-19.9162506895521
 20
58.60538162479568
 30
0.0
 10
-19.94735129211558
 20
58.28101502241241
 30
0.0
 10
-19.98729965416321
 20
57.7569543501346
 30
0.0
 10
-20.01715419511735
 20
57.15858103662518
 30
0.0
 10
-20.03038797561679
 20
56.59849298990429
 30
0.0
 10
-20.02903402963656
 20
56.07712300992225
 30
0.0
 10
-20.01124134603523
 20
55.45996496301099
 30
0.0
 10
-19.9817804389105
 20
55.0172185550383
 30
0.0
 10
-19.95499277126574
 20
54.73571359783415
 30
0.0
  0
LINE
  5
1F1
330
1F
100
AcDbEntity
  8
0
  6
Continuous
 62
     7
370
    25
100
AcDbLine
 10
-19.9549927713
 20
54.7357135978
 30
0.0
 11
-19.952351859
 21
54.7000195394
 31
0.0
  0
SPLINE
  5
1F2
330
1F
100
AcDbEntity
  8
0
  6
Continuous
 62
     7
370
    25
100
AcDbSpline
210
0.0
220
0.0
230
1.0
 70
     8
 71
     3
 72
    15
 73
    11
 74
     0
 42
0.00000001
 43
0.00000001
 40
0.0
 40
0.0
 40
0.0
 40
0.0
 40
0.0913942292267501
 40
0.1562608672127009
 40
0.2267227674849005
 40
0.3059893555533331
 40
0.3985747306771407
 40
0.5104191907761346
 40
0.6478782966083095
 40
1.0
 40
1.0
 40
1.0
 40
1.0
 10
-19.95235185899641
 20
54.70001953942248
 30
0.0
 10
-19.9490269528983
 20
54.66366775871272
 30
0.0
 10
-19.94677351452277
 20
54.6012459320954
 30
0.0
 10
-19.94914673716955
 20
54.51069318897331
 30
0.0
 10
-19.95723816015999
 20
54.42529892026163
 30
0.0
 10
-19.97427895334169
 20
54.32991146626125
 30
0.0
 10
-20.00579688171969
 20
54.22082495547346
 30
0.0
 10
-20.0611044972923
 20
54.09543755539044
 30
0.0
 10
-20.19526343970169
 20
53.89438709340541
 30
0.0
 10
-20.35870656445663
 20
53.77480857868667
 30
0.0
 10
-20.49095265536285
 20
53.72495564703314
 30
0.0
  0
ARC
  5
1F3
330
1F
100
AcDbEntity
  8
0
  6
Continuous
 62
     7
370
    25
100
AcDbCircle
 10
0.0
 20
0.0
 30
0.0
 40
57.50000000000001
100
AcDbArc
 50
110.8770881273
 51
111.1229118727
  0
SPLINE
  5
1F4
330
1F
100
AcDbEntity
  8
0
  6
Continuous
 62
     7
370
    25
100
AcDbSpline
210
0.0
220
0.0
230
1.0
 70
     8
 71
     3
 72
    15
 73
    11
 74
     0
 42
0.00000001
 43
0.00000001
 40
0.0
 40
0.0
 40
0.0
 40
0.0
 40
0.3521217033916905
 40
0.4895808092238654
 40
0.6014252693228592
 40
0.6940106444466669
 40
0.7732772325150995
 40
0.8437391327872991
 40
0.9086057707732499
 40
1.0
 40
1.0
 40
1.0
 40
1.0
 10
-20.72126671376552
 20
53.63654636324932
 30
0.0
 10
-20.85290283429819
 20
53.58510440444586
 30
0.0
 10
-21.05437839078091
 20
53.56460376172491
 30
0.0
 10
-21.28860693216074
 20
53.62424351772607
 30
0.0
 10
-21.41360904753033
 20
53.68041649693346
 30
0.0
 10
-21.51002455602322
 20
53.74039396242805
 30
0.0
 10
-21.58651499823254
 20
53.79987813900941
 30
0.0
 10
-21.64966801616123
 20
53.85792422915599
 30
0.0
 10
-21.71202327620364
 20
53.92363003573133
 30
0.0
 10
-21.75211699982981
 20
53.97152633776542
 30
0.0
 10
-21.77397020213634
 20
54.00076577193029
 30
0.0
  0
LINE
  5
1F5
330
1F
100
AcDbEntity
  8
0
  6
Continuous
 62
     7
370
    25
100
AcDbLine
 10
-21.7739702021
 20
54.0007657719
 30
0.0
 11
-21.7958916088
 21
54.029058742
 31
0.0
  0
SPLINE
  5
1F6
330
1F
100
AcDbEntity
  8
0
  6
Continuous
 62
     7
370
    25
100
AcDbSpline
210
0.0
220
0.0
230
1.0
 70
     8
 71
     3
 72
    14
 73
    10
 74
     0
 42
0.00000001
 43
0.00000001
 40
0.0
 40
0.0
 40
0.0
 40
0.0
 40
0.1463524895720285
 40
0.2295876425155019
 40
0.3195287342547698
 40
0.4161757648032168
 40
0.5195287341716108
 40
0.6295876423687684
 40
0.6881776950847699
 40
0.6881776950847699
 40
0.6881776950847699
 40
0.6881776950847699
 10
-21.79589160879725
 20
54.02905874196733
 30
0.0
 10
-21.96434807490748
 20
54.25618214255392
 30
0.0
 10
-22.23870952665382
 20
54.60492003928578
 30
0.0
 10
-22.63844632405311
 20
55.07546347751654
 30
0.0
 10
-22.98630475694661
 20
55.46382284699418
 30
0.0
 10
-23.37091142676296
 20
55.87119425315655
 30
0.0
 10
-23.79348757248754
 20
56.29589569770364
 30
0.0
 10
-24.17384002643959
 20
56.65861800282313
 30
0.0
 10
-24.41399589963915
 20
56.87885899989053
 30
0.0
 10
-24.4979283813495
 20
56.95481985769736
 30
0.0
  0
ARC
  5
1F7
330
1F
100
AcDbEntity
  8
0
  6
Continuous
 62
     7
370
    25
100
AcDbCircle
 10
0.0
 20
0.0
 30
0.0
 40
62.0
100
AcDbArc
 50
113.2739496673
 51
114.7260503327
  0
SPLINE
  5
1F8
330
1F
100
AcDbEntity
  8
0
  6
Continuous
 62
     7
370
    25
100
AcDbSpline
210
0.0
220
0.0
230
1.0
 70
     8
 71
     3
 72
    14
 73
    10
 74
     0
 42
0.00000001
 43
0.00000001
 40
0.3118223049152308
 40
0.3118223049152308
 40
0.3118223049152308
 40
0.3118223049152308
 40
0.3704123576312316
 40
0.4804712658283892
 40
0.5838242351967832
 40
0.6804712657452302
 40
0.7704123574844981
 40
0.8536475104279715
 40
1.0
 40
1.0
 40
1.0
 40
1.0
 10
-25.93336599089527
 20
56.31572185795689
 30
0.0
 10
-25.93307786485735
 20
56.20252013364053
 30
0.0
 10
-25.9301025525834
 20
55.87667954725151
 30
0.0
 10
-25.91505281659165
 20
55.35131399327491
 30
0.0
 10
-25.88219676832519
 20
54.75309798209823
 30
0.0
 10
-25.83681290997207
 20
54.19469484956144
 30
0.0
 10
-25.78096837824818
 20
53.67632251477423
 30
0.0
 10
-25.6987625825924
 20
53.06440516609253
 30
0.0
 10
-25.62318346375679
 20
52.62716367261626
 30
0.0
 10
-25.56711726117944
 20
52.35000090275544
 30
0.0
  0
LINE
  5
1F9
330
1F
100
AcDbEntity
  8
0
  6
Continuous
 62
     7
370
    25
100
AcDbLine
 10
-25.5671172612
 20
52.3500009028
 30
0.0
 11
-25.560759771
 21
52.3147784306
 31
0.0
  0
SPLINE
  5
1FA
330
1F
100
AcDbEntity
  8
0
  6
Continuous
 62
     7
370
    25
100
AcDbSpline
210
0.0
220
0.0
230
1.0
 70
     8
 71
     3
 72
    15
 73
    11
 74
     0
 42
0.00000001
 43
0.00000001
 40
0.0
 40
0.0
 40
0.0
 40
0.0
 40
0.0913942292267501
 40
0.1562608672127009
 40
0.2267227674849005
 40
0.3059893555533331
 40
0.3985747306771407
 40
0.5104191907761346
 40
0.6478782966083095
 40
1.0
 40
1.0
 40
1.0
 40
1.0
 10
-25.56075977103029
 20
52.31477843063161
 30
0.0
 10
-25.55365328334103
 20
52.27897333610509
 30
0.0
 10
-25.54488733192605
 20
52.21712901123573
 30
0.0
 10
-25.53778221472763
 20
52.12682425619889
 30
0.0
 10
-25.536903180376
 20
52.04105200221534
 30
0.0
 10
-25.54387991832798
 20
51.94440584274438
 30
0.0
 10
-25.56382254286067
 20
51.83262239865786
 30
0.0
 10
-25.60572062528444
 20
51.70214066380919
 30
0.0
 10
-25.71812913513948
 20
51.4881681492075
 30
0.0
 10
-25.8681775429723
 20
51.35216023944182
 30
0.0
 10
-25.99448812562026
 20
51.28875692670849
 30
0.0
  0
ARC
  5
1FB
330
1F
100
AcDbEntity
  8
0
  6
Continuous
 62
     7
370
    25
100
AcDbCircle
 10
0.0
 20
0.0
 30
0.0
 40
57.5
100
AcDbArc
 50
116.8770881273
 51
117.1229118727
  0
SPLINE
  5
1FC
330
1F
100
AcDbEntity
  8
0
  6
Continuous
 62
     7
370
    25
100
AcDbSpline
210
0.0
220
0.0
230
1.0
 70
     8
 71
     3
 72
    15
 73
    11
 74
     0
 42
0.00000001
 43
0.00000001
 40
0.0
 40
0.0
 40
0.0
 40
0.0
 40
0.3521217033916905
 40
0.4895808092238654
 40
0.6014252693228592
 40
0.6940106444466669
 40
0.7732772325150995
 40
0.8437391327872991
 40
0.9086057707732499
 40
1.0
 40
1.0
 40
1.0
 40
1.0
 10
-26.21429921294028
 20
51.17675758363789
 30
0.0
 10
-26.33983706813015
 20
51.11183770787741
 30
0.0
 10
-26.5380660197541
 20
51.07038943951717
 30
0.0
 10
-26.77724548472098
 20
51.1052189332109
 30
0.0
 10
-26.9074345006171
 20
51.14801791193592
 30
0.0
 10
-27.00959118716518
 20
51.19758864966106
 30
0.0
 10
-27.09188039629554
 20
51.24875153732037
 30
0.0
 10
-27.16075492398592
 20
51.29987835699687
 30
0.0
 10
-27.22963672237857
 20
51.35870632077998
 30
0.0
 10
-27.27451733523946
 20
51.40214930654274
 30
0.0
 10
-27.29930717653728
 20
51.4289442823733
 30
0.0
  0
LINE
  5
1FD
330
1F
100
AcDbEntity
  8
0
  6
Continuous
 62
     7
370
    25
100
AcDbLine
 10
-27.2993071765
 20
51.4289442824
 30
0.0
 11
-27.3240659161
 21
51.4547908496
 31
0.0
  0
SPLINE
  5
1FE
330
1F
100
AcDbEntity
  8
0
  6
Continuous
 62
     7
370
    25
100
AcDbSpline
210
0.0
220
0.0
230
1.0
 70
     8
 71
     3
 72
    14
 73
    10
 74
     0
 42
0.00000001
 43
0.00000001
 40
0.0
 40
0.0
 40
0.0
 40
0.0
 40
0.1463524895720285
 40
0.2295876425155019
 40
0.3195287342547698
 40
0.4161757648032168
 40
0.5195287341716108
 40
0.6295876423687684
 40
0.6881776950847718
 40
0.6881776950847718
 40
0.6881776950847718
 40
0.6881776950847718
 10
-27.32406591611809
 20
51.4547908496092
 30
0.0
 10
-27.51534042011652
 20
51.66306154891306
 30
0.0
 10
-27.82465192755185
 20
51.98121044202665
 30
0.0
 10
-28.27138410744877
 20
52.40739232092533
 30
0.0
 10
-28.65793154353694
 20
52.75726310971721
 30
0.0
 10
-29.08301320483932
 20
53.12220054853425
 30
0.0
 10
-29.5476678235688
 20
53.50040419900471
 30
0.0
 10
-29.96385147212822
 20
53.82138181587281
 30
0.0
 10
-30.22571319929846
 20
54.01531318534382
 30
0.0
 10
-30.31712596182705
 20
54.08208458829225
 30
0.0
  0
ARC
  5
1FF
330
1F
100
AcDbEntity
  8
0
  6
Continuous
 62
     7
370
    25
100
AcDbCircle
 10
0.0
 20
0.0
 30
0.0
 40
62.00000000000001
100
AcDbArc
 50
119.2739496673
 51
120.7260503327
  0
SPLINE
  5
200
330
1F
100
AcDbEntity
  8
0
  6
Continuous
 62
     7
370
    25
100
AcDbSpline
210
0.0
220
0.0
230
1.0
 70
     8
 71
     3
 72
    14
 73
    10
 74
     0
 42
0.00000001
 43
0.00000001
 40
0.3118223049152274
 40
0.3118223049152274
 40
0.3118223049152274
 40
0.3118223049152274
 40
0.3704123576312316
 40
0.4804712658283892
 40
0.5838242351967832
 40
0.6804712657452302
 40
0.7704123574844981
 40
0.8536475104279715
 40
1.0
 40
1.0
 40
1.0
 40
1.0
 10
-31.6778961621651
 20
53.2964435468219
 30
0.0
 10
-31.66577681222972
 20
53.18389207076781
 30
0.0
 10
-31.62875818326225
 20
52.86014747802401
 30
0.0
 10
-31.558875237288
 20
52.3392330572978
 30
0.0
 10
-31.46366857754133
 20
51.74772852825706
 30
0.0
 10
-31.36016431538494
 20
51.19712829147778
 30
0.0
 10
-31.25044104229318
 20
50.68743299766174
 30
0.0
 10
-31.10472279848281
 20
50.08746064173366
 30
0.0
 10
-30.98385352857823
 20
49.66051457205501
 30
0.0
 10
-30.89912306411635
 20
49.39073064284417
 30
0.0
  0
LINE
  5
201
330
1F
100
AcDbEntity
  8
0
  6
Continuous
 62
     7
370
    25
100
AcDbLine
 10
-30.8991230641
 20
49.3907306428
 30
0.0
 11
-30.8891186501
 21
49.3563656618
 31
0.0
  0
SPLINE
  5
202
330
1F
100
AcDbEntity
  8
0
  6
Continuous
 62
     7
370
    25
100
AcDbSpline
210
0.0
220
0.0
230
1.0
 70
     8
 71
     3
 72
    15
 73
    11
 74
     0
 42
0.00000001
 43
0.00000001
 40
0.0
 40
0.0
 40
0.0
 40
0.0
 40
0.0913942292267501
 40
0.1562608672127009
 40
0.2267227674849005
 40
0.3059893555533331
 40
0.3985747306771407
 40
0.5104191907761346
 40
0.6478782966083095
 40
1.0
 40
1.0
 40
1.0
 40
1.0
 10
-30.88911865007984
 20
49.35636566178356
 30
0.0
 10
-30.8783084409657
 20
49.32149954154858
 30
0.0
 10
-30.86312601810934
 20
49.26091029779224
 30
0.0
 10
-30.84662040621659
 20
49.17184292863432
 30
0.0
 10
-30.83678054540722
 20
49.08663242814252
 30
0.0
 10
-30.83361678952848
 20
48.98978643874865
 30
0.0
 10
-30.84176561464822
 20
48.876530784169
 30
0.0
 10
-30.86979511976438
 20
48.74238429974675
 30
0.0
 10
-30.95922162590811
 20
48.51783406017501
 30
0.0
 10
-31.09423135506294
 20
48.36688688648323
 30
0.0
 10
-31.21322254427697
 20
48.29062785263243
 30
0.0
  0
ARC
  5
203
330
1F
100
AcDbEntity
  8
0
  6
Continuous
 62
     7
370
    25
100
AcDbCircle
 10
0.0
 20
0.0
 30
0.0
 40
57.5
100
AcDbArc
 50
122.8770881273
 51
123.1229118727
  0
SPLINE
  5
204
330
1F
100
AcDbEntity
  8
0
  6
Continuous
 62
     7
370
    25
100
AcDbSpline
210
0.0
220
0.0
230
1.0
 70
     8
 71
     3
 72
    15
 73
    11
 74
     0
 42
0.00000001
 43
0.00000001
 40
0.0
 40
0.0
 40
0.0
 40
0.0
 40
0.3521217033916905
 40
0.4895808092238654
 40
0.6014252693228592
 40
0.6940106444466669
 40
0.7732772325150995
 40
0.8437391327872991
 40
0.9086057707732499
 40
1.0
 40
1.0
 40
1.0
 40
1.0
 10
-31.42012236424333
 20
48.15626553851509
 30
0.0
 10
-31.53818653507846
 20
48.07857902154179
 30
0.0
 10
-31.73099704396758
 20
48.01663724344402
 30
0.0
 10
-31.9725069322518
 20
48.02627487560885
 30
0.0
 10
-32.10645647057249
 20
48.05523093928434
 30
0.0
 10
-32.21323508514028
 20
48.09385184186417
 30
0.0
 10
-32.30042148339633
 20
48.13613288929771
 30
0.0
 10
-32.37426291711011
 20
48.17978028236877
 30
0.0
 10
-32.44891657045535
 20
48.23108587187791
 30
0.0
 10
-32.49809235116459
 20
48.26959957092628
 30
0.0
 10
-32.52554722876485
 20
48.29365651706013
 30
0.0
  0
LINE
  5
205
330
1F
100
AcDbEntity
  8
0
  6
Continuous
 62
     7
370
    25
100
AcDbLine
 10
-32.5255472288
 20
48.2936565171
 30
0.0
 11
-32.5528720393
 21
48.3167735011
 31
0.0
  0
SPLINE
  5
206
330
1F
100
AcDbEntity
  8
0
  6
Continuous
 62
     7
370
    25
100
AcDbSpline
210
0.0
220
0.0
230
1.0
 70
     8
 71
     3
 72
    14
 73
    10
 74
     0
 42
0.00000001
 43
0.00000001
 40
0.0
 40
0.0
 40
0.0
 40
0.0
 40
0.1463524895720285
 40
0.2295876425155019
 40
0.3195287342547698
 40
0.4161757648032168
 40
0.5195287341716108
 40
0.6295876423687684
 40
0.6881776950847718
 40
0.6881776950847718
 40
0.6881776950847718
 40
0.6881776950847718
 10
-32.5528720393336
 20
48.31677350109552
 30
0.0
 10
-32.76486893772765
 20
48.50390964175163
 30
0.0
 10
-33.10574161924892
 20
48.78798382539706
 30
0.0
 10
-33.5945746903958
 20
49.16513480711415
 30
0.0
 10
-34.01557603507862
 20
49.47268375764309
 30
0.0
 10
-34.47647540423173
 20
49.79118889816707
 30
0.0
 10
-34.9781176427281
 20
50.11875107622213
 30
0.0
 10
-35.42557269074923
 20
50.39446730689954
 30
0.0
 10
-35.70627126000919
 20
50.5599642961075
 30
0.0
 10
-35.80416276600039
 20
50.61681468273401
 30
0.0
  0
ARC
  5
207
330
1F
100
AcDbEntity
  8
0
  6
Continuous
 62
     7
370
    25
100
AcDbCircle
 10
0.0
 20
0.0
 30
0.0
 40
62.00000000000001
100
AcDbArc
 50
125.2739496673
 51
126.7260503327
  0
SPLINE
  5
208
330
1F
100
AcDbEntity
  8
0
  6
Continuous
 62
     7
370
    25
100
AcDbSpline
210
0.0
220
0.0
230
1.0
 70
     8
 71
     3
 72
    14
 73
    10
 74
     0
 42
0.00000001
 43
0.00000001
 40
0.3118223049152264
 40
0.3118223049152264
 40
0.3118223049152264
 40
0.3118223049152264
 40
0.3704123576312316
 40
0.4804712658283892
 40
0.5838242351967832
 40
0.6804712657452302
 40
0.7704123574844981
 40
0.8536475104279715
 40
1.0
 40
1.0
 40
1.0
 40
1.0
 10
-37.07535667405635
 20
49.69323824719006
 30
0.0
 10
-37.05153888235755
 20
49.58257015692279
 30
0.0
 10
-36.98088252054216
 20
49.26446857133024
 30
0.0
 10
-36.85693201676547
 20
48.75371253125626
 30
0.0
 10
-36.70041784962605
 20
48.1754001317519
 30
0.0
 10
-36.53992719802224
 20
47.63863528214482
 30
0.0
 10
-36.37752733470364
 20
47.14320135759958
 30
0.0
 10
-36.1698931623114
 20
46.56174741710899
 30
0.0
 10
-36.00505801035244
 20
46.14977448171153
 30
0.0
 10
-35.89259160870566
 20
45.89032520233503
 30
0.0
  0
LINE
  5
209
330
1F
100
AcDbEntity
  8
0
  6
Continuous
 62
     7
370
    25
100
AcDbLine
 10
-35.8925916087
 20
45.8903252023
 30
0.0
 11
-35.8790498812
 21
45.8571942223
 31
0.0
  0
SPLINE
  5
20A
330
1F
100
AcDbEntity
  8
0
  6
Continuous
 62
     7
370
    25
100
AcDbSpline
210
0.0
220
0.0
230
1.0
 70
     8
 71
     3
 72
    15
 73
    11
 74
     0
 42
0.00000001
 43
0.00000001
 40
0.0
 40
0.0
 40
0.0
 40
0.0
 40
0.0913942292267501
 40
0.1562608672127009
 40
0.2267227674849005
 40
0.3059893555533331
 40
0.3985747306771407
 40
0.5104191907761346
 40
0.6478782966083095
 40
1.0
 40
1.0
 40
1.0
 40
1.0
 10
-35.87904988123552
 20
45.85719422226146
 30
0.0
 10
-35.86465438960974
 20
45.82364907682754
 30
0.0
 10
-35.84322183711395
 20
45.76497874261791
 30
0.0
 10
-35.81749656946479
 20
45.67812460007395
 30
0.0
 10
-35.79880368977182
 20
45.59440943714873
 30
0.0
 10
-35.78553410283384
 20
45.49842468275809
 30
0.0
 10
-35.78179984830736
 20
45.38493767033716
 30
0.0
 10
-35.7956536789923
 20
45.2485961732966
 30
0.0
 10
-35.86111840590971
 20
45.01592842816972
 30
0.0
 10
-35.97961026154133
 20
44.85169579937455
 30
0.0
 10
-36.08997836495189
 20
44.76341655433936
 30
0.0
  0
ARC
  5
20B
330
1F
100
AcDbEntity
  8
0
  6
Continuous
 62
     7
370
    25
100
AcDbCircle
 10
0.0
 20
0.0
 30
0.0
 40
57.49999999999999
100
AcDbArc
 50
128.8770881273
 51
129.1229118727
  0
SPLINE
  5
20C
330
1F
100
AcDbEntity
  8
0
  6
Continuous
 62
     7
370
    25
100
AcDbSpline
210
0.0
220
0.0
230
1.0
 70
     8
 71
     3
 72
    15
 73
    11
 74
     0
 42
0.00000001
 43
0.00000001
 40
0.0
 40
0.0
 40
0.0
 40
0.0
 40
0.3521217033916905
 40
0.4895808092238654
 40
0.6014252693228592
 40
0.6940106444466669
 40
0.7732772325150995
 40
0.8437391327872991
 40
0.9086057707732499
 40
1.0
 40
1.0
 40
1.0
 40
1.0
 10
-36.28170007984042
 20
44.60816337080588
 30
0.0
 10
-36.39099703055862
 20
44.51856136235669
 30
0.0
 10
-36.57627662442933
 20
44.43680472160436
 30
0.0
 10
-36.81747090315565
 20
44.4211449003255
 30
0.0
 10
-36.95371338472833
 20
44.43594080025839
 30
0.0
 10
-37.06394403846977
 20
44.46318872900228
 30
0.0
 10
-37.15507239342728
 20
44.4961246962065
 30
0.0
 10
-37.23307171096438
 20
44.53181445269983
 30
0.0
 10
-37.31267929821389
 20
44.57503555315996
 30
0.0
 10
-37.36561146662734
 20
44.60819800134767
 30
0.0
 10
-37.39543057914573
 20
44.62925334484871
 30
0.0
  0
LINE
  5
20D
330
1F
100
AcDbEntity
  8
0
  6
Continuous
 62
     7
370
    25
100
AcDbLine
 10
-37.3954305791
 20
44.6292533448
 30
0.0
 11
-37.4250220844
 21
44.6493874712
 31
0.0
  0
SPLINE
  5
20E
330
1F
100
AcDbEntity
  8
0
  6
Continuous
 62
     7
370
    25
100
AcDbSpline
210
0.0
220
0.0
230
1.0
 70
     8
 71
     3
 72
    14
 73
    10
 74
     0
 42
0.00000001
 43
0.00000001
 40
0.0
 40
0.0
 40
0.0
 40
0.0
 40
0.1463524895720285
 40
0.2295876425155019
 40
0.3195287342547698
 40
0.4161757648032168
 40
0.5195287341716108
 40
0.6295876423687684
 40
0.6881776950847718
 40
0.6881776950847718
 40
0.6881776950847718
 40
0.6881776950847718
 10
-37.42502208435975
 20
44.64938747116896
 30
0.0
 10
-37.65541869476741
 20
44.81333875045954
 30
0.0
 10
-38.02411787794368
 20
45.06022584843443
 30
0.0
 10
-38.54969608291815
 20
45.38421378789033
 30
0.0
 10
-39.00053875736307
 20
45.64607132949559
 30
0.0
 10
-39.49220612442908
 20
45.91465456275542
 30
0.0
 10
-40.02533988535197
 20
46.18798642862553
 30
0.0
 10
-40.49916392169271
 20
46.41542046839164
 30
0.0
 10
-40.79562394077761
 20
46.55066985769029
 30
0.0
 10
-40.89892167040668
 20
46.59697636326229
 30
0.0
  0
ARC
  5
20F
330
1F
100
AcDbEntity
  8
0
  6
Continuous
 62
     7
370
    25
100
AcDbCircle
 10
0.0
 20
0.0
 30
0.0
 40
62.0
100
AcDbArc
 50
131.2739496673
 51
132.7260503327
  0
SPLINE
  5
210
330
1F
100
AcDbEntity
  8
0
  6
Continuous
 62
     7
370
    25
100
AcDbSpline
210
0.0
220
0.0
230
1.0
 70
     8
 71
     3
 72
    14
 73
    10
 74
     0
 42
0.00000001
 43
0.00000001
 40
0.3118223049152258
 40
0.3118223049152258
 40
0.3118223049152258
 40
0.3118223049152258
 40
0.3704123576312316
 40
0.4804712658283892
 40
0.5838242351967832
 40
0.6804712657452302
 40
0.7704123574844981
 40
0.8536475104279715
 40
1.0
 40
1.0
 40
1.0
 40
1.0
 10
-42.06661181970947
 20
45.54558343034336
 30
0.0
 10
-42.03135653895729
 20
45.43801122861868
 30
0.0
 10
-41.92783657017983
 20
45.12903783771615
 30
0.0
 10
-41.75117653625837
 20
44.63403612835201
 30
0.0
 10
-41.53506966369407
 20
44.07525197005268
 30
0.0
 10
-41.31935099180664
 20
43.55820341563534
 30
0.0
 10
-41.10605382514811
 20
43.08245893811443
 30
0.0
 10
-40.83877860761694
 20
42.52589394411039
 30
0.0
 10
-40.63178354202243
 20
42.13340780468525
 30
0.0
 10
-40.4928134086223
 20
41.88713575574118
 30
0.0
  0
LINE
  5
211
330
1F
100
AcDbEntity
  8
0
  6
Continuous
 62
     7
370
    25
100
AcDbLine
 10
-40.4928134086
 20
41.8871357557
 30
0.0
 11
-40.4758827337
 21
41.8556017666
 31
0.0
  0
SPLINE
  5
212
330
1F
100
AcDbEntity
  8
0
  6
Continuous
 62
     7
370
    25
100
AcDbSpline
210
0.0
220
0.0
230
1.0
 70
     8
 71
     3
 72
    15
 73
    11
 74
     0
 42
0.00000001
 43
0.00000001
 40
0.0
 40
0.0
 40
0.0
 40
0.0
 40
0.0913942292267501
 40
0.1562608672127009
 40
0.2267227674849005
 40
0.3059893555533331
 40
0.3985747306771407
 40
0.5104191907761346
 40
0.6478782966083095
 40
1.0
 40
1.0
 40
1.0
 40
1.0
 10
-40.47588273371851
 20
41.85560176660545
 30
0.0
 10
-40.45805967959978
 20
41.82374512360573
 30
0.0
 10
-40.43061181699476
 20
41.76763650340195
 30
0.0
 10
-40.39594874500491
 20
41.68394717963307
 30
0.0
 10
-40.36860764952998
 20
41.60264455511798
 30
0.0
 10
-40.34537761590409
 20
41.50857266478576
 30
0.0
 10
-40.32980119500544
 20
41.39609768198032
 30
0.0
 10
-40.32932756579108
 20
41.25905495829433
 30
0.0
 10
-40.37011326823468
 20
41.02081886411676
 30
0.0
 10
-40.47078902877678
 20
40.84510014726717
 30
0.0
 10
-40.5713248303469
 20
40.74576789692983
 30
0.0
  0
ARC
  5
213
330
1F
100
AcDbEntity
  8
0
  6
Continuous
 62
     7
370
    25
100
AcDbCircle
 10
0.0
 20
0.0
 30
0.0
 40
57.5
100
AcDbArc
 50
134.8770881273
 51
135.1229118727
  0
SPLINE
  5
214
330
1F
100
AcDbEntity
  8
0
  6
Continuous
 62
     7
370
    25
100
AcDbSpline
210
0.0
220
0.0
230
1.0
 70
     8
 71
     3
 72
    15
 73
    11
 74
     0
 42
0.00000001
 43
0.00000001
 40
0.0
 40
0.0
 40
0.0
 40
0.0
 40
0.3521217033916905
 40
0.4895808092238654
 40
0.6014252693228592
 40
0.6940106444466669
 40
0.7732772325150995
 40
0.8437391327872991
 40
0.9086057707732499
 40
1.0
 40
1.0
 40
1.0
 40
1.0
 10
-40.74576789692888
 20
40.57132483034785
 30
0.0
 10
-40.84510014726624
 20
40.47078902877773
 30
0.0
 10
-41.02081886411582
 20
40.37011326823563
 30
0.0
 10
-41.25905495829338
 20
40.32932756579204
 30
0.0
 10
-41.39609768197938
 20
40.3298011950064
 30
0.0
 10
-41.50857266478481
 20
40.34537761590506
 30
0.0
 10
-41.60264455511705
 20
40.36860764953096
 30
0.0
 10
-41.68394717963211
 20
40.39594874500586
 30
0.0
 10
-41.76763650340102
 20
40.43061181699574
 30
0.0
 10
-41.82374512360477
 20
40.45805967960075
 30
0.0
 10
-41.8556017666045
 20
40.47588273371949
 30
0.0
  0
LINE
  5
215
330
1F
100
AcDbEntity
  8
0
  6
Continuous
 62
     7
370
    25
100
AcDbLine
 10
-41.8556017666
 20
40.4758827337
 30
0.0
 11
-41.8871357557
 21
40.4928134086
 31
0.0
  0
SPLINE
  5
216
330
1F
100
AcDbEntity
  8
0
  6
Continuous
 62
     7
370
    25
100
AcDbSpline
210
0.0
220
0.0
230
1.0
 70
     8
 71
     3
 72
    14
 73
    10
 74
     0
 42
0.00000001
 43
0.00000001
 40
0.0
 40
0.0
 40
0.0
 40
0.0
 40
0.1463524895720285
 40
0.2295876425155019
 40
0.3195287342547698
 40
0.4161757648032168
 40
0.5195287341716108
 40
0.6295876423687684
 40
0.6881776950847711
 40
0.6881776950847711
 40
0.6881776950847711
 40
0.6881776950847711
 10
-41.88713575574023
 20
40.49281340862328
 30
0.0
 10
-42.13340780468431
 20
40.63178354202342
 30
0.0
 10
-42.52589394410943
 20
40.83877860761793
 30
0.0
 10
-43.08245893811348
 20
41.10605382514912
 30
0.0
 10
-43.55820341563438
 20
41.31935099180765
 30
0.0
 10
-44.0752519700517
 20
41.53506966369509
 30
0.0
 10
-44.63403612835103
 20
41.75117653625941
 30
0.0
 10
-45.12903783771517
 20
41.92783657018089
 30
0.0
 10
-45.43801122861768
 20
42.03135653895836
 30
0.0
 10
-45.54558343034236
 20
42.06661181971054
 30
0.0
  0
ARC
  5
217
330
1F
100
AcDbEntity
  8
0
  6
Continuous
 62
     7
370
    25
100
AcDbCircle
 10
0.0
 20
0.0
 30
0.0
 40
62.00000000000001
100
AcDbArc
 50
137.2739496673
 51
138.7260503327
  0
SPLINE
  5
218
330
1F
100
AcDbEntity
  8
0
  6
Continuous
 62
     7
370
    25
100
AcDbSpline
210
0.0
220
0.0
230
1.0
 70
     8
 71
     3
 72
    14
 73
    10
 74
     0
 42
0.00000001
 43
0.00000001
 40
0.3118223049152276
 40
0.3118223049152276
 40
0.3118223049152276
 40
0.3118223049152276
 40
0.3704123576312316
 40
0.4804712658283892
 40
0.5838242351967832
 40
0.6804712657452302
 40
0.7704123574844981
 40
0.8536475104279715
 40
1.0
 40
1.0
 40
1.0
 40
1.0
 10
-46.59697636326134
 20
40.89892167040777
 30
0.0
 10
-46.55066985768934
 20
40.7956239407787
 30
0.0
 10
-46.41542046839069
 20
40.49916392169379
 30
0.0
 10
-46.18798642862461
 20
40.02533988535305
 30
0.0
 10
-45.9146545627545
 20
39.49220612443015
 30
0.0
 10
-45.64607132949468
 20
39.00053875736414
 30
0.0
 10
-45.38421378788943
 20
38.54969608291921
 30
0.0
 10
-45.06022584843355
 20
38.02411787794474
 30
0.0
 10
-44.81333875045866
 20
37.65541869476846
 30
0.0
 10
-44.64938747116808
 20
37.42502208436078
 30
0.0
  0
LINE
  5
219
330
1F
100
AcDbEntity
  8
0
  6
Continuous
 62
     7
370
    25
100
AcDbLine
 10
-44.6493874712
 20
37.4250220844
 30
0.0
 11
-44.6292533448
 21
37.3954305791
 31
0.0
  0
SPLINE
  5
21A
330
1F
100
AcDbEntity
  8
0
  6
Continuous
 62
     7
370
    25
100
AcDbSpline
210
0.0
220
0.0
230
1.0
 70
     8
 71
     3
 72
    15
 73
    11
 74
     0
 42
0.00000001
 43
0.00000001
 40
0.0
 40
0.0
 40
0.0
 40
0.0
 40
0.0913942292267501
 40
0.1562608672127009
 40
0.2267227674849005
 40
0.3059893555533331
 40
0.3985747306771407
 40
0.5104191907761346
 40
0.6478782966083095
 40
1.0
 40
1.0
 40
1.0
 40
1.0
 10
-44.62925334484784
 20
37.39543057914678
 30
0.0
 10
-44.6081980013468
 20
37.36561146662839
 30
0.0
 10
-44.57503555315908
 20
37.31267929821491
 30
0.0
 10
-44.53181445269897
 20
37.23307171096543
 30
0.0
 10
-44.49612469620561
 20
37.15507239342831
 30
0.0
 10
-44.46318872900142
 20
37.0639440384708
 30
0.0
 10
-44.43594080025753
 20
36.95371338472938
 30
0.0
 10
-44.42114490032464
 20
36.8174709031567
 30
0.0
 10
-44.43680472160351
 20
36.57627662443036
 30
0.0
 10
-44.51856136235584
 20
36.39099703055966
 30
0.0
 10
-44.60816337080504
 20
36.28170007984146
 30
0.0
  0
ARC
  5
21B
330
1F
100
AcDbEntity
  8
0
  6
Continuous
 62
     7
370
    25
100
AcDbCircle
 10
0.0
 20
0.0
 30
0.0
 40
57.49999999999999
100
AcDbArc
 50
140.8770881273
 51
141.1229118727
  0
SPLINE
  5
21C
330
1F
100
AcDbEntity
  8
0
  6
Continuous
 62
     7
370
    25
100
AcDbSpline
210
0.0
220
0.0
230
1.0
 70
     8
 71
     3
 72
    15
 73
    11
 74
     0
 42
0.00000001
 43
0.00000001
 40
0.0
 40
0.0
 40
0.0
 40
0.0
 40
0.3521217033916905
 40
0.4895808092238654
 40
0.6014252693228592
 40
0.6940106444466669
 40
0.7732772325150995
 40
0.8437391327872991
 40
0.9086057707732499
 40
1.0
 40
1.0
 40
1.0
 40
1.0
 10
-44.76341655433853
 20
36.08997836495294
 30
0.0
 10
-44.85169579937372
 20
35.97961026154238
 30
0.0
 10
-45.01592842816888
 20
35.86111840591076
 30
0.0
 10
-45.24859617329577
 20
35.79565367899336
 30
0.0
 10
-45.38493767033632
 20
35.78179984830842
 30
0.0
 10
-45.49842468275725
 20
35.7855341028349
 30
0.0
 10
-45.59440943714791
 20
35.79880368977289
 30
0.0
 10
-45.6781246000731
 20
35.81749656946585
 30
0.0
 10
-45.76497874261708
 20
35.84322183711503
 30
0.0
 10
-45.8236490768267
 20
35.86465438961081
 30
0.0
 10
-45.85719422226063
 20
35.8790498812366
 30
0.0
  0
LINE
  5
21D
330
1F
100
AcDbEntity
  8
0
  6
Continuous
 62
     7
370
    25
100
AcDbLine
 10
-45.8571942223
 20
35.8790498812
 30
0.0
 11
-45.8903252023
 21
35.8925916087
 31
0.0
  0
SPLINE
  5
21E
330
1F
100
AcDbEntity
  8
0
  6
Continuous
 62
     7
370
    25
100
AcDbSpline
210
0.0
220
0.0
230
1.0
 70
     8
 71
     3
 72
    14
 73
    10
 74
     0
 42
0.00000001
 43
0.00000001
 40
0.0
 40
0.0
 40
0.0
 40
0.0
 40
0.1463524895720285
 40
0.2295876425155019
 40
0.3195287342547698
 40
0.4161757648032168
 40
0.5195287341716108
 40
0.6295876423687684
 40
0.6881776950847693
 40
0.6881776950847693
 40
0.6881776950847693
 40
0.6881776950847693
 10
-45.8903252023342
 20
35.89259160870672
 30
0.0
 10
-46.1497744817107
 20
36.00505801035351
 30
0.0
 10
-46.56174741710813
 20
36.16989316231248
 30
0.0
 10
-47.14320135759874
 20
36.37752733470475
 30
0.0
 10
-47.63863528214397
 20
36.53992719802334
 30
0.0
 10
-48.17540013175105
 20
36.70041784962716
 30
0.0
 10
-48.75371253125539
 20
36.85693201676661
 30
0.0
 10
-49.26446857132937
 20
36.98088252054332
 30
0.0
 10
-49.58257015692191
 20
37.05153888235871
 30
0.0
 10
-49.69323824718917
 20
37.07535667405751
 30
0.0
  0
ARC
  5
21F
330
1F
100
AcDbEntity
  8
0
  6
Continuous
 62
     7
370
    25
100
AcDbCircle
 10
0.0
 20
0.0
 30
0.0
 40
62.0
100
AcDbArc
 50
143.2739496673
 51
144.7260503327
  0
SPLINE
  5
220
330
1F
100
AcDbEntity
  8
0
  6
Continuous
 62
     7
370
    25
100
AcDbSpline
210
0.0
220
0.0
230
1.0
 70
     8
 71
     3
 72
    14
 73
    10
 74
     0
 42
0.00000001
 43
0.00000001
 40
0.3118223049152277
 40
0.3118223049152277
 40
0.3118223049152277
 40
0.3118223049152277
 40
0.3704123576312316
 40
0.4804712658283892
 40
0.5838242351967832
 40
0.6804712657452302
 40
0.7704123574844981
 40
0.8536475104279715
 40
1.0
 40
1.0
 40
1.0
 40
1.0
 10
-50.61681468273319
 20
35.80416276600158
 30
0.0
 10
-50.55996429610666
 20
35.70627126001037
 30
0.0
 10
-50.39446730689873
 20
35.42557269075041
 30
0.0
 10
-50.11875107622132
 20
34.97811764272927
 30
0.0
 10
-49.79118889816627
 20
34.47647540423289
 30
0.0
 10
-49.47268375764231
 20
34.01557603507977
 30
0.0
 10
-49.16513480711338
 20
33.59457469039695
 30
0.0
 10
-48.7879838253963
 20
33.10574161925007
 30
0.0
 10
-48.50390964175087
 20
32.76486893772878
 30
0.0
 10
-48.31677350109477
 20
32.55287203933473
 30
0.0
  0
LINE
  5
221
330
1F
100
AcDbEntity
  8
0
  6
Continuous
 62
     7
370
    25
100
AcDbLine
 10
-48.3167735011
 20
32.5528720393
 30
0.0
 11
-48.2936565171
 21
32.5255472288
 31
0.0
  0
SPLINE
  5
222
330
1F
100
AcDbEntity
  8
0
  6
Continuous
 62
     7
370
    25
100
AcDbSpline
210
0.0
220
0.0
230
1.0
 70
     8
 71
     3
 72
    15
 73
    11
 74
     0
 42
0.00000001
 43
0.00000001
 40
0.0
 40
0.0
 40
0.0
 40
0.0
 40
0.0913942292267501
 40
0.1562608672127009
 40
0.2267227674849005
 40
0.3059893555533331
 40
0.3985747306771407
 40
0.5104191907761346
 40
0.6478782966083095
 40
1.0
 40
1.0
 40
1.0
 40
1.0
 10
-48.29365651705938
 20
32.52554722876598
 30
0.0
 10
-48.26959957092554
 20
32.49809235116573
 30
0.0
 10
-48.23108587187715
 20
32.44891657045646
 30
0.0
 10
-48.17978028236803
 20
32.37426291711125
 30
0.0
 10
-48.13613288929695
 20
32.30042148339744
 30
0.0
 10
-48.09385184186342
 20
32.21323508514141
 30
0.0
 10
-48.0552309392836
 20
32.10645647057361
 30
0.0
 10
-48.02627487560811
 20
31.97250693225292
 30
0.0
 10
-48.01663724344328
 20
31.7309970439687
 30
0.0
 10
-48.07857902154107
 20
31.53818653507958
 30
0.0
 10
-48.15626553851436
 20
31.42012236424445
 30
0.0
  0
ARC
  5
223
330
1F
100
AcDbEntity
  8
0
  6
Continuous
 62
     7
370
    25
100
AcDbCircle
 10
0.0
 20
0.0
 30
0.0
 40
57.5
100
AcDbArc
 50
146.8770881273
 51
147.1229118727
  0
SPLINE
  5
224
330
1F
100
AcDbEntity
  8
0
  6
Continuous
 62
     7
370
    25
100
AcDbSpline
210
0.0
220
0.0
230
1.0
 70
     8
 71
     3
 72
    15
 73
    11
 74
     0
 42
0.00000001
 43
0.00000001
 40
0.0
 40
0.0
 40
0.0
 40
0.0
 40
0.3521217033916905
 40
0.4895808092238654
 40
0.6014252693228592
 40
0.6940106444466669
 40
0.7732772325150995
 40
0.8437391327872991
 40
0.9086057707732499
 40
1.0
 40
1.0
 40
1.0
 40
1.0
 10
-48.29062785263168
 20
31.21322254427814
 30
0.0
 10
-48.36688688648248
 20
31.09423135506411
 30
0.0
 10
-48.51783406017426
 20
30.95922162590928
 30
0.0
 10
-48.74238429974601
 20
30.86979511976556
 30
0.0
 10
-48.87653078416826
 20
30.8417656146494
 30
0.0
 10
-48.98978643874791
 20
30.83361678952967
 30
0.0
 10
-49.08663242814178
 20
30.83678054540842
 30
0.0
 10
-49.17184292863357
 20
30.84662040621778
 30
0.0
 10
-49.2609102977915
 20
30.86312601811055
 30
0.0
 10
-49.32149954154782
 20
30.87830844096689
 30
0.0
 10
-49.35636566178281
 20
30.88911865008103
 30
0.0
  0
LINE
  5
225
330
1F
100
AcDbEntity
  8
0
  6
Continuous
 62
     7
370
    25
100
AcDbLine
 10
-49.3563656618
 20
30.8891186501
 30
0.0
 11
-49.3907306428
 21
30.8991230641
 31
0.0
  0
SPLINE
  5
226
330
1F
100
AcDbEntity
  8
0
  6
Continuous
 62
     7
370
    25
100
AcDbSpline
210
0.0
220
0.0
230
1.0
 70
     8
 71
     3
 72
    14
 73
    10
 74
     0
 42
0.00000001
 43
0.00000001
 40
0.0
 40
0.0
 40
0.0
 40
0.0
 40
0.1463524895720285
 40
0.2295876425155019
 40
0.3195287342547698
 40
0.4161757648032168
 40
0.5195287341716108
 40
0.6295876423687684
 40
0.6881776950847727
 40
0.6881776950847727
 40
0.6881776950847727
 40
0.6881776950847727
 10
-49.39073064284342
 20
30.89912306411755
 30
0.0
 10
-49.66051457205426
 20
30.98385352857943
 30
0.0
 10
-50.08746064173291
 20
31.10472279848403
 30
0.0
 10
-50.68743299766098
 20
31.2504410422944
 30
0.0
 10
-51.19712829147702
 20
31.36016431538619
 30
0.0
 10
-51.7477285282563
 20
31.46366857754259
 30
0.0
 10
-52.33923305729703
 20
31.55887523728926
 30
0.0
 10
-52.86014747802324
 20
31.62875818326352
 30
0.0
 10
-53.18389207076704
 20
31.66577681223101
 30
0.0
 10
-53.29644354682113
 20
31.67789616216638
 30
0.0
  0
ARC
  5
227
330
1F
100
AcDbEntity
  8
0
  6
Continuous
 62
     7
370
    25
100
AcDbCircle
 10
0.0
 20
0.0
 30
0.0
 40
62.00000000000001
100
AcDbArc
 50
149.2739496673
 51
150.7260503327
  0
SPLINE
  5
228
330
1F
100
AcDbEntity
  8
0
  6
Continuous
 62
     7
370
    25
100
AcDbSpline
210
0.0
220
0.0
230
1.0
 70
     8
 71
     3
 72
    14
 73
    10
 74
     0
 42
0.00000001
 43
0.00000001
 40
0.3118223049152282
 40
0.3118223049152282
 40
0.3118223049152282
 40
0.3118223049152282
 40
0.3704123576312316
 40
0.4804712658283892
 40
0.5838242351967832
 40
0.6804712657452302
 40
0.7704123574844981
 40
0.8536475104279715
 40
1.0
 40
1.0
 40
1.0
 40
1.0
 10
-54.08208458829152
 20
30.31712596182836
 30
0.0
 10
-54.01531318534308
 20
30.22571319929977
 30
0.0
 10
-53.82138181587209
 20
29.96385147212953
 30
0.0
 10
-53.500404199004
 20
29.5476678235701
 30
0.0
 10
-53.12220054853356
 20
29.0830132048406
 30
0.0
 10
-52.75726310971652
 20
28.65793154353823
 30
0.0
 10
-52.40739232092464
 20
28.27138410745004
 30
0.0
 10
-51.98121044202598
 20
27.82465192755312
 30
0.0
 10
-51.66306154891239
 20
27.51534042011776
 30
0.0
 10
-51.45479084960854
 20
27.32406591611934
 30
0.0
  0
LINE
  5
229
330
1F
100
AcDbEntity
  8
0
  6
Continuous
 62
     7
370
    25
100
AcDbLine
 10
-51.4547908496
 20
27.3240659161
 30
0.0
 11
-51.4289442824
 21
27.2993071765
 31
0.0
  0
SPLINE
  5
22A
330
1F
100
AcDbEntity
  8
0
  6
Continuous
 62
     7
370
    25
100
AcDbSpline
210
0.0
220
0.0
230
1.0
 70
     8
 71
     3
 72
    15
 73
    11
 74
     0
 42
0.00000001
 43
0.00000001
 40
0.0
 40
0.0
 40
0.0
 40
0.0
 40
0.0913942292267501
 40
0.1562608672127009
 40
0.2267227674849005
 40
0.3059893555533331
 40
0.3985747306771407
 40
0.5104191907761346
 40
0.6478782966083095
 40
1.0
 40
1.0
 40
1.0
 40
1.0
 10
-51.42894428237263
 20
27.29930717653853
 30
0.0
 10
-51.40214930654209
 20
27.27451733524071
 30
0.0
 10
-51.35870632077931
 20
27.2296367223798
 30
0.0
 10
-51.29987835699622
 20
27.16075492398718
 30
0.0
 10
-51.2487515373197
 20
27.09188039629678
 30
0.0
 10
-51.19758864966041
 20
27.00959118716642
 30
0.0
 10
-51.14801791193528
 20
26.90743450061834
 30
0.0
 10
-51.10521893321025
 20
26.77724548472221
 30
0.0
 10
-51.07038943951652
 20
26.53806601975534
 30
0.0
 10
-51.11183770787679
 20
26.33983706813139
 30
0.0
 10
-51.17675758363726
 20
26.21429921294152
 30
0.0
  0
ARC
  5
22B
330
1F
100
AcDbEntity
  8
0
  6
Continuous
 62
     7
370
    25
100
AcDbCircle
 10
0.0
 20
0.0
 30
0.0
 40
57.5
100
AcDbArc
 50
152.8770881273
 51
153.1229118727
  0
SPLINE
  5
22C
330
1F
100
AcDbEntity
  8
0
  6
Continuous
 62
     7
370
    25
100
AcDbSpline
210
0.0
220
0.0
230
1.0
 70
     8
 71
     3
 72
    15
 73
    11
 74
     0
 42
0.00000001
 43
0.00000001
 40
0.0
 40
0.0
 40
0.0
 40
0.0
 40
0.3521217033916905
 40
0.4895808092238654
 40
0.6014252693228592
 40
0.6940106444466669
 40
0.7732772325150995
 40
0.8437391327872991
 40
0.9086057707732499
 40
1.0
 40
1.0
 40
1.0
 40
1.0
 10
-51.28875692670788
 20
25.99448812562145
 30
0.0
 10
-51.3521602394412
 20
25.86817754297349
 30
0.0
 10
-51.48816814920689
 20
25.71812913514067
 30
0.0
 10
-51.70214066380858
 20
25.60572062528564
 30
0.0
 10
-51.83262239865724
 20
25.56382254286187
 30
0.0
 10
-51.94440584274378
 20
25.54387991832918
 30
0.0
 10
-52.04105200221475
 20
25.53690318037722
 30
0.0
 10
-52.12682425619828
 20
25.53778221472883
 30
0.0
 10
-52.21712901123514
 20
25.54488733192727
 30
0.0
 10
-52.27897333610446
 20
25.55365328334225
 30
0.0
 10
-52.31477843063101
 20
25.5607597710315
 30
0.0
  0
LINE
  5
22D
330
1F
100
AcDbEntity
  8
0
  6
Continuous
 62
     7
370
    25
100
AcDbLine
 10
-52.3147784306
 20
25.560759771
 30
0.0
 11
-52.3500009028
 21
25.5671172612
 31
0.0
  0
SPLINE
  5
22E
330
1F
100
AcDbEntity
  8
0
  6
Continuous
 62
     7
370
    25
100
AcDbSpline
210
0.0
220
0.0
230
1.0
 70
     8
 71
     3
 72
    14
 73
    10
 74
     0
 42
0.00000001
 43
0.00000001
 40
0.0
 40
0.0
 40
0.0
 40
0.0
 40
0.1463524895720285
 40
0.2295876425155019
 40
0.3195287342547698
 40
0.4161757648032168
 40
0.5195287341716108
 40
0.6295876423687684
 40
0.6881776950847702
 40
0.6881776950847702
 40
0.6881776950847702
 40
0.6881776950847702
 10
-52.35000090275483
 20
25.56711726118066
 30
0.0
 10
-52.62716367261565
 20
25.623183463758
 30
0.0
 10
-53.0644051660919
 20
25.69876258259363
 30
0.0
 10
-53.67632251477362
 20
25.78096837824942
 30
0.0
 10
-54.19469484956081
 20
25.83681290997333
 30
0.0
 10
-54.75309798209762
 20
25.88219676832647
 30
0.0
 10
-55.3513139932743
 20
25.91505281659293
 30
0.0
 10
-55.87667954725088
 20
25.9301025525847
 30
0.0
 10
-56.20252013363992
 20
25.93307786485865
 30
0.0
 10
-56.31572185795628
 20
25.93336599089657
 30
0.0
  0
ARC
  5
22F
330
1F
100
AcDbEntity
  8
0
  6
Continuous
 62
     7
370
    25
100
AcDbCircle
 10
0.0
 20
0.0
 30
0.0
 40
61.99999999999999
100
AcDbArc
 50
155.2739496673
 51
156.7260503327
  0
SPLINE
  5
230
330
1F
100
AcDbEntity
  8
0
  6
Continuous
 62
     7
370
    25
100
AcDbSpline
210
0.0
220
0.0
230
1.0
 70
     8
 71
     3
 72
    14
 73
    10
 74
     0
 42
0.00000001
 43
0.00000001
 40
0.3118223049152289
 40
0.3118223049152289
 40
0.3118223049152289
 40
0.3118223049152289
 40
0.3704123576312316
 40
0.4804712658283892
 40
0.5838242351967832
 40
0.6804712657452302
 40
0.7704123574844981
 40
0.8536475104279715
 40
1.0
 40
1.0
 40
1.0
 40
1.0
 10
-56.95481985769678
 20
24.49792838135083
 30
0.0
 10
-56.87885899988994
 20
24.41399589964048
 30
0.0
 10
-56.65861800282256
 20
24.17384002644091
 30
0.0
 10
-56.29589569770307
 20
23.79348757248884
 30
0.0
 10
-55.871194253156
 20
23.37091142676425
 30
0.0
 10
-55.46382284699364
 20
22.9863047569479
 30
0.0
 10
-55.075463477516
 20
22.63844632405439
 30
0.0
 10
-54.60492003928525
 20
22.23870952665509
 30
0.0
 10
-54.2561821425534
 20
21.96434807490874
 30
0.0
 10
-54.02905874196681
 20
21.79589160879851
 30
0.0
  0
LINE
  5
231
330
1F
100
AcDbEntity
  8
0
  6
Continuous
 62
     7
370
    25
100
AcDbLine
 10
-54.029058742
 20
21.7958916088
 30
0.0
 11
-54.0007657719
 21
21.7739702021
 31
0.0
  0
SPLINE
  5
232
330
1F
100
AcDbEntity
  8
0
  6
Continuous
 62
     7
370
    25
100
AcDbSpline
210
0.0
220
0.0
230
1.0
 70
     8
 71
     3
 72
    15
 73
    11
 74
     0
 42
0.00000001
 43
0.00000001
 40
0.0
 40
0.0
 40
0.0
 40
0.0
 40
0.0913942292267501
 40
0.1562608672127009
 40
0.2267227674849005
 40
0.3059893555533331
 40
0.3985747306771407
 40
0.5104191907761346
 40
0.6478782966083095
 40
1.0
 40
1.0
 40
1.0
 40
1.0
 10
-54.00076577192977
 20
21.77397020213759
 30
0.0
 10
-53.97152633776491
 20
21.75211699983106
 30
0.0
 10
-53.9236300357308
 20
21.71202327620488
 30
0.0
 10
-53.85792422915549
 20
21.64966801616249
 30
0.0
 10
-53.79987813900888
 20
21.58651499823378
 30
0.0
 10
-53.74039396242755
 20
21.51002455602447
 30
0.0
 10
-53.68041649693295
 20
21.41360904753158
 30
0.0
 10
-53.62424351772557
 20
21.28860693216199
 30
0.0
 10
-53.5646037617244
 20
21.05437839078216
 30
0.0
 10
-53.58510440444537
 20
20.85290283429944
 30
0.0
 10
-53.63654636324883
 20
20.72126671376677
 30
0.0
  0
ARC
  5
233
330
1F
100
AcDbEntity
  8
0
  6
Continuous
 62
     7
370
    25
100
AcDbCircle
 10
0.0
 20
0.0
 30
0.0
 40
57.49999999999999
100
AcDbArc
 50
158.8770881273
 51
159.1229118727
  0
SPLINE
  5
234
330
1F
100
AcDbEntity
  8
0
  6
Continuous
 62
     7
370
    25
100
AcDbSpline
210
0.0
220
0.0
230
1.0
 70
     8
 71
     3
 72
    15
 73
    11
 74
     0
 42
0.00000001
 43
0.00000001
 40
0.0
 40
0.0
 40
0.0
 40
0.0
 40
0.3521217033916905
 40
0.4895808092238654
 40
0.6014252693228592
 40
0.6940106444466669
 40
0.7732772325150995
 40
0.8437391327872991
 40
0.9086057707732499
 40
1.0
 40
1.0
 40
1.0
 40
1.0
 10
-53.72495564703266
 20
20.4909526553641
 30
0.0
 10
-53.7748085786862
 20
20.35870656445788
 30
0.0
 10
-53.89438709340493
 20
20.19526343970294
 30
0.0
 10
-54.09543755538996
 20
20.06110449729357
 30
0.0
 10
-54.22082495547298
 20
20.00579688172095
 30
0.0
 10
-54.32991146626078
 20
19.97427895334295
 30
0.0
 10
-54.42529892026118
 20
19.95723816016126
 30
0.0
 10
-54.51069318897283
 20
19.94914673717082
 30
0.0
 10
-54.60124593209495
 20
19.94677351452406
 30
0.0
 10
-54.66366775871224
 20
19.94902695289957
 30
0.0
 10
-54.70001953942199
 20
19.95235185899769
 30
0.0
  0
LINE
  5
235
330
1F
100
AcDbEntity
  8
0
  6
Continuous
 62
     7
370
    25
100
AcDbLine
 10
-54.7000195394
 20
19.952351859
 30
0.0
 11
-54.7357135978
 21
19.9549927713
 31
0.0
  0
SPLINE
  5
236
330
1F
100
AcDbEntity
  8
0
  6
Continuous
 62
     7
370
    25
100
AcDbSpline
210
0.0
220
0.0
230
1.0
 70
     8
 71
     3
 72
    14
 73
    10
 74
     0
 42
0.00000001
 43
0.00000001
 40
0.0
 40
0.0
 40
0.0
 40
0.0
 40
0.1463524895720285
 40
0.2295876425155019
 40
0.3195287342547698
 40
0.4161757648032168
 40
0.5195287341716108
 40
0.6295876423687684
 40
0.6881776950847729
 40
0.6881776950847729
 40
0.6881776950847729
 40
0.6881776950847729
 10
-54.73571359783368
 20
19.95499277126702
 30
0.0
 10
-55.01721855503784
 20
19.98178043891178
 30
0.0
 10
-55.45996496301051
 20
20.01124134603652
 30
0.0
 10
-56.07712300992177
 20
20.02903402963787
 30
0.0
 10
-56.59849298990381
 20
20.0303879756181
 30
0.0
 10
-57.15858103662471
 20
20.01715419511868
 30
0.0
 10
-57.75695435013413
 20
19.98729965416455
 30
0.0
 10
-58.28101502241194
 20
19.94735129211695
 30
0.0
 10
-58.60538162479522
 20
19.91625068955346
 30
0.0
 10
-58.71799333559326
 20
19.90470443492477
 30
0.0
  0
ARC
  5
237
330
1F
100
AcDbEntity
  8
0
  6
Continuous
 62
     7
370
    25
100
AcDbCircle
 10
0.0
 20
0.0
 30
0.0
 40
62.00000000000001
100
AcDbArc
 50
161.2739496673
 51
162.7260503327
  0
SPLINE
  5
238
330
1F
100
AcDbEntity
  8
0
  6
Continuous
 62
     7
370
    25
100
AcDbSpline
210
0.0
220
0.0
230
1.0
 70
     8
 71
     3
 72
    14
 73
    10
 74
     0
 42
0.00000001
 43
0.00000001
 40
0.3118223049152284
 40
0.3118223049152284
 40
0.3118223049152284
 40
0.3118223049152284
 40
0.3704123576312316
 40
0.4804712658283892
 40
0.5838242351967832
 40
0.6804712657452302
 40
0.7704123574844981
 40
0.8536475104279715
 40
1.0
 40
1.0
 40
1.0
 40
1.0
 10
-59.20354620217883
 20
18.41032637100614
 30
0.0
 10
-59.11922813256755
 20
18.33479375194763
 30
0.0
 10
-58.87509051435604
 20
18.11897493072136
 30
0.0
 10
-58.47459758246457
 20
17.77862089245602
 30
0.0
 10
-58.0080514617418
 20
17.40275305241865
 30
0.0
 10
-57.56270933460798
 20
17.06283520524693
 30
0.0
 10
-57.14011633096599
 20
16.75747698533293
 30
0.0
 10
-56.63036670577997
 20
16.40911517043388
 30
0.0
 10
-56.25486065080452
 20
16.17270973585568
 30
0.0
 10
-56.01137296044067
 20
16.02891695192814
 30
0.0
  0
LINE
  5
239
330
1F
100
AcDbEntity
  8
0
  6
Continuous
 62
     7
370
    25
100
AcDbLine
 10
-56.0113729604
 20
16.0289169519
 30
0.0
 11
-55.9809435713
 21
16.0100730537
 31
0.0
  0
SPLINE
  5
23A
330
1F
100
AcDbEntity
  8
0
  6
Continuous
 62
     7
370
    25
100
AcDbSpline
210
0.0
220
0.0
230
1.0
 70
     8
 71
     3
 72
    15
 73
    11
 74
     0
 42
0.00000001
 43
0.00000001
 40
0.0
 40
0.0
 40
0.0
 40
0.0
 40
0.0913942292267501
 40
0.1562608672127009
 40
0.2267227674849005
 40
0.3059893555533331
 40
0.3985747306771407
 40
0.5104191907761346
 40
0.6478782966083095
 40
1.0
 40
1.0
 40
1.0
 40
1.0
 10
-55.9809435713029
 20
16.01007305370583
 30
0.0
 10
-55.9495800321632
 20
15.99139591864814
 30
0.0
 10
-55.89775517576577
 20
15.95652835948289
 30
0.0
 10
-55.82589141296491
 20
15.90138281506843
 30
0.0
 10
-55.76156201745879
 20
15.84464322458146
 30
0.0
 10
-55.69440827304189
 20
15.77478959458469
 30
0.0
 10
-55.62468120544089
 20
15.68517161263428
 30
0.0
 10
-55.55574966866628
 20
15.56672594712559
 30
0.0
 10
-55.47195307600485
 20
15.34001458624763
 30
0.0
 10
-55.47128148375484
 20
15.13749983326444
 30
0.0
 10
-55.50868191673572
 20
15.00120768027216
 30
0.0
  0
ARC
  5
23B
330
1F
100
AcDbEntity
  8
0
  6
Continuous
 62
     7
370
    25
100
AcDbCircle
 10
0.0
 20
0.0
 30
0.0
 40
57.5
100
AcDbArc
 50
164.8770881273
 51
165.1229118727
  0
SPLINE
  5
23C
330
1F
100
AcDbEntity
  8
0
  6
Continuous
 62
     7
370
    25
100
AcDbSpline
210
0.0
220
0.0
230
1.0
 70
     8
 71
     3
 72
    15
 73
    11
 74
     0
 42
0.00000001
 43
0.00000001
 40
0.0
 40
0.0
 40
0.0
 40
0.0
 40
0.3521217033916905
 40
0.4895808092238654
 40
0.6014252693228592
 40
0.6940106444466669
 40
0.7732772325150995
 40
0.8437391327872991
 40
0.9086057707732499
 40
1.0
 40
1.0
 40
1.0
 40
1.0
 10
-55.5725325106188
 20
14.76291401980711
 30
0.0
 10
-55.60828886204096
 20
14.62618133648888
 30
0.0
 10
-55.71012785448206
 20
14.45113421188932
 30
0.0
 10
-55.89605351291642
 20
14.29669471037319
 30
0.0
 10
-56.01497280763947
 20
14.22858352346181
 30
0.0
 10
-56.12016721048854
 20
14.18583560825736
 30
0.0
 10
-56.21325087411122
 20
14.15891746234205
 30
0.0
 10
-56.29733156007308
 20
14.14194423333307
 30
0.0
 10
-56.38714017647742
 20
14.13011867236506
 30
0.0
 10
-56.44945559824767
 20
14.1258349085587
 30
0.0
 10
-56.4859557874241
 20
14.12534180469869
 30
0.0
  0
LINE
  5
23D
330
1F
100
AcDbEntity
  8
0
  6
Continuous
 62
     7
370
    25
100
AcDbLine
 10
-56.4859557874
 20
14.1253418047
 30
0.0
 11
-56.5217303606
 21
14.1242372047
 31
0.0
  0
SPLINE
  5
23E
330
1F
100
AcDbEntity
  8
0
  6
Continuous
 62
     7
370
    25
100
AcDbSpline
210
0.0
220
0.0
230
1.0
 70
     8
 71
     3
 72
    14
 73
    10
 74
     0
 42
0.00000001
 43
0.00000001
 40
0.0
 40
0.0
 40
0.0
 40
0.0
 40
0.1463524895720285
 40
0.2295876425155019
 40
0.3195287342547698
 40
0.4161757648032168
 40
0.5195287341716108
 40
0.6295876423687684
 40
0.6881776950847699
 40
0.6881776950847699
 40
0.6881776950847699
 40
0.6881776950847699
 10
-56.52173036055021
 20
14.12423720470073
 30
0.0
 10
-56.80449327787788
 20
14.12145284612052
 30
0.0
 10
-57.24789377805057
 20
14.10447276167083
 30
0.0
 10
-57.8635308104808
 20
14.05765739285283
 30
0.0
 10
-58.38218619705333
 20
14.00450591897391
 30
0.0
 10
-58.93782271611249
 20
13.93279949169041
 30
0.0
 10
-59.52979742871415
 20
13.84056145411385
 30
0.0
 10
-60.04681150090097
 20
13.74605267664119
 30
0.0
 10
-60.36615029090468
 20
13.6812169039502
 30
0.0
 10
-60.47693819071537
 20
13.6579627718368
 30
0.0
  0
ARC
  5
23F
330
1F
100
AcDbEntity
  8
0
  6
Continuous
 62
     7
370
    25
100
AcDbCircle
 10
0.0
 20
0.0
 30
0.0
 40
62.00000000000001
100
AcDbArc
 50
167.2739496673
 51
168.7260503327
  0
SPLINE
  5
240
330
1F
100
AcDbEntity
  8
0
  6
Continuous
 62
     7
370
    25
100
AcDbSpline
210
0.0
220
0.0
230
1.0
 70
     8
 71
     3
 72
    14
 73
    10
 74
     0
 42
0.00000001
 43
0.00000001
 40
0.3118223049152294
 40
0.3118223049152294
 40
0.3118223049152294
 40
0.3118223049152294
 40
0.3704123576312316
 40
0.4804712658283892
 40
0.5838242351967832
 40
0.6804712657452302
 40
0.7704123574844981
 40
0.8536475104279715
 40
1.0
 40
1.0
 40
1.0
 40
1.0
 10
-60.80362610533126
 20
12.12101697233227
 30
0.0
 10
-60.71187463033089
 20
12.05471176710623
 30
0.0
 10
-60.44651521380947
 20
11.86559455402162
 30
0.0
 10
-60.01263953951635
 20
11.5689679215099
 30
0.0
 10
-59.5093603195476
 20
11.24392647387058
 30
0.0
 10
-59.03092673298102
 20
10.95242166040951
 30
0.0
 10
-58.57873011255586
 20
10.69290922203272
 30
0.0
 10
-58.03535922398007
 20
10.39973911457734
 30
0.0
 10
-57.63719913367904
 20
10.20387980457955
 30
0.0
 10
-57.38001485562661
 20
10.08632612666597
 30
0.0
  0
LINE
  5
241
330
1F
100
AcDbEntity
  8
0
  6
Continuous
 62
     7
370
    25
100
AcDbLine
 10
-57.3800148556
 20
10.0863261267
 30
0.0
 11
-57.3477824381
 21
10.0707661946
 31
0.0
  0
SPLINE
  5
242
330
1F
100
AcDbEntity
  8
0
  6
Continuous
 62
     7
370
    25
100
AcDbSpline
210
0.0
220
0.0
230
1.0
 70
     8
 71
     3
 72
    15
 73
    11
 74
     0
 42
0.00000001
 43
0.00000001
 40
0.0
 40
0.0
 40
0.0
 40
0.0
 40
0.0913942292267501
 40
0.1562608672127009
 40
0.2267227674849005
 40
0.3059893555533331
 40
0.3985747306771407
 40
0.5104191907761346
 40
0.6478782966083095
 40
1.0
 40
1.0
 40
1.0
 40
1.0
 10
-57.34778243814326
 20
10.07076619457454
 30
0.0
 10
-57.31463841952676
 20
10.05546975736583
 30
0.0
 10
-57.25945281273777
 20
10.02621037893623
 30
0.0
 10
-57.18221844813506
 20
9.978878736274247
 30
0.0
 10
-57.11231055358838
 20
9.929174224055926
 30
0.0
 10
-57.03822299181258
 20
9.866722737259746
 30
0.0
 10
-56.95951026644914
 20
9.784884155215838
 30
0.0
 10
-56.87857540044908
 20
9.674292655065704
 30
0.0
 10
-56.77154006413213
 20
9.457582371801806
 30
0.0
 10
-56.74970359501637
 20
9.256247216330754
 30
0.0
 10
-56.77265273520438
 20
9.116792276228015
 30
0.0
  0
ARC
  5
243
330
1F
100
AcDbEntity
  8
0
  6
Continuous
 62
     7
370
    25
100
AcDbCircle
 10
0.0
 20
0.0
 30
0.0
 40
57.5
100
AcDbArc
 50
170.8770881273
 51
171.1229118727
  0
SPLINE
  5
244
330
1F
100
AcDbEntity
  8
0
  6
Continuous
 62
     7
370
    25
100
AcDbSpline
210
0.0
220
0.0
230
1.0
 70
     8
 71
     3
 72
    15
 73
    11
 74
     0
 42
0.00000001
 43
0.00000001
 40
0.0
 40
0.0
 40
0.0
 40
0.0
 40
0.3521217033916905
 40
0.4895808092238654
 40
0.6014252693228592
 40
0.6940106444466669
 40
0.7732772325150995
 40
0.8437391327872991
 40
0.9086057707732499
 40
1.0
 40
1.0
 40
1.0
 40
1.0
 10
-56.81124507871853
 20
8.873129808910692
 30
0.0
 10
-56.83251309584063
 20
8.733408605072043
 30
0.0
 10
-56.91549679669173
 20
8.548675333555918
 30
0.0
 10
-57.08426061115416
 20
8.375647344430195
 30
0.0
 10
-57.19540889583882
 20
8.295478826597032
 30
0.0
 10
-57.29555865885818
 20
8.241969279670695
 30
0.0
 10
-57.3853186880055
 20
8.205468701861395
 30
0.0
 10
-57.46716458562714
 20
8.179799629082785
 30
0.0
 10
-57.55524511331873
 20
8.158651293114145
 30
0.0
 10
-57.61677138944067
 20
8.147877260938618
 30
0.0
 10
-57.65302008337299
 20
8.143571549669554
 30
0.0
  0
LINE
  5
245
330
1F
100
AcDbEntity
  8
0
  6
Continuous
 62
     7
370
    25
100
AcDbLine
 10
-57.6530200834
 20
8.1435715497
 30
0.0
 11
-57.6884832175
 21
8.1387335396
 31
0.0
  0
SPLINE
  5
246
330
1F
100
AcDbEntity
  8
0
  6
Continuous
 62
     7
370
    25
100
AcDbSpline
210
0.0
220
0.0
230
1.0
 70
     8
 71
     3
 72
    14
 73
    10
 74
     0
 42
0.00000001
 43
0.00000001
 40
0.0
 40
0.0
 40
0.0
 40
0.0
 40
0.1463524895720285
 40
0.2295876425155019
 40
0.3195287342547698
 40
0.4161757648032168
 40
0.5195287341716108
 40
0.6295876423687684
 40
0.6881776950847741
 40
0.6881776950847741
 40
0.6881776950847741
 40
0.6881776950847741
 10
-57.68848321750404
 20
8.138733539633028
 30
0.0
 10
-57.96940608526106
 20
8.106407660843116
 30
0.0
 10
-58.40860268896637
 20
8.043172622177535
 30
0.0
 10
-59.01597365875792
 20
7.932262119917698
 30
0.0
 10
-59.52623195497002
 20
7.825187564850101
 30
0.0
 10
-60.07132927639019
 20
7.695794121405392
 30
0.0
 10
-60.65041958925421
 20
7.542183166448134
 30
0.0
 10
-61.15472254698297
 20
7.394149431493648
 30
0.0
 10
-61.46553478199792
 20
7.296288842968488
 30
0.0
 10
-61.57328505540709
 20
7.261581610508066
 30
0.0
  0
ARC
  5
247
330
1F
100
AcDbEntity
  8
0
  6
Continuous
 62
     7
370
    25
100
AcDbCircle
 10
0.0
 20
0.0
 30
0.0
 40
62.00000000000001
100
AcDbArc
 50
173.2739496673
 51
174.7260503327
  0
SPLINE
  5
248
330
1F
100
AcDbEntity
  8
0
  6
Continuous
 62
     7
370
    25
100
AcDbSpline
210
0.0
220
0.0
230
1.0
 70
     8
 71
     3
 72
    14
 73
    10
 74
     0
 42
0.00000001
 43
0.00000001
 40
0.3118223049152304
 40
0.3118223049152304
 40
0.3118223049152304
 40
0.3118223049152304
 40
0.3704123576312316
 40
0.4804712658283892
 40
0.5838242351967832
 40
0.6804712657452302
 40
0.7704123574844981
 40
0.8536475104279715
 40
1.0
 40
1.0
 40
1.0
 40
1.0
 10
-61.73752875689689
 20
5.698907175223601
 30
0.0
 10
-61.63934912486776
 20
5.642555837533756
 30
0.0
 10
-61.35567524333386
 20
5.482212240352665
 30
0.0
 10
-60.89317045932098
 20
5.232562917053479
 30
0.0
 10
-60.35867217255815
 20
4.961909083931856
 30
0.0
 10
-59.85238894505192
 20
4.722011091919017
 30
0.0
 10
-59.37554306864519
 20
4.511187707660751
 30
0.0
 10
-58.80450420184253
 20
4.276421340696118
 30
0.0
 10
-58.38805240148562
 20
4.123254030865269
 30
0.0
 10
-58.11998930051422
 20
4.033227401660567
 30
0.0
  0
LINE
  5
249
330
1F
100
AcDbEntity
  8
0
  6
Continuous
 62
     7
370
    25
100
AcDbLine
 10
-58.1199893005
 20
4.0332274017
 30
0.0
 11
-58.0863069998
 21
4.0211219136
 31
0.0
  0
SPLINE
  5
24A
330
1F
100
AcDbEntity
  8
0
  6
Continuous
 62
     7
370
    25
100
AcDbSpline
210
0.0
220
0.0
230
1.0
 70
     8
 71
     3
 72
    15
 73
    11
 74
     0
 42
0.00000001
 43
0.00000001
 40
0.0
 40
0.0
 40
0.0
 40
0.0
 40
0.0913942292267501
 40
0.1562608672127009
 40
0.2267227674849005
 40
0.3059893555533331
 40
0.3985747306771407
 40
0.5104191907761346
 40
0.6478782966083095
 40
1.0
 40
1.0
 40
1.0
 40
1.0
 10
-58.08630699979633
 20
4.02112191357213
 30
0.0
 10
-58.05174563450682
 20
4.00937376517944
 30
0.0
 10
-57.99380390238257
 20
3.986043139358479
 30
0.0
 10
-57.91204513183893
 20
3.947043973830765
 30
0.0
 10
-57.83732466377351
 20
3.904919112918289
 30
0.0
 10
-57.75711500346944
 20
3.850554000880855
 30
0.0
 10
-57.67027901343433
 20
3.777391459374147
 30
0.0
 10
-57.57822755753742
 20
3.675865788200974
 30
0.0
 10
-57.44912617910823
 20
3.471530905764113
 30
0.0
 10
-57.40636407805194
 20
3.273581217900639
 30
0.0
 10
-57.41461048986477
 20
3.132491388194027
 30
0.0
  0
ARC
  5
24B
330
1F
100
AcDbEntity
  8
0
  6
Continuous
 62
     7
370
    25
100
AcDbCircle
 10
0.0
 20
0.0
 30
0.0
 40
57.49999999999999
100
AcDbArc
 50
176.8770881273
 51
177.1229118727
  0
SPLINE
  5
24C
330
1F
100
AcDbEntity
  8
0
  6
Continuous
 62
     7
370
    25
100
AcDbSpline
210
0.0
220
0.0
230
1.0
 70
     8
 71
     3
 72
    15
 73
    11
 74
     0
 42
0.00000001
 43
0.00000001
 40
0.0
 40
0.0
 40
0.0
 40
0.0
 40
0.3521217033916905
 40
0.4895808092238654
 40
0.6014252693228592
 40
0.6940106444466669
 40
0.7732772325150995
 40
0.8437391327872991
 40
0.9086057707732499
 40
1.0
 40
1.0
 40
1.0
 40
1.0
 10
-57.42752175721849
 20
2.886129731006116
 30
0.0
 10
-57.43406842319433
 20
2.74495082139484
 30
0.0
 10
-57.49728764566345
 20
2.552555379342814
 30
0.0
 10
-57.6470406044866
 20
2.362834633464795
 30
0.0
 10
-57.74920011526657
 20
2.271487127767571
 30
0.0
 10
-57.84320797669491
 20
2.207802210913057
 30
0.0
 10
-57.92866094170402
 20
2.162119109178487
 30
0.0
 10
-58.00737533020376
 20
2.128035428363205
 30
0.0
 10
-58.09276274048918
 20
2.097796022988382
 30
0.0
 10
-58.15282577620641
 20
2.08064976499481
 30
0.0
 10
-58.18842582661838
 20
2.072578620590387
 30
0.0
  0
LINE
  5
24D
330
1F
100
AcDbEntity
  8
0
  6
Continuous
 62
     7
370
    25
100
AcDbLine
 10
-58.1884258266
 20
2.0725786206
 30
0.0
 11
-58.2231889802
 21
2.0640602068
 31
0.0
  0
SPLINE
  5
24E
330
1F
100
AcDbEntity
  8
0
  6
Continuous
 62
     7
370
    25
100
AcDbSpline
210
0.0
220
0.0
230
1.0
 70
     8
 71
     3
 72
    14
 73
    10
 74
     0
 42
0.00000001
 43
0.00000001
 40
0.0
 40
0.0
 40
0.0
 40
0.0
 40
0.1463524895720285
 40
0.2295876425155019
 40
0.3195287342547698
 40
0.4161757648032168
 40
0.5195287341716108
 40
0.6295876423687684
 40
0.688177695084771
 40
0.688177695084771
 40
0.688177695084771
 40
0.688177695084771
 10
-58.2231889802357
 20
2.064060206765678
 30
0.0
 10
-58.49919394869601
 20
2.002546976858706
 30
0.0
 10
-58.92937472603593
 20
1.893749800293639
 30
0.0
 10
-59.52182514974323
 20
1.719959323264243
 30
0.0
 10
-60.01809585892319
 20
1.560134818240082
 30
0.0
 10
-60.54668178238197
 20
1.374472020277856
 30
0.0
 10
-61.10654306085813
 20
1.161171141707574
 30
0.0
 10
-61.59260965539182
 20
0.9612343378494745
 30
0.0
 10
-61.89149001152953
 20
0.831421114576682
 30
0.0
 10
-61.99502212399349
 20
0.7856410414710288
 30
0.0
  0
ARC
  5
24F
330
1F
100
AcDbEntity
  8
0
  6
Continuous
 62
     7
370
    25
100
AcDbCircle
 10
0.0
 20
0.0
 30
0.0
 40
62.0
100
AcDbArc
 50
179.2739496673
 51
180.7260503327
  0
SPLINE
  5
250
330
1F
100
AcDbEntity
  8
0
  6
Continuous
 62
     7
370
    25
100
AcDbSpline
210
0.0
220
0.0
230
1.0
 70
     8
 71
     3
 72
    14
 73
    10
 74
     0
 42
0.00000001
 43
0.00000001
 40
0.3118223049152279
 40
0.3118223049152279
 40
0.3118223049152279
 40
0.3118223049152279
 40
0.3704123576312316
 40
0.4804712658283892
 40
0.5838242351967832
 40
0.6804712657452302
 40
0.7704123574844981
 40
0.8536475104279715
 40
1.0
 40
1.0
 40
1.0
 40
1.0
 10
-61.99502212399351
 20
-0.785641041469743
 30
0.0
 10
-61.89149001152955
 20
-0.8314211145753992
 30
0.0
 10
-61.59260965539183
 20
-0.9612343378481987
 30
0.0
 10
-61.10654306085817
 20
-1.161171141706309
 30
0.0
 10
-60.546681782382
 20
-1.374472020276602
 30
0.0
 10
-60.01809585892322
 20
-1.560134818238839
 30
0.0
 10
-59.52182514974327
 20
-1.719959323263011
 30
0.0
 10
-58.92937472603599
 20
-1.893749800292417
 30
0.0
 10
-58.49919394869605
 20
-2.002546976857497
 30
0.0
 10
-58.22318898023574
 20
-2.064060206764473
 30
0.0
  0
LINE
  5
251
330
1F
100
AcDbEntity
  8
0
  6
Continuous
 62
     7
370
    25
100
AcDbLine
 10
-58.2231889802
 20
-2.0640602068
 30
0.0
 11
-58.1884258266
 21
-2.0725786206
 31
0.0
  0
SPLINE
  5
252
330
1F
100
AcDbEntity
  8
0
  6
Continuous
 62
     7
370
    25
100
AcDbSpline
210
0.0
220
0.0
230
1.0
 70
     8
 71
     3
 72
    15
 73
    11
 74
     0
 42
0.00000001
 43
0.00000001
 40
0.0
 40
0.0
 40
0.0
 40
0.0
 40
0.0913942292267501
 40
0.1562608672127009
 40
0.2267227674849005
 40
0.3059893555533331
 40
0.3985747306771407
 40
0.5104191907761346
 40
0.6478782966083095
 40
1.0
 40
1.0
 40
1.0
 40
1.0
 10
-58.18842582661842
 20
-2.072578620589182
 30
0.0
 10
-58.15282577620646
 20
-2.080649764993604
 30
0.0
 10
-58.0927627404892
 20
-2.097796022987179
 30
0.0
 10
-58.00737533020382
 20
-2.128035428362004
 30
0.0
 10
-57.92866094170405
 20
-2.162119109177287
 30
0.0
 10
-57.84320797669496
 20
-2.207802210911859
 30
0.0
 10
-57.74920011526661
 20
-2.271487127766375
 30
0.0
 10
-57.64704060448666
 20
-2.362834633463601
 30
0.0
 10
-57.4972876456635
 20
-2.552555379341623
 30
0.0
 10
-57.43406842319438
 20
-2.744950821393652
 30
0.0
 10
-57.42752175721854
 20
-2.886129731004927
 30
0.0
  0
ARC
  5
253
330
1F
100
AcDbEntity
  8
0
  6
Continuous
 62
     7
370
    25
100
AcDbCircle
 10
0.0
 20
0.0
 30
0.0
 40
57.49999999999999
100
AcDbArc
 50
182.8770881273
 51
183.1229118727
  0
SPLINE
  5
254
330
1F
100
AcDbEntity
  8
0
  6
Continuous
 62
     7
370
    25
100
AcDbSpline
210
0.0
220
0.0
230
1.0
 70
     8
 71
     3
 72
    15
 73
    11
 74
     0
 42
0.00000001
 43
0.00000001
 40
0.0
 40
0.0
 40
0.0
 40
0.0
 40
0.3521217033916905
 40
0.4895808092238654
 40
0.6014252693228592
 40
0.6940106444466669
 40
0.7732772325150995
 40
0.8437391327872991
 40
0.9086057707732499
 40
1.0
 40
1.0
 40
1.0
 40
1.0
 10
-57.41461048986483
 20
-3.13249138819289
 30
0.0
 10
-57.406364078052
 20
-3.273581217899502
 30
0.0
 10
-57.4491261791083
 20
-3.471530905762974
 30
0.0
 10
-57.57822755753748
 20
-3.675865788199832
 30
0.0
 10
-57.67027901343442
 20
-3.777391459373005
 30
0.0
 10
-57.75711500346952
 20
-3.850554000879711
 30
0.0
 10
-57.8373246637736
 20
-3.904919112917144
 30
0.0
 10
-57.91204513183899
 20
-3.947043973829617
 30
0.0
 10
-57.99380390238268
 20
-3.986043139357335
 30
0.0
 10
-58.05174563450689
 20
-4.009373765178287
 30
0.0
 10
-58.08630699979641
 20
-4.021121913570978
 30
0.0
  0
LINE
  5
255
330
1F
100
AcDbEntity
  8
0
  6
Continuous
 62
     7
370
    25
100
AcDbLine
 10
-58.0863069998
 20
-4.0211219136
 30
0.0
 11
-58.1199893005
 21
-4.0332274017
 31
0.0
  0
MTEXT
  5
257
330
1F
100
AcDbEntity
  8
0
  6
Continuous
 62
     7
100
AcDbMText
 10
-62.0
 20
-63.0195663917
 30
0.0
 40
4.83362
 41
0.0
 71
     1
 72
     1
  1
SOLIDWORKS Educational Product.
  7
SLDTEXTSTYLE0
 73
     1
 44
1.0
  0
MTEXT
  5
258
330
1F
100
AcDbEntity
  8
0
  6
Continuous
 62
     7
100
AcDbMText
 10
-62.0
 20
-70.2699963917
 30
0.0
 40
4.83362
 41
0.0
 71
     1
 72
     1
  1
For Instructional Use Only.
  7
SLDTEXTSTYLE0
 73
     1
 44
1.0
  0
ENDSEC
  0
SECTION
  2
OBJECTS
  0
DICTIONARY
  5
C
330
0
100
AcDbDictionary
281
     1
  3
ACAD_GROUP
350
D
  3
ACAD_LAYOUT
350
1A
  3
ACAD_MLINESTYLE
350
17
  3
ACAD_PLOTSETTINGS
350
19
  3
ACAD_PLOTSTYLENAME
350
E
  3
ACAD_SCALELIST
350
47
  3
DWGPROPS
350
259
  0
DICTIONARY
  5
D
102
{ACAD_REACTORS
330
C
102
}
330
C
100
AcDbDictionary
281
     1
  0
DICTIONARY
  5
1A
102
{ACAD_REACTORS
330
C
102
}
330
C
100
AcDbDictionary
281
     1
  3
Layout1
350
1E
  3
Layout2
350
26
  3
Model
350
22
  0
DICTIONARY
  5
17
102
{ACAD_REACTORS
330
C
102
}
330
C
100
AcDbDictionary
281
     1
  3
Standard
350
18
  0
DICTIONARY
  5
19
102
{ACAD_REACTORS
330
C
102
}
330
C
100
AcDbDictionary
281
     1
  0
ACDBDICTIONARYWDFLT
  5
E
102
{ACAD_REACTORS
330
C
102
}
330
C
100
AcDbDictionary
281
     1
  3
Normal
350
F
100
AcDbDictionaryWithDefault
340
F
  0
DICTIONARY
  5
47
102
{ACAD_REACTORS
330
C
102
}
330
C
100
AcDbDictionary
281
     1
  3
A0
350
48
  3
A1
350
49
  3
A2
350
4A
  3
A3
350
4B
  3
A4
350
4C
  3
A5
350
4D
  3
A6
350
4E
  3
A7
350
4F
  3
A8
350
50
  3
A9
350
51
  3
B0
350
52
  3
B1
350
53
  3
B2
350
54
  3
B3
350
55
  3
B4
350
56
  3
B5
350
57
  3
B6
350
58
  0
XRECORD
  5
259
102
{ACAD_REACTORS
330
C
102
}
330
C
100
AcDbXrecord
280
     1
  1
DWGPROPS COOKIE
  2

  3

  4

  6

  7

  8
garthz
  9

300
=
301
=
302
=
303
=
304
=
305
=
306
=
307
=
308
=
309
=
 40
0.0
 41
2459998.680096065
 42
2459998.68012147
  1

 90
        0
  0
LAYOUT
  5
1E
102
{ACAD_REACTORS
330
1A
102
}
330
1A
100
AcDbPlotSettings
  1

  2
none_device
  4

  6

 40
0.0
 41
0.0
 42
0.0
 43
0.0
 44
0.0
 45
0.0
 46
0.0
 47
0.0
 48
0.0
 49
0.0
140
0.0
141
0.0
142
1.0
143
1.0
 70
   688
 72
     1
 73
     0
 74
     5
  7

 75
    16
147
1.0
148
0.0
149
0.0
100
AcDbLayout
  1
Layout1
 70
     1
 71
     1
 10
0.0
 20
0.0
 11
420.0
 21
297.0
 12
0.0
 22
0.0
 32
0.0
 14
1.0000000000E+20
 24
1.0000000000E+20
 34
1.0000000000E+20
 15
-1.0000000000E+20
 25
-1.0000000000E+20
 35
-1.0000000000E+20
146
0.0
 13
0.0
 23
0.0
 33
0.0
 16
1.0
 26
0.0
 36
0.0
 17
0.0
 27
1.0
 37
0.0
 76
     0
330
1B
  0
LAYOUT
  5
26
102
{ACAD_REACTORS
330
1A
102
}
330
1A
100
AcDbPlotSettings
  1

  2
none_device
  4

  6

 40
0.0
 41
0.0
 42
0.0
 43
0.0
 44
0.0
 45
0.0
 46
0.0
 47
0.0
 48
0.0
 49
0.0
140
0.0
141
0.0
142
1.0
143
1.0
 70
   688
 72
     1
 73
     0
 74
     5
  7

 75
    16
147
1.0
148
0.0
149
0.0
100
AcDbLayout
  1
Layout2
 70
     1
 71
     2
 10
0.0
 20
0.0
 11
0.0
 21
0.0
 12
0.0
 22
0.0
 32
0.0
 14
0.0
 24
0.0
 34
0.0
 15
0.0
 25
0.0
 35
0.0
146
0.0
 13
0.0
 23
0.0
 33
0.0
 16
1.0
 26
0.0
 36
0.0
 17
0.0
 27
1.0
 37
0.0
 76
     0
330
23
  0
LAYOUT
  5
22
102
{ACAD_REACTORS
330
1A
102
}
330
1A
100
AcDbPlotSettings
  1

  2
none_device
  4
ANSI_A_(11.00_x_8.50_Inches)
  6

 40
6.35
 41
19.05
 42
6.35000508
 43
19.05000254
 44
279.4
 45
215.9
 46
133.34999746
 47
88.89999873
 48
0.0
 49
0.0
140
0.0
141
0.0
142
0.0678629032
143
1.0
 70
  1696
 72
     0
 73
     0
 74
     0
  7

 75
     0
147
0.0179189148
148
-1300.4909072572
149
0.0
100
AcDbLayout
  1
Model
 70
     1
 71
     0
 10
0.0
 20
0.0
 11
420.0
 21
297.0
 12
0.0
 22
0.0
 32
0.0
 14
-62.0
 24
-62.0
 34
0.0
 15
62.0
 25
62.0
 35
0.0
146
0.0
 13
0.0
 23
0.0
 33
0.0
 16
1.0
 26
0.0
 36
0.0
 17
0.0
 27
1.0
 37
0.0
 76
     0
330
1F
331
29
  0
MLINESTYLE
  5
18
102
{ACAD_REACTORS
330
17
102
}
330
17
100
AcDbMlineStyle
  2
Standard
 70
     0
  3

 62
   256
 51
90.0
 52
90.0
 71
     2
 49
0.5
 62
   256
  6
BYLAYER
 49
-0.5
 62
   256
  6
BYLAYER
  0
ACDBPLACEHOLDER
  5
F
102
{ACAD_REACTORS
330
E
102
}
330
E
  0
SCALE
  5
48
102
{ACAD_REACTORS
330
47
102
}
330
47
100
AcDbScale
 70
     0
300
1:1
140
1.0
141
1.0
290
     1
  0
SCALE
  5
49
102
{ACAD_REACTORS
330
47
102
}
330
47
100
AcDbScale
 70
     0
300
1:2
140
1.0
141
2.0
290
     0
  0
SCALE
  5
4A
102
{ACAD_REACTORS
330
47
102
}
330
47
100
AcDbScale
 70
     0
300
1:4
140
1.0
141
4.0
290
     0
  0
SCALE
  5
4B
102
{ACAD_REACTORS
330
47
102
}
330
47
100
AcDbScale
 70
     0
300
1:5
140
1.0
141
5.0
290
     0
  0
SCALE
  5
4C
102
{ACAD_REACTORS
330
47
102
}
330
47
100
AcDbScale
 70
     0
300
1:8
140
1.0
141
8.0
290
     0
  0
SCALE
  5
4D
102
{ACAD_REACTORS
330
47
102
}
330
47
100
AcDbScale
 70
     0
300
1:10
140
1.0
141
10.0
290
     0
  0
SCALE
  5
4E
102
{ACAD_REACTORS
330
47
102
}
330
47
100
AcDbScale
 70
     0
300
1:16
140
1.0
141
16.0
290
     0
  0
SCALE
  5
4F
102
{ACAD_REACTORS
330
47
102
}
330
47
100
AcDbScale
 70
     0
300
1:20
140
1.0
141
20.0
290
     0
  0
SCALE
  5
50
102
{ACAD_REACTORS
330
47
102
}
330
47
100
AcDbScale
 70
     0
300
1:30
140
1.0
141
30.0
290
     0
  0
SCALE
  5
51
102
{ACAD_REACTORS
330
47
102
}
330
47
100
AcDbScale
 70
     0
300
1:40
140
1.0
141
40.0
290
     0
  0
SCALE
  5
52
102
{ACAD_REACTORS
330
47
102
}
330
47
100
AcDbScale
 70
     0
300
1:50
140
1.0
141
50.0
290
     0
  0
SCALE
  5
53
102
{ACAD_REACTORS
330
47
102
}
330
47
100
AcDbScale
 70
     0
300
1:100
140
1.0
141
100.0
290
     0
  0
SCALE
  5
54
102
{ACAD_REACTORS
330
47
102
}
330
47
100
AcDbScale
 70
     0
300
2:1
140
2.0
141
1.0
290
     0
  0
SCALE
  5
55
102
{ACAD_REACTORS
330
47
102
}
330
47
100
AcDbScale
 70
     0
300
4:1
140
4.0
141
1.0
290
     0
  0
SCALE
  5
56
102
{ACAD_REACTORS
330
47
102
}
330
47
100
AcDbScale
 70
     0
300
8:1
140
8.0
141
1.0
290
     0
  0
SCALE
  5
57
102
{ACAD_REACTORS
330
47
102
}
330
47
100
AcDbScale
 70
     0
300
10:1
140
10.0
141
1.0
290
     0
  0
SCALE
  5
58
102
{ACAD_REACTORS
330
47
102
}
330
47
100
AcDbScale
 70
     0
300
100:1
140
100.0
141
1.0
290
     0
  0
ENDSEC
  0
EOF
