  0
SECTION
  2
HEADER
  9
$ACADVER
  1
AC1015
  9
$ACADMAINTVER
 70
     6
  9
$DWGCODEPAGE
  3
ANSI_1252
  9
$INSBASE
 10
0.0
 20
0.0
 30
0.0
  9
$EXTMIN
 10
-11.5805371227
 20
-12.0
 30
0.0
  9
$EXTMAX
 10
11.5805371227
 20
12.0
 30
0.0
  9
$LIMMIN
 10
0.0
 20
0.0
  9
$LIMMAX
 10
420.0
 20
297.0
  9
$ORTHOMODE
 70
     0
  9
$REGENMODE
 70
     1
  9
$FILLMODE
 70
     1
  9
$QTEXTMODE
 70
     0
  9
$MIRRTEXT
 70
     1
  9
$LTSCALE
 40
1.0
  9
$ATTMODE
 70
     1
  9
$TEXTSIZE
 40
3.5
  9
$TRACEWID
 40
1.0
  9
$TEXTSTYLE
  7
Standard
  9
$CLAYER
  8
0
  9
$CELTYPE
  6
ByLayer
  9
$CECOLOR
 62
   256
  9
$CELTSCALE
 40
1.0
  9
$DISPSILH
 70
     0
  9
$DIMSCALE
 40
1.0
  9
$DIMASZ
 40
6.0
  9
$DIMEXO
 40
1.0
  9
$DIMDLI
 40
3.75
  9
$DIMRND
 40
0.0
  9
$DIMDLE
 40
0.0
  9
$DIMEXE
 40
1.0
  9
$DIMTP
 40
0.0
  9
$DIMTM
 40
0.0
  9
$DIMTXT
 40
3.5
  9
$DIMCEN
 40
2.5
  9
$DIMTSZ
 40
0.0
  9
$DIMTOL
 70
     0
  9
$DIMLIM
 70
     0
  9
$DIMTIH
 70
     1
  9
$DIMTOH
 70
     1
  9
$DIMSE1
 70
     0
  9
$DIMSE2
 70
     0
  9
$DIMTAD
 70
     1
  9
$DIMZIN
 70
     0
  9
$DIMBLK
  1

  9
$DIMASO
 70
     1
  9
$DIMSHO
 70
     1
  9
$DIMPOST
  1

  9
$DIMAPOST
  1

  9
$DIMALT
 70
     0
  9
$DIMALTD
 70
     3
  9
$DIMALTF
 40
0.0393700787
  9
$DIMLFAC
 40
1.0
  9
$DIMTOFL
 70
     1
  9
$DIMTVP
 40
0.0
  9
$DIMTIX
 70
     0
  9
$DIMSOXD
 70
     0
  9
$DIMSAH
 70
     0
  9
$DIMBLK1
  1

  9
$DIMBLK2
  1

  9
$DIMSTYLE
  2
ISO-25
  9
$DIMCLRD
 70
     0
  9
$DIMCLRE
 70
     0
  9
$DIMCLRT
 70
     0
  9
$DIMTFAC
 40
1.0
  9
$DIMGAP
 40
1.524
  9
$DIMJUST
 70
     0
  9
$DIMSD1
 70
     0
  9
$DIMSD2
 70
     0
  9
$DIMTOLJ
 70
     0
  9
$DIMTZIN
 70
     0
  9
$DIMALTZ
 70
     0
  9
$DIMALTTZ
 70
     0
  9
$DIMUPT
 70
     0
  9
$DIMDEC
 70
     2
  9
$DIMTDEC
 70
     2
  9
$DIMALTU
 70
     2
  9
$DIMALTTD
 70
     3
  9
$DIMTXSTY
  7
Standard
  9
$DIMAUNIT
 70
     0
  9
$DIMADEC
 70
     2
  9
$DIMALTRND
 40
0.0
  9
$DIMAZIN
 70
     0
  9
$DIMDSEP
 70
    44
  9
$DIMATFIT
 70
     3
  9
$DIMFRAC
 70
     0
  9
$DIMLDRBLK
  1

  9
$DIMLUNIT
 70
     2
  9
$DIMLWD
 70
    -2
  9
$DIMLWE
 70
    -2
  9
$DIMTMOVE
 70
     0
  9
$LUNITS
 70
     2
  9
$LUPREC
 70
     2
  9
$SKETCHINC
 40
1.0
  9
$FILLETRAD
 40
10.0
  9
$AUNITS
 70
     0
  9
$AUPREC
 70
     2
  9
$MENU
  1
.
  9
$ELEVATION
 40
0.0
  9
$PELEVATION
 40
0.0
  9
$THICKNESS
 40
0.0
  9
$LIMCHECK
 70
     0
  9
$CHAMFERA
 40
0.0
  9
$CHAMFERB
 40
0.0
  9
$CHAMFERC
 40
0.0
  9
$CHAMFERD
 40
0.0
  9
$SKPOLY
 70
     0
  9
$TDCREATE
 40
2457780.636859178
  9
$TDUCREATE
 40
2457780.845192512
  9
$TDUPDATE
 40
2457780.636883623
  9
$TDUUPDATE
 40
2457780.845216956
  9
$TDINDWG
 40
0.0000000116
  9
$TDUSRTIMER
 40
0.0000000116
  9
$USRTIMER
 70
     1
  9
$ANGBASE
 50
0.0
  9
$ANGDIR
 70
     0
  9
$PDMODE
 70
     0
  9
$PDSIZE
 40
-1.0
  9
$PLINEWID
 40
0.0
  9
$SPLFRAME
 70
     0
  9
$SPLINETYPE
 70
     6
  9
$SPLINESEGS
 70
     8
  9
$HANDSEED
  5
C8
  9
$SURFTAB1
 70
     6
  9
$SURFTAB2
 70
     6
  9
$SURFTYPE
 70
     6
  9
$SURFU
 70
     6
  9
$SURFV
 70
     6
  9
$UCSBASE
  2

  9
$UCSNAME
  2

  9
$UCSORG
 10
0.0
 20
0.0
 30
0.0
  9
$UCSXDIR
 10
1.0
 20
0.0
 30
0.0
  9
$UCSYDIR
 10
0.0
 20
1.0
 30
0.0
  9
$UCSORTHOREF
  2

  9
$UCSORTHOVIEW
 70
     0
  9
$UCSORGTOP
 10
0.0
 20
0.0
 30
0.0
  9
$UCSORGBOTTOM
 10
0.0
 20
0.0
 30
0.0
  9
$UCSORGLEFT
 10
0.0
 20
0.0
 30
0.0
  9
$UCSORGRIGHT
 10
0.0
 20
0.0
 30
0.0
  9
$UCSORGFRONT
 10
0.0
 20
0.0
 30
0.0
  9
$UCSORGBACK
 10
0.0
 20
0.0
 30
0.0
  9
$PUCSBASE
  2

  9
$PUCSNAME
  2

  9
$PUCSORG
 10
0.0
 20
0.0
 30
0.0
  9
$PUCSXDIR
 10
1.0
 20
0.0
 30
0.0
  9
$PUCSYDIR
 10
0.0
 20
1.0
 30
0.0
  9
$PUCSORTHOREF
  2

  9
$PUCSORTHOVIEW
 70
     0
  9
$PUCSORGTOP
 10
0.0
 20
0.0
 30
0.0
  9
$PUCSORGBOTTOM
 10
0.0
 20
0.0
 30
0.0
  9
$PUCSORGLEFT
 10
0.0
 20
0.0
 30
0.0
  9
$PUCSORGRIGHT
 10
0.0
 20
0.0
 30
0.0
  9
$PUCSORGFRONT
 10
0.0
 20
0.0
 30
0.0
  9
$PUCSORGBACK
 10
0.0
 20
0.0
 30
0.0
  9
$USERI1
 70
     0
  9
$USERI2
 70
     0
  9
$USERI3
 70
     0
  9
$USERI4
 70
     0
  9
$USERI5
 70
     0
  9
$USERR1
 40
0.0
  9
$USERR2
 40
0.0
  9
$USERR3
 40
0.0
  9
$USERR4
 40
0.0
  9
$USERR5
 40
0.0
  9
$WORLDVIEW
 70
     1
  9
$SHADEDGE
 70
     3
  9
$SHADEDIF
 70
    70
  9
$TILEMODE
 70
     1
  9
$MAXACTVP
 70
    64
  9
$PINSBASE
 10
0.0
 20
0.0
 30
0.0
  9
$PLIMCHECK
 70
     0
  9
$PEXTMIN
 10
1.0000000000E+20
 20
1.0000000000E+20
 30
1.0000000000E+20
  9
$PEXTMAX
 10
-1.0000000000E+20
 20
-1.0000000000E+20
 30
-1.0000000000E+20
  9
$PLIMMIN
 10
0.0
 20
0.0
  9
$PLIMMAX
 10
420.0
 20
297.0
  9
$UNITMODE
 70
     0
  9
$VISRETAIN
 70
     1
  9
$PLINEGEN
 70
     0
  9
$PSLTSCALE
 70
     1
  9
$TREEDEPTH
 70
  3020
  9
$CMLSTYLE
  2
Standard
  9
$CMLJUST
 70
     0
  9
$CMLSCALE
 40
20.0
  9
$PROXYGRAPHICS
 70
     1
  9
$MEASUREMENT
 70
     1
  9
$CELWEIGHT
370
    -1
  9
$ENDCAPS
280
     0
  9
$JOINSTYLE
280
     0
  9
$LWDISPLAY
290
     1
  9
$INSUNITS
 70
     4
  9
$HYPERLINKBASE
  1

  9
$STYLESHEET
  1

  9
$XEDIT
290
     1
  9
$CEPSNTYPE
380
     0
  9
$PSTYLEMODE
290
     1
  9
$FINGERPRINTGUID
  2
{3971573D-4A58-4B95-90CC-D0F17558B4C5}
  9
$VERSIONGUID
  2
{FAEB1C32-E019-11D5-929B-00C0DF256EC4}
  9
$EXTNAMES
290
     1
  9
$PSVPSCALE
 40
0.0
  9
$OLESTARTUP
290
     0
  0
ENDSEC
  0
SECTION
  2
CLASSES
  0
CLASS
  1
ACDBDICTIONARYWDFLT
  2
AcDbDictionaryWithDefault
  3
ObjectDBX Classes
 90
        0
280
     0
281
     0
  0
CLASS
  1
VISUALSTYLE
  2
AcDbVisualStyle
  3
ObjectDBX Classes
 90
     4095
280
     0
281
     0
  0
CLASS
  1
MATERIAL
  2
AcDbMaterial
  3
ObjectDBX Classes
 90
     1153
280
     0
281
     0
  0
CLASS
  1
SCALE
  2
AcDbScale
  3
ObjectDBX Classes
 90
     1153
280
     0
281
     0
  0
CLASS
  1
TABLESTYLE
  2
AcDbTableStyle
  3
ObjectDBX Classes
 90
     4095
280
     0
281
     0
  0
CLASS
  1
MLEADERSTYLE
  2
AcDbMLeaderStyle
  3
ACDB_MLEADERSTYLE_CLASS
 90
     4095
280
     0
281
     0
  0
CLASS
  1
SUN
  2
AcDbSun
  3
SCENEOE
 90
     1153
280
     0
281
     0
  0
CLASS
  1
ACDBPLACEHOLDER
  2
AcDbPlaceHolder
  3
ObjectDBX Classes
 90
        0
280
     0
281
     0
  0
CLASS
  1
LAYOUT
  2
AcDbLayout
  3
ObjectDBX Classes
 90
        0
280
     0
281
     0
  0
ENDSEC
  0
SECTION
  2
TABLES
  0
TABLE
  2
VPORT
  5
8
330
0
100
AcDbSymbolTable
 70
     1
  0
VPORT
  5
29
330
8
100
AcDbSymbolTableRecord
100
AcDbViewportTableRecord
  2
*Active
 70
     0
 10
0.0
 20
0.0
 11
1.0
 21
1.0
 12
0.0
 22
0.0
 13
0.0
 23
0.0
 14
10.0
 24
10.0
 15
10.0
 25
10.0
 16
0.0
 26
0.0
 36
1.0
 17
0.0
 27
0.0
 37
0.0
 40
24.48
 41
0.9650447602
 42
50.0
 43
0.0
 44
0.0
 50
0.0
 51
0.0
 71
     0
 72
   100
 73
     1
 74
     3
 75
     0
 76
     0
 77
     0
 78
     0
281
     0
 65
     1
110
0.0
120
0.0
130
0.0
111
1.0
121
0.0
131
0.0
112
0.0
122
1.0
132
0.0
 79
     0
146
0.0
  0
ENDTAB
  0
TABLE
  2
LTYPE
  5
5
330
0
100
AcDbSymbolTable
 70
     6
  0
LTYPE
  5
14
330
5
100
AcDbSymbolTableRecord
100
AcDbLinetypeTableRecord
  2
ByBlock
 70
     0
  3

 72
    65
 73
     0
 40
0.0
  0
LTYPE
  5
15
330
5
100
AcDbSymbolTableRecord
100
AcDbLinetypeTableRecord
  2
ByLayer
 70
     0
  3

 72
    65
 73
     0
 40
0.0
  0
LTYPE
  5
16
330
5
100
AcDbSymbolTableRecord
100
AcDbLinetypeTableRecord
  2
Continuous
 70
     0
  3
Solid line
 72
    65
 73
     0
 40
0.0
  0
LTYPE
  5
6E
330
5
100
AcDbSymbolTableRecord
100
AcDbLinetypeTableRecord
  2
HIDDEN
 70
     0
  3
Hidden __ __ __ __ __ __ __ __ __ __ __ __ __ __
 72
    65
 73
     2
 40
1.905
 49
1.27
 74
     0
 49
-0.635
 74
     0
  0
LTYPE
  5
6F
330
5
100
AcDbSymbolTableRecord
100
AcDbLinetypeTableRecord
  2
PHANTOM
 70
     0
  3
Phantom ______  __  __  ______  __  __  ______
 72
    65
 73
     6
 40
12.7
 49
6.35
 74
     0
 49
-1.27
 74
     0
 49
1.27
 74
     0
 49
-1.27
 74
     0
 49
1.27
 74
     0
 49
-1.27
 74
     0
  0
LTYPE
  5
70
330
5
100
AcDbSymbolTableRecord
100
AcDbLinetypeTableRecord
  2
CENTER
 70
     0
  3
Center ____ _ ____ _ ____ _ ____ _ ____ _ ____
 72
    65
 73
     4
 40
10.16
 49
6.35
 74
     0
 49
-1.27
 74
     0
 49
1.27
 74
     0
 49
-1.27
 74
     0
  0
LTYPE
  5
71
330
5
100
AcDbSymbolTableRecord
100
AcDbLinetypeTableRecord
  2
CENTERX2
 70
     0
  3
Center (2x) ________  __  ________  __  _____
 72
    65
 73
     4
 40
20.32
 49
12.7
 74
     0
 49
-2.54
 74
     0
 49
2.54
 74
     0
 49
-2.54
 74
     0
  0
LTYPE
  5
72
330
5
100
AcDbSymbolTableRecord
100
AcDbLinetypeTableRecord
  2
DOT2
 70
     0
  3
Dot (.5x) ........................................
 72
    65
 73
     2
 40
0.635
 49
0.0
 74
     0
 49
-0.635
 74
     0
  0
ENDTAB
  0
TABLE
  2
LAYER
  5
2
330
0
100
AcDbSymbolTable
 70
     1
  0
LAYER
  5
10
330
2
100
AcDbSymbolTableRecord
100
AcDbLayerTableRecord
  2
0
 70
     0
 62
     7
  6
Continuous
370
    -3
390
F
  0
ENDTAB
  0
TABLE
  2
STYLE
  5
3
330
0
100
AcDbSymbolTable
 70
     2
  0
STYLE
  5
11
330
3
100
AcDbSymbolTableRecord
100
AcDbTextStyleTableRecord
  2
Standard
 70
     0
 40
0.0
 41
1.0
 50
0.0
 71
     0
 42
3.5
  3
txt
  4

  0
STYLE
  5
C5
330
3
100
AcDbSymbolTableRecord
100
AcDbTextStyleTableRecord
  2
SLDTEXTSTYLE0
 70
     0
 40
0.0
 41
0.7
 50
0.0
 71
     0
 42
3.5
  3
TXT
  4

  0
ENDTAB
  0
TABLE
  2
VIEW
  5
6
330
0
100
AcDbSymbolTable
 70
     0
  0
ENDTAB
  0
TABLE
  2
UCS
  5
7
330
0
100
AcDbSymbolTable
 70
     0
  0
ENDTAB
  0
TABLE
  2
APPID
  5
9
330
0
100
AcDbSymbolTable
 70
     1
  0
APPID
  5
12
330
9
100
AcDbSymbolTableRecord
100
AcDbRegAppTableRecord
  2
ACAD
 70
     0
  0
ENDTAB
  0
TABLE
  2
DIMSTYLE
  5
A
330
0
100
AcDbSymbolTable
 70
     1
100
AcDbDimStyleTable
  0
DIMSTYLE
105
27
330
A
100
AcDbSymbolTableRecord
100
AcDbDimStyleTableRecord
  2
ISO-25
 70
     0
 41
2.5
 42
0.625
 43
3.75
 44
1.25
 73
     0
 74
     0
 77
     1
 78
     8
140
2.5
141
2.5
143
0.0393700787
147
0.625
171
     3
172
     1
178
     0
271
     2
272
     2
274
     3
278
    44
283
     0
284
     8
340
11
  0
ENDTAB
  0
TABLE
  2
BLOCK_RECORD
  5
1
330
0
100
AcDbSymbolTable
 70
     1
  0
BLOCK_RECORD
  5
1F
330
1
100
AcDbSymbolTableRecord
100
AcDbBlockTableRecord
  2
*Model_Space
340
22
  0
BLOCK_RECORD
  5
1B
330
1
100
AcDbSymbolTableRecord
100
AcDbBlockTableRecord
  2
*Paper_Space
340
1E
  0
BLOCK_RECORD
  5
23
330
1
100
AcDbSymbolTableRecord
100
AcDbBlockTableRecord
  2
*Paper_Space0
340
26
  0
ENDTAB
  0
ENDSEC
  0
SECTION
  2
BLOCKS
  0
BLOCK
  5
20
330
1F
100
AcDbEntity
  8
0
100
AcDbBlockBegin
  2
*Model_Space
 70
     0
 10
0.0
 20
0.0
 30
0.0
  3
*Model_Space
  1

  0
ENDBLK
  5
21
330
1F
100
AcDbEntity
  8
0
100
AcDbBlockEnd
  0
BLOCK
  5
1C
330
1B
100
AcDbEntity
 67
     1
  8
0
100
AcDbBlockBegin
  2
*Paper_Space
 70
     0
 10
0.0
 20
0.0
 30
0.0
  3
*Paper_Space
  1

  0
ENDBLK
  5
1D
330
1B
100
AcDbEntity
 67
     1
  8
0
100
AcDbBlockEnd
  0
BLOCK
  5
24
330
23
100
AcDbEntity
  8
0
100
AcDbBlockBegin
  2
*Paper_Space0
 70
     0
 10
0.0
 20
0.0
 30
0.0
  3
*Paper_Space0
  1

  0
ENDBLK
  5
25
330
23
100
AcDbEntity
  8
0
100
AcDbBlockEnd
  0
ENDSEC
  0
SECTION
  2
ENTITIES
  0
LINE
  5
73
330
1F
100
AcDbEntity
  8
0
  6
Continuous
 62
     7
370
    25
100
AcDbLine
 10
1.9
 20
-1.4662878299
 30
0.0
 11
1.9
 21
1.4662878299
 31
0.0
  0
ARC
  5
74
330
1F
100
AcDbEntity
  8
0
  6
Continuous
 62
     7
370
    25
100
AcDbCircle
 10
0.0
 20
0.0
 30
0.0
 40
2.400000000000001
100
AcDbArc
 50
37.6584620062
 51
322.3415379938
  0
SPLINE
  5
75
330
1F
100
AcDbEntity
  8
0
  6
Continuous
 62
     7
370
    25
100
AcDbSpline
210
0.0
220
0.0
230
1.0
 70
     8
 71
     3
 72
    15
 73
    11
 74
     0
 42
0.000000001
 43
0.00000001
 40
0.0
 40
0.0
 40
0.0
 40
0.0
 40
0.0822462370577122
 40
0.1454481652958814
 40
0.2233693144110646
 40
0.3160096886639152
 40
0.4233692905626573
 40
0.5454481217082514
 40
0.6822461831848761
 40
0.7549359041833417
 40
0.7549359041833417
 40
0.7549359041833417
 40
0.7549359041833417
 10
-9.389737603040636
 20
-1.35244884055568
 30
0.0
 10
-9.489935733793946
 20
-1.38182914323365
 30
0.0
 10
-9.661641194714118
 20
-1.450519306163206
 30
0.0
 10
-9.913453766580137
 20
-1.580934943297832
 30
0.0
 10
-10.16577751264882
 20
-1.73724348092497
 30
0.0
 10
-10.45066205409634
 20
-1.945467857707164
 30
0.0
 10
-10.7613203801653
 20
-2.211410131988734
 30
0.0
 10
-11.09029633239073
 20
-2.540051635960916
 30
0.0
 10
-11.36436869951004
 20
-2.859614168666521
 30
0.0
 10
-11.52587426293478
 20
-3.070743844727071
 30
0.0
 10
-11.58053712272539
 20
-3.145021454486304
 30
0.0
  0
ARC
  5
76
330
1F
100
AcDbEntity
  8
0
  6
Continuous
 62
     7
370
    25
100
AcDbCircle
 10
0.0
 20
0.0
 30
0.0
 40
12.0
100
AcDbArc
 50
195.1938219041
 51
200.8061780959
  0
SPLINE
  5
77
330
1F
100
AcDbEntity
  8
0
  6
Continuous
 62
     7
370
    25
100
AcDbSpline
210
0.0
220
0.0
230
1.0
 70
     8
 71
     3
 72
    15
 73
    11
 74
     0
 42
0.000000001
 43
0.00000001
 40
0.2450640958166579
 40
0.2450640958166579
 40
0.2450640958166579
 40
0.2450640958166579
 40
0.3177538168151239
 40
0.4545518782917485
 40
0.5766307094373426
 40
0.6839903113360847
 40
0.7766306855889353
 40
0.8545518347041184
 40
0.9177537629422878
 40
1.0
 40
1.0
 40
1.0
 40
1.0
 10
-11.21744856536535
 20
-4.262493130010046
 30
0.0
 10
-11.1295660992416
 20
-4.290454955773765
 30
0.0
 10
-10.87480644383521
 20
-4.366331863379385
 30
0.0
 10
-10.46524309723753
 20
-4.463767687650108
 30
0.0
 10
-10.00592533182041
 20
-4.536277036343572
 30
0.0
 10
-9.598280519802733
 20
-4.568828473194896
 30
0.0
 10
-9.2454128664966
 20
-4.569834600585871
 30
0.0
 10
-8.949402814618054
 20
-4.547978687149763
 30
0.0
 10
-8.66902577640512
 20
-4.505475437839232
 30
0.0
 10
-8.489738075746159
 20
-4.460121009328672
 30
0.0
 10
-8.391406776540126
 20
-4.424995189930965
 30
0.0
  0
LINE
  5
78
330
1F
100
AcDbEntity
  8
0
  6
Continuous
 62
     7
370
    25
100
AcDbLine
 10
-8.3914067765
 20
-4.4249951899
 30
0.0
 11
-8.3340268697
 21
-4.3934296514
 31
0.0
  0
SPLINE
  5
79
330
1F
100
AcDbEntity
  8
0
  6
Continuous
 62
     7
370
    25
100
AcDbSpline
210
0.0
220
0.0
230
1.0
 70
     8
 71
     3
 72
    15
 73
    11
 74
     0
 42
0.000000001
 43
0.00000001
 40
0.0
 40
0.0
 40
0.0
 40
0.0
 40
0.2001255096455307
 40
0.2943483555884844
 40
0.3861679858723107
 40
0.4772313955314145
 40
0.5697453566694904
 40
0.6664498717020838
 40
0.7701126166497942
 40
0.996445907977069
 40
0.996445907977069
 40
0.996445907977069
 40
0.996445907977069
 10
-8.334026869700608
 20
-4.393429651430776
 30
0.0
 10
-8.203818768537031
 20
-4.291872831533422
 30
0.0
 10
-8.00100016121705
 20
-4.15613827271015
 30
0.0
 10
-7.713136230934952
 20
-4.018075800177284
 30
0.0
 10
-7.497237744126563
 20
-3.941150433758963
 30
0.0
 10
-7.274881070055663
 20
-3.89099664886523
 30
0.0
 10
-7.043385927800214
 20
-3.872311793811256
 30
0.0
 10
-6.801232574008094
 20
-3.893815207837773
 30
0.0
 10
-6.461156050757646
 20
-3.996065263341593
 30
0.0
 10
-6.238148644467717
 20
-4.169603291759124
 30
0.0
 10
-6.128975518147613
 20
-4.322691186974181
 30
0.0
  0
ARC
  5
7A
330
1F
100
AcDbEntity
  8
0
  6
Continuous
 62
     7
370
    25
100
AcDbCircle
 10
0.0
 20
0.0
 30
0.0
 40
7.5
100
AcDbArc
 50
215.1948471754
 51
216.8051528219
  0
SPLINE
  5
7B
330
1F
100
AcDbEntity
  8
0
  6
Continuous
 62
     7
370
    25
100
AcDbSpline
210
0.0
220
0.0
230
1.0
 70
     8
 71
     3
 72
    15
 73
    11
 74
     0
 42
0.000000001
 43
0.00000001
 40
0.0035540918828742
 40
0.0035540918828742
 40
0.0035540918828742
 40
0.0035540918828742
 40
0.2298873833502056
 40
0.3335501282979161
 40
0.4302546433305094
 40
0.5227686044685853
 40
0.6138320141276893
 40
0.7056516444115155
 40
0.7998744903544692
 40
1.0
 40
1.0
 40
1.0
 40
1.0
 10
-6.005081214726778
 20
-4.493217066257235
 30
0.0
 10
-5.893222325652487
 20
-4.644353640757849
 30
0.0
 10
-5.797090931231878
 20
-4.910072487752329
 30
0.0
 10
-5.804934774728347
 20
-5.265101486171664
 30
0.0
 10
-5.859313314262494
 20
-5.502047931609657
 30
0.0
 10
-5.948619600489788
 20
-5.716438957393263
 30
0.0
 10
-6.06503067553044
 20
-5.91241434934572
 30
0.0
 10
-6.20490734801461
 20
-6.09397476656132
 30
0.0
 10
-6.425167408697547
 20
-6.325085982964353
 30
0.0
 10
-6.616933041790205
 20
-6.47603365568155
 30
0.0
 10
-6.753755833192638
 20
-6.568486135524629
 30
0.0
  0
LINE
  5
7C
330
1F
100
AcDbEntity
  8
0
  6
Continuous
 62
     7
370
    25
100
AcDbLine
 10
-6.7537558332
 20
-6.5684861355
 30
0.0
 11
-6.8015078106
 21
-6.613303382
 31
0.0
  0
SPLINE
  5
7D
330
1F
100
AcDbEntity
  8
0
  6
Continuous
 62
     7
370
    25
100
AcDbSpline
210
0.0
220
0.0
230
1.0
 70
     8
 71
     3
 72
    15
 73
    11
 74
     0
 42
0.000000001
 43
0.00000001
 40
0.0
 40
0.0
 40
0.0
 40
0.0
 40
0.0822462370577122
 40
0.1454481652958814
 40
0.2233693144110646
 40
0.3160096886639152
 40
0.4233692905626573
 40
0.5454481217082514
 40
0.6822461831848761
 40
0.7549359041833428
 40
0.7549359041833428
 40
0.7549359041833428
 40
0.7549359041833428
 10
-6.801507810622671
 20
-6.613303381995608
 30
0.0
 10
-6.8653004925847
 20
-6.695967529726031
 30
0.0
 10
-6.963838063748542
 20
-6.852464976549386
 30
0.0
 10
-7.090902325609355
 20
-7.105985159408219
 30
0.0
 10
-7.203160671038636
 20
-7.380753599456835
 30
0.0
 10
-7.311245888664029
 20
-7.716661590985718
 30
0.0
 10
-7.406256807114063
 20
-8.114413792967433
 30
0.0
 10
-7.47923331387905
 20
-8.57365756781485
 30
0.0
 10
-7.513128372657553
 20
-8.993284782992806
 30
0.0
 10
-7.519690208244588
 20
-9.259022867286914
 30
0.0
 10
-7.520254107184316
 20
-9.351244738716739
 30
0.0
  0
ARC
  5
7E
330
1F
100
AcDbEntity
  8
0
  6
Continuous
 62
     7
370
    25
100
AcDbCircle
 10
0.0
 20
0.0
 30
0.0
 40
12.0
100
AcDbArc
 50
231.1938219041
 51
236.8061780959
  0
SPLINE
  5
7F
330
1F
100
AcDbEntity
  8
0
  6
Continuous
 62
     7
370
    25
100
AcDbSpline
210
0.0
220
0.0
230
1.0
 70
     8
 71
     3
 72
    15
 73
    11
 74
     0
 42
0.000000001
 43
0.00000001
 40
0.2450640958166583
 40
0.2450640958166583
 40
0.2450640958166583
 40
0.2450640958166583
 40
0.3177538168151239
 40
0.4545518782917485
 40
0.5766307094373426
 40
0.6839903113360847
 40
0.7766306855889353
 40
0.8545518347041184
 40
0.9177537629422878
 40
1.0
 40
1.0
 40
1.0
 40
1.0
 10
-6.569675923089546
 20
-10.04188021565571
 30
0.0
 10
-6.482141965676765
 20
-10.01284579036967
 30
0.0
 10
-6.231437747691746
 20
-9.924487529776249
 30
0.0
 10
-5.842822699469859
 20
-9.76257947246253
 30
0.0
 10
-5.428606895613732
 20
-9.551260559178484
 30
0.0
 10
-5.07968206050051
 20
-9.337987616104998
 30
0.0
 10
-4.793614745368299
 20
-9.131391187638403
 30
0.0
 10
-4.56698416648587
 20
-8.939719039216465
 30
0.0
 10
-4.365137160858334
 20
-8.740531700065086
 30
0.0
 10
-4.246749028347486
 20
-8.598456530265114
 30
0.0
 10
-4.187843774827501
 20
-8.51224145791896
 30
0.0
  0
LINE
  5
80
330
1F
100
AcDbEntity
  8
0
  6
Continuous
 62
     7
370
    25
100
AcDbLine
 10
-4.1878437748
 20
-8.5122414579
 30
0.0
 11
-4.1599762131
 21
-8.4529773378
 31
0.0
  0
SPLINE
  5
81
330
1F
100
AcDbEntity
  8
0
  6
Continuous
 62
     7
370
    25
100
AcDbSpline
210
0.0
220
0.0
230
1.0
 70
     8
 71
     3
 72
    15
 73
    11
 74
     0
 42
0.000000001
 43
0.00000001
 40
0.0
 40
0.0
 40
0.0
 40
0.0
 40
0.2001255096455307
 40
0.2943483555884844
 40
0.3861679858723107
 40
0.4772313955314145
 40
0.5697453566694904
 40
0.6664498717020838
 40
0.7701126166497942
 40
0.9964459079772967
 40
0.9964459079772967
 40
0.9964459079772967
 40
0.9964459079772967
 10
-4.15997621306976
 20
-8.452977337817524
 30
0.0
 10
-4.114329247428521
 20
-8.294281743032933
 30
0.0
 10
-4.030028319233941
 20
-8.065256391947734
 30
0.0
 10
-3.878292592818014
 20
-7.784359332496457
 30
0.0
 10
-3.748842643838075
 20
-7.595223457227283
 30
0.0
 10
-3.59843197080921
 20
-7.423950219148348
 30
0.0
 10
-3.422131148851256
 20
-7.27276442327715
 30
0.0
 10
-3.213585580749815
 20
-7.147826880509514
 30
0.0
 10
-2.878356819380846
 20
-7.030656948070312
 30
0.0
 10
-2.595936944004867
 20
-7.039971697661273
 30
0.0
 10
-2.417631222370805
 20
-7.099652052925895
 30
0.0
  0
ARC
  5
82
330
1F
100
AcDbEntity
  8
0
  6
Continuous
 62
     7
370
    25
100
AcDbCircle
 10
0.0
 20
0.0
 30
0.0
 40
7.500000000000002
100
AcDbArc
 50
251.1948471754
 51
252.8051528219
  0
SPLINE
  5
83
330
1F
100
AcDbEntity
  8
0
  6
Continuous
 62
     7
370
    25
100
AcDbSpline
210
0.0
220
0.0
230
1.0
 70
     8
 71
     3
 72
    15
 73
    11
 74
     0
 42
0.000000001
 43
0.00000001
 40
0.0035540918828547
 40
0.0035540918828547
 40
0.0035540918828547
 40
0.0035540918828547
 40
0.2298873833502056
 40
0.3335501282979161
 40
0.4302546433305094
 40
0.5227686044685853
 40
0.6138320141276893
 40
0.7056516444115155
 40
0.7998744903544692
 40
1.0
 40
1.0
 40
1.0
 40
1.0
 10
-2.217166028420845
 20
-7.164787142852623
 30
0.0
 10
-2.037834436614358
 20
-7.221310194759543
 30
0.0
 10
-1.803876885315589
 20
-7.37977664178105
 30
0.0
 10
-1.601541878598386
 20
-7.671611630526735
 30
0.0
 10
-1.506261414999222
 20
-7.895268235222181
 30
0.0
 10
-1.452495835082157
 20
-8.12120713650401
 30
0.0
 10
-1.431482927921608
 20
-8.348179272185245
 30
0.0
 10
-1.43792699743852
 20
-8.577282180444412
 30
0.0
 10
-1.480277365071993
 20
-8.893720697443607
 30
0.0
 10
-1.546694205289982
 20
-9.12855694096156
 30
0.0
 10
-1.603043964562738
 20
-9.28377498729056
 30
0.0
  0
LINE
  5
84
330
1F
100
AcDbEntity
  8
0
  6
Continuous
 62
     7
370
    25
100
AcDbLine
 10
-1.6030439646
 20
-9.2837749873
 30
0.0
 11
-1.6153332093
 21
-9.3481008094
 31
0.0
  0
SPLINE
  5
85
330
1F
100
AcDbEntity
  8
0
  6
Continuous
 62
     7
370
    25
100
AcDbSpline
210
0.0
220
0.0
230
1.0
 70
     8
 71
     3
 72
    15
 73
    11
 74
     0
 42
0.000000001
 43
0.00000001
 40
0.0
 40
0.0
 40
0.0
 40
0.0
 40
0.0822462370577122
 40
0.1454481652958814
 40
0.2233693144110646
 40
0.3160096886639152
 40
0.4233692905626573
 40
0.5454481217082514
 40
0.6822461831848761
 40
0.754935904183342
 40
0.754935904183342
 40
0.754935904183342
 40
0.754935904183342
 10
-1.615333209294647
 20
-9.34810080942785
 30
0.0
 10
-1.618353806189413
 20
-9.452473907428748
 30
0.0
 10
-1.606085484581198
 20
-9.637001932611957
 30
0.0
 10
-1.559867207161388
 20
-9.916790568177012
 30
0.0
 10
-1.489181279518102
 20
-10.20506670558432
 30
0.0
 10
-1.379182293869894
 20
-10.54035287618857
 30
0.0
 10
-1.222254863155432
 20
-10.91798718381353
 30
0.0
 10
-1.011357379255983
 20
-11.33241771666627
 30
0.0
 10
-0.7921283692909666
 20
-11.69182628072305
 30
0.0
 10
-0.6412400788746384
 20
-11.91066985715566
 30
0.0
 10
-0.5874896267347248
 20
-11.985610369876
 30
0.0
  0
ARC
  5
86
330
1F
100
AcDbEntity
  8
0
  6
Continuous
 62
     7
370
    25
100
AcDbCircle
 10
0.0
 20
0.0
 30
0.0
 40
12.0
100
AcDbArc
 50
267.1938219041
 51
272.8061780959
  0
SPLINE
  5
87
330
1F
100
AcDbEntity
  8
0
  6
Continuous
 62
     7
370
    25
100
AcDbSpline
210
0.0
220
0.0
230
1.0
 70
     8
 71
     3
 72
    15
 73
    11
 74
     0
 42
0.000000001
 43
0.00000001
 40
0.2450640958166587
 40
0.2450640958166587
 40
0.2450640958166587
 40
0.2450640958166587
 40
0.3177538168151239
 40
0.4545518782917485
 40
0.5766307094373426
 40
0.6839903113360847
 40
0.7766306855889353
 40
0.8545518347041184
 40
0.9177537629422878
 40
1.0
 40
1.0
 40
1.0
 40
1.0
 10
0.5874896267347294
 20
-11.985610369876
 30
0.0
 10
0.6412400788746424
 20
-11.91066985715566
 30
0.0
 10
0.79212836929097
 20
-11.69182628072305
 30
0.0
 10
1.011357379255986
 20
-11.33241771666627
 30
0.0
 10
1.222254863155434
 20
-10.91798718381352
 30
0.0
 10
1.379182293869896
 20
-10.54035287618858
 30
0.0
 10
1.489181279518105
 20
-10.20506670558431
 30
0.0
 10
1.55986720716139
 20
-9.916790568177012
 30
0.0
 10
1.6060854845812
 20
-9.637001932611955
 30
0.0
 10
1.618353806189415
 20
-9.45247390742875
 30
0.0
 10
1.615333209294649
 20
-9.34810080942785
 30
0.0
  0
LINE
  5
88
330
1F
100
AcDbEntity
  8
0
  6
Continuous
 62
     7
370
    25
100
AcDbLine
 10
1.6153332093
 20
-9.3481008094
 30
0.0
 11
1.6030439646
 21
-9.2837749873
 31
0.0
  0
SPLINE
  5
89
330
1F
100
AcDbEntity
  8
0
  6
Continuous
 62
     7
370
    25
100
AcDbSpline
210
0.0
220
0.0
230
1.0
 70
     8
 71
     3
 72
    15
 73
    11
 74
     0
 42
0.000000001
 43
0.00000001
 40
0.0
 40
0.0
 40
0.0
 40
0.0
 40
0.2001255096455307
 40
0.2943483555884844
 40
0.3861679858723107
 40
0.4772313955314145
 40
0.5697453566694904
 40
0.6664498717020838
 40
0.7701126166497942
 40
0.9964459080899871
 40
0.9964459080899871
 40
0.9964459080899871
 40
0.9964459080899871
 10
1.603043964562741
 20
-9.28377498729056
 30
0.0
 10
1.546694205289985
 20
-9.128556940961563
 30
0.0
 10
1.480277365071995
 20
-8.89372069744361
 30
0.0
 10
1.437926997438522
 20
-8.57728218044441
 30
0.0
 10
1.431482927921611
 20
-8.348179272185245
 30
0.0
 10
1.452495835082159
 20
-8.12120713650401
 30
0.0
 10
1.506261414999224
 20
-7.895268235222181
 30
0.0
 10
1.601541878598387
 20
-7.671611630526733
 30
0.0
 10
1.803876885302713
 20
-7.379776641799625
 30
0.0
 10
2.037834436575851
 20
-7.221310194785625
 30
0.0
 10
2.217166028356292
 20
-7.164787142872968
 30
0.0
  0
ARC
  5
8A
330
1F
100
AcDbEntity
  8
0
  6
Continuous
 62
     7
370
    25
100
AcDbCircle
 10
0.0
 20
0.0
 30
0.0
 40
7.5
100
AcDbArc
 50
287.1948471776
 51
288.8051528219
  0
SPLINE
  5
8B
330
1F
100
AcDbEntity
  8
0
  6
Continuous
 62
     7
370
    25
100
AcDbSpline
210
0.0
220
0.0
230
1.0
 70
     8
 71
     3
 72
    15
 73
    11
 74
     0
 42
0.000000001
 43
0.00000001
 40
0.0035540918829085
 40
0.0035540918829085
 40
0.0035540918829085
 40
0.0035540918829085
 40
0.2298873833502056
 40
0.3335501282979161
 40
0.4302546433305094
 40
0.5227686044685853
 40
0.6138320141276893
 40
0.7056516444115155
 40
0.7998744903544692
 40
1.0
 40
1.0
 40
1.0
 40
1.0
 10
2.417631222040313
 20
-7.099652053036514
 30
0.0
 10
2.595936943765485
 20
-7.039971697669205
 30
0.0
 10
2.878356819270918
 20
-7.030656948031964
 30
0.0
 10
3.213585580749715
 20
-7.147826880509561
 30
0.0
 10
3.422131148851151
 20
-7.272764423277199
 30
0.0
 10
3.598431970809104
 20
-7.4239502191484
 30
0.0
 10
3.748842643837967
 20
-7.595223457227336
 30
0.0
 10
3.878292592817904
 20
-7.784359332496514
 30
0.0
 10
4.030028319233825
 20
-8.06525639194779
 30
0.0
 10
4.114329247428402
 20
-8.294281743032988
 30
0.0
 10
4.15997621306964
 20
-8.452977337817584
 30
0.0
  0
LINE
  5
8C
330
1F
100
AcDbEntity
  8
0
  6
Continuous
 62
     7
370
    25
100
AcDbLine
 10
4.1599762131
 20
-8.4529773378
 30
0.0
 11
4.1878437748
 21
-8.5122414579
 31
0.0
  0
SPLINE
  5
8D
330
1F
100
AcDbEntity
  8
0
  6
Continuous
 62
     7
370
    25
100
AcDbSpline
210
0.0
220
0.0
230
1.0
 70
     8
 71
     3
 72
    15
 73
    11
 74
     0
 42
0.000000001
 43
0.00000001
 40
0.0
 40
0.0
 40
0.0
 40
0.0
 40
0.0822462370577122
 40
0.1454481652958814
 40
0.2233693144110646
 40
0.3160096886639152
 40
0.4233692905626573
 40
0.5454481217082514
 40
0.6822461831848761
 40
0.7549359041833422
 40
0.7549359041833422
 40
0.7549359041833422
 40
0.7549359041833422
 10
4.187843774827379
 20
-8.51224145791902
 30
0.0
 10
4.246749028347363
 20
-8.598456530265173
 30
0.0
 10
4.365137160858209
 20
-8.74053170006515
 30
0.0
 10
4.566984166485743
 20
-8.93971903921653
 30
0.0
 10
4.793614745368172
 20
-9.131391187638476
 30
0.0
 10
5.079682060500375
 20
-9.337987616105067
 30
0.0
 10
5.428606895613598
 20
-9.551260559178564
 30
0.0
 10
5.842822699469721
 20
-9.762579472462615
 30
0.0
 10
6.231437747691607
 20
-9.924487529776338
 30
0.0
 10
6.482141965676624
 20
-10.01284579036977
 30
0.0
 10
6.569675923089406
 20
-10.0418802156558
 30
0.0
  0
ARC
  5
8E
330
1F
100
AcDbEntity
  8
0
  6
Continuous
 62
     7
370
    25
100
AcDbCircle
 10
0.0
 20
0.0
 30
0.0
 40
12.0
100
AcDbArc
 50
303.1938219041
 51
308.8061780959
  0
SPLINE
  5
8F
330
1F
100
AcDbEntity
  8
0
  6
Continuous
 62
     7
370
    25
100
AcDbSpline
210
0.0
220
0.0
230
1.0
 70
     8
 71
     3
 72
    15
 73
    11
 74
     0
 42
0.000000001
 43
0.00000001
 40
0.2450640958166587
 40
0.2450640958166587
 40
0.2450640958166587
 40
0.2450640958166587
 40
0.3177538168151239
 40
0.4545518782917485
 40
0.5766307094373426
 40
0.6839903113360847
 40
0.7766306855889353
 40
0.8545518347041184
 40
0.9177537629422878
 40
1.0
 40
1.0
 40
1.0
 40
1.0
 10
7.520254107184186
 20
-9.351244738716842
 30
0.0
 10
7.519690208244459
 20
-9.259022867287019
 30
0.0
 10
7.513128372657427
 20
-8.993284782992909
 30
0.0
 10
7.479233313878927
 20
-8.573657567814957
 30
0.0
 10
7.406256807113946
 20
-8.114413792967536
 30
0.0
 10
7.311245888663923
 20
-7.716661590985827
 30
0.0
 10
7.203160671038528
 20
-7.380753599456932
 30
0.0
 10
7.090902325609254
 20
-7.10598515940832
 30
0.0
 10
6.963838063748444
 20
-6.852464976549483
 30
0.0
 10
6.865300492584606
 20
-6.695967529726132
 30
0.0
 10
6.801507810622578
 20
-6.613303381995705
 30
0.0
  0
LINE
  5
90
330
1F
100
AcDbEntity
  8
0
  6
Continuous
 62
     7
370
    25
100
AcDbLine
 10
6.8015078106
 20
-6.613303382
 30
0.0
 11
6.7537558332
 21
-6.5684861355
 31
0.0
  0
SPLINE
  5
91
330
1F
100
AcDbEntity
  8
0
  6
Continuous
 62
     7
370
    25
100
AcDbSpline
210
0.0
220
0.0
230
1.0
 70
     8
 71
     3
 72
    15
 73
    11
 74
     0
 42
0.000000001
 43
0.00000001
 40
0.0
 40
0.0
 40
0.0
 40
0.0
 40
0.2001255096455307
 40
0.2943483555884844
 40
0.3861679858723107
 40
0.4772313955314145
 40
0.5697453566694904
 40
0.6664498717020838
 40
0.7701126166497942
 40
0.996445907977157
 40
0.996445907977157
 40
0.996445907977157
 40
0.996445907977157
 10
6.753755833192544
 20
-6.568486135524726
 30
0.0
 10
6.616933041790115
 20
-6.476033655681646
 30
0.0
 10
6.425167408697459
 20
-6.325085982964448
 30
0.0
 10
6.204907348014523
 20
-6.093974766561407
 30
0.0
 10
6.065030675530357
 20
-5.912414349345806
 30
0.0
 10
5.948619600489708
 20
-5.716438957393348
 30
0.0
 10
5.859313314262415
 20
-5.502047931609741
 30
0.0
 10
5.804934774728271
 20
-5.265101486171746
 30
0.0
 10
5.797090931234382
 20
-4.910072487868872
 30
0.0
 10
5.893222325570873
 20
-4.644353640983345
 30
0.0
 10
6.005081214519187
 20
-4.493217066537716
 30
0.0
  0
ARC
  5
92
330
1F
100
AcDbEntity
  8
0
  6
Continuous
 62
     7
370
    25
100
AcDbCircle
 10
0.0
 20
0.0
 30
0.0
 40
7.5
100
AcDbArc
 50
323.1948471754
 51
324.8051528219
  0
SPLINE
  5
93
330
1F
100
AcDbEntity
  8
0
  6
Continuous
 62
     7
370
    25
100
AcDbSpline
210
0.0
220
0.0
230
1.0
 70
     8
 71
     3
 72
    15
 73
    11
 74
     0
 42
0.000000001
 43
0.00000001
 40
0.0035540918827184
 40
0.0035540918827184
 40
0.0035540918827184
 40
0.0035540918827184
 40
0.2298873833502056
 40
0.3335501282979161
 40
0.4302546433305094
 40
0.5227686044685853
 40
0.6138320141276893
 40
0.7056516444115155
 40
0.7998744903544692
 40
1.0
 40
1.0
 40
1.0
 40
1.0
 10
6.128975517944657
 20
-4.32269118725878
 30
0.0
 10
6.238148644278154
 20
-4.169603291906679
 30
0.0
 10
6.461156050645844
 20
-3.996065263375282
 30
0.0
 10
6.801232574008043
 20
-3.893815207837868
 30
0.0
 10
7.043385927800163
 20
-3.872311793811353
 30
0.0
 10
7.27488107005561
 20
-3.890996648865331
 30
0.0
 10
7.49723774412651
 20
-3.941150433759065
 30
0.0
 10
7.713136230934901
 20
-4.018075800177391
 30
0.0
 10
8.001000161216991
 20
-4.156138272710259
 30
0.0
 10
8.203818768536971
 20
-4.291872831533534
 30
0.0
 10
8.33402686970055
 20
-4.393429651430891
 30
0.0
  0
LINE
  5
94
330
1F
100
AcDbEntity
  8
0
  6
Continuous
 62
     7
370
    25
100
AcDbLine
 10
8.3340268697
 20
-4.3934296514
 30
0.0
 11
8.3914067765
 21
-4.4249951899
 31
0.0
  0
SPLINE
  5
95
330
1F
100
AcDbEntity
  8
0
  6
Continuous
 62
     7
370
    25
100
AcDbSpline
210
0.0
220
0.0
230
1.0
 70
     8
 71
     3
 72
    15
 73
    11
 74
     0
 42
0.000000001
 43
0.00000001
 40
0.0
 40
0.0
 40
0.0
 40
0.0
 40
0.0822462370577122
 40
0.1454481652958814
 40
0.2233693144110646
 40
0.3160096886639152
 40
0.4233692905626573
 40
0.5454481217082514
 40
0.6822461831848761
 40
0.754935904183342
 40
0.754935904183342
 40
0.754935904183342
 40
0.754935904183342
 10
8.391406776540068
 20
-4.424995189931082
 30
0.0
 10
8.489738075746097
 20
-4.460121009328789
 30
0.0
 10
8.66902577640506
 20
-4.505475437839353
 30
0.0
 10
8.949402814617992
 20
-4.547978687149888
 30
0.0
 10
9.245412866496544
 20
-4.569834600586
 30
0.0
 10
9.598280519802667
 20
-4.568828473195027
 30
0.0
 10
10.00592533182036
 20
-4.536277036343711
 30
0.0
 10
10.46524309723748
 20
-4.463767687650253
 30
0.0
 10
10.87480644383515
 20
-4.366331863379534
 30
0.0
 10
11.12956609924154
 20
-4.290454955773917
 30
0.0
 10
11.21744856536529
 20
-4.2624931300102
 30
0.0
  0
ARC
  5
96
330
1F
100
AcDbEntity
  8
0
  6
Continuous
 62
     7
370
    25
100
AcDbCircle
 10
0.0
 20
0.0
 30
0.0
 40
12.0
100
AcDbArc
 50
339.1938219041
 51
344.8061780959
  0
SPLINE
  5
97
330
1F
100
AcDbEntity
  8
0
  6
Continuous
 62
     7
370
    25
100
AcDbSpline
210
0.0
220
0.0
230
1.0
 70
     8
 71
     3
 72
    15
 73
    11
 74
     0
 42
0.000000001
 43
0.00000001
 40
0.2450640958166589
 40
0.2450640958166589
 40
0.2450640958166589
 40
0.2450640958166589
 40
0.3177538168151239
 40
0.4545518782917485
 40
0.5766307094373426
 40
0.6839903113360847
 40
0.7766306855889353
 40
0.8545518347041184
 40
0.9177537629422878
 40
1.0
 40
1.0
 40
1.0
 40
1.0
 10
11.58053712272535
 20
-3.145021454486462
 30
0.0
 10
11.52587426293474
 20
-3.070743844727229
 30
0.0
 10
11.36436869951
 20
-2.859614168666677
 30
0.0
 10
11.0902963323907
 20
-2.540051635961069
 30
0.0
 10
10.76132038016527
 20
-2.211410131988881
 30
0.0
 10
10.45066205409632
 20
-1.945467857707309
 30
0.0
 10
10.1657775126488
 20
-1.737243480925108
 30
0.0
 10
9.913453766580115
 20
-1.580934943297968
 30
0.0
 10
9.661641194714097
 20
-1.450519306163339
 30
0.0
 10
9.48993573379393
 20
-1.381829143233782
 30
0.0
 10
9.389737603040622
 20
-1.352448840555809
 30
0.0
  0
LINE
  5
98
330
1F
100
AcDbEntity
  8
0
  6
Continuous
 62
     7
370
    25
100
AcDbLine
 10
9.389737603
 20
-1.3524488406
 30
0.0
 11
9.3247625253
 21
-1.3442588346
 31
0.0
  0
SPLINE
  5
99
330
1F
100
AcDbEntity
  8
0
  6
Continuous
 62
     7
370
    25
100
AcDbSpline
210
0.0
220
0.0
230
1.0
 70
     8
 71
     3
 72
    15
 73
    11
 74
     0
 42
0.000000001
 43
0.00000001
 40
0.0
 40
0.0
 40
0.0
 40
0.0
 40
0.2001255096455307
 40
0.2943483555884844
 40
0.3861679858723107
 40
0.4772313955314145
 40
0.5697453566694904
 40
0.6664498717020838
 40
0.7701126166497942
 40
0.9964459080673658
 40
0.9964459080673658
 40
0.9964459080673658
 40
0.9964459080673658
 10
9.324762525260716
 20
-1.344258834620873
 30
0.0
 10
9.159728357608703
 20
-1.349885626219552
 30
0.0
 10
8.915861885608635
 20
-1.340483404758384
 30
0.0
 10
8.601823988693
 20
-1.282976118436134
 30
0.0
 10
8.381942847897292
 20
-1.218308100628843
 30
0.0
 10
8.172572864654057
 20
-1.12818539117242
 30
0.0
 10
7.974306678212206
 20
-1.007232325853418
 30
0.0
 10
7.791039889388216
 20
-0.8475015283167167
 30
0.0
 10
7.576013277316385
 20
-0.5648875306610285
 30
0.0
 10
7.497599589574678
 20
-0.2934118518429456
 30
0.0
 10
7.499259482209475
 20
-0.1053907893067846
 30
0.0
  0
ARC
  5
9A
330
1F
100
AcDbEntity
  8
0
  6
Continuous
 62
     7
370
    25
100
AcDbCircle
 10
0.0
 20
0.0
 30
0.0
 40
7.5
100
AcDbArc
 50
359.1948471771
 51
0.8051528219
  0
SPLINE
  5
9B
330
1F
100
AcDbEntity
  8
0
  6
Continuous
 62
     7
370
    25
100
AcDbSpline
210
0.0
220
0.0
230
1.0
 70
     8
 71
     3
 72
    15
 73
    11
 74
     0
 42
0.000000001
 43
0.00000001
 40
0.0035540918827865
 40
0.0035540918827865
 40
0.0035540918827865
 40
0.0035540918827865
 40
0.2298873833502056
 40
0.3335501282979161
 40
0.4302546433305094
 40
0.5227686044685853
 40
0.6138320141276893
 40
0.7056516444115155
 40
0.7998744903544692
 40
1.0
 40
1.0
 40
1.0
 40
1.0
 10
7.499259482210575
 20
0.1053907891825036
 30
0.0
 10
7.497599589550991
 20
0.2934118517608781
 30
0.0
 10
7.576013277291267
 20
0.5648875306279603
 30
0.0
 10
7.791039889388223
 20
0.8475015283166626
 30
0.0
 10
7.974306678212211
 20
1.007232325853363
 30
0.0
 10
8.172572864654065
 20
1.128185391172363
 30
0.0
 10
8.381942847897301
 20
1.218308100628786
 30
0.0
 10
8.601823988693011
 20
1.282976118436074
 30
0.0
 10
8.915861885608638
 20
1.340483404758321
 30
0.0
 10
9.15972835760871
 20
1.349885626219489
 30
0.0
 10
9.324762525260727
 20
1.344258834620809
 30
0.0
  0
LINE
  5
9C
330
1F
100
AcDbEntity
  8
0
  6
Continuous
 62
     7
370
    25
100
AcDbLine
 10
9.3247625253
 20
1.3442588346
 30
0.0
 11
9.389737603
 21
1.3524488406
 31
0.0
  0
SPLINE
  5
9D
330
1F
100
AcDbEntity
  8
0
  6
Continuous
 62
     7
370
    25
100
AcDbSpline
210
0.0
220
0.0
230
1.0
 70
     8
 71
     3
 72
    15
 73
    11
 74
     0
 42
0.000000001
 43
0.00000001
 40
0.0
 40
0.0
 40
0.0
 40
0.0
 40
0.0822462370577122
 40
0.1454481652958814
 40
0.2233693144110646
 40
0.3160096886639152
 40
0.4233692905626573
 40
0.5454481217082514
 40
0.6822461831848761
 40
0.7549359041833419
 40
0.7549359041833419
 40
0.7549359041833419
 40
0.7549359041833419
 10
9.38973760304063
 20
1.352448840555744
 30
0.0
 10
9.489935733793937
 20
1.381829143233715
 30
0.0
 10
9.66164119471411
 20
1.450519306163272
 30
0.0
 10
9.913453766580128
 20
1.580934943297899
 30
0.0
 10
10.16577751264881
 20
1.737243480925039
 30
0.0
 10
10.45066205409633
 20
1.945467857707235
 30
0.0
 10
10.76132038016529
 20
2.211410131988808
 30
0.0
 10
11.09029633239072
 20
2.540051635960992
 30
0.0
 10
11.36436869951002
 20
2.859614168666599
 30
0.0
 10
11.52587426293476
 20
3.07074384472715
 30
0.0
 10
11.58053712272537
 20
3.145021454486383
 30
0.0
  0
ARC
  5
9E
330
1F
100
AcDbEntity
  8
0
  6
Continuous
 62
     7
370
    25
100
AcDbCircle
 10
0.0
 20
0.0
 30
0.0
 40
12.0
100
AcDbArc
 50
15.1938219041
 51
20.8061780959
  0
SPLINE
  5
9F
330
1F
100
AcDbEntity
  8
0
  6
Continuous
 62
     7
370
    25
100
AcDbSpline
210
0.0
220
0.0
230
1.0
 70
     8
 71
     3
 72
    15
 73
    11
 74
     0
 42
0.000000001
 43
0.00000001
 40
0.2450640958166592
 40
0.2450640958166592
 40
0.2450640958166592
 40
0.2450640958166592
 40
0.3177538168151239
 40
0.4545518782917485
 40
0.5766307094373426
 40
0.6839903113360847
 40
0.7766306855889353
 40
0.8545518347041184
 40
0.9177537629422878
 40
1.0
 40
1.0
 40
1.0
 40
1.0
 10
11.21744856536532
 20
4.262493130010125
 30
0.0
 10
11.12956609924157
 20
4.290454955773843
 30
0.0
 10
10.87480644383518
 20
4.366331863379459
 30
0.0
 10
10.4652430972375
 20
4.463767687650179
 30
0.0
 10
10.00592533182038
 20
4.536277036343641
 30
0.0
 10
9.598280519802703
 20
4.568828473194962
 30
0.0
 10
9.24541286649657
 20
4.569834600585935
 30
0.0
 10
8.949402814618024
 20
4.547978687149826
 30
0.0
 10
8.669025776405089
 20
4.505475437839292
 30
0.0
 10
8.48973807574613
 20
4.460121009328732
 30
0.0
 10
8.391406776540098
 20
4.424995189931023
 30
0.0
  0
LINE
  5
A0
330
1F
100
AcDbEntity
  8
0
  6
Continuous
 62
     7
370
    25
100
AcDbLine
 10
8.3914067765
 20
4.4249951899
 30
0.0
 11
8.3340268697
 21
4.3934296514
 31
0.0
  0
SPLINE
  5
A1
330
1F
100
AcDbEntity
  8
0
  6
Continuous
 62
     7
370
    25
100
AcDbSpline
210
0.0
220
0.0
230
1.0
 70
     8
 71
     3
 72
    15
 73
    11
 74
     0
 42
0.000000001
 43
0.00000001
 40
0.0
 40
0.0
 40
0.0
 40
0.0
 40
0.2001255096455307
 40
0.2943483555884844
 40
0.3861679858723107
 40
0.4772313955314145
 40
0.5697453566694904
 40
0.6664498717020838
 40
0.7701126166497942
 40
0.996445907977356
 40
0.996445907977356
 40
0.996445907977356
 40
0.996445907977356
 10
8.33402686970058
 20
4.393429651430834
 30
0.0
 10
8.203818768537003
 20
4.291872831533479
 30
0.0
 10
8.001000161217021
 20
4.156138272710204
 30
0.0
 10
7.713136230934929
 20
4.018075800177337
 30
0.0
 10
7.497237744126537
 20
3.941150433759014
 30
0.0
 10
7.274881070055638
 20
3.890996648865281
 30
0.0
 10
7.043385927800189
 20
3.872311793811305
 30
0.0
 10
6.801232574008069
 20
3.89381520783782
 30
0.0
 10
6.461156050757392
 20
3.996065263341707
 30
0.0
 10
6.238148644467303
 20
4.169603291759469
 30
0.0
 10
6.128975518147171
 20
4.322691186974806
 30
0.0
  0
ARC
  5
A2
330
1F
100
AcDbEntity
  8
0
  6
Continuous
 62
     7
370
    25
100
AcDbCircle
 10
0.0
 20
0.0
 30
0.0
 40
7.499999999999999
100
AcDbArc
 50
35.1948471754
 51
36.8051528219
  0
SPLINE
  5
A3
330
1F
100
AcDbEntity
  8
0
  6
Continuous
 62
     7
370
    25
100
AcDbSpline
210
0.0
220
0.0
230
1.0
 70
     8
 71
     3
 72
    15
 73
    11
 74
     0
 42
0.000000001
 43
0.00000001
 40
0.0035540918827228
 40
0.0035540918827228
 40
0.0035540918827228
 40
0.0035540918827228
 40
0.2298873833502056
 40
0.3335501282979161
 40
0.4302546433305094
 40
0.5227686044685853
 40
0.6138320141276893
 40
0.7056516444115155
 40
0.7998744903544692
 40
1.0
 40
1.0
 40
1.0
 40
1.0
 10
6.00508121472697
 20
4.493217066256979
 30
0.0
 10
5.893222325652543
 20
4.64435364075765
 30
0.0
 10
5.79709093123184
 20
4.910072487752247
 30
0.0
 10
5.804934774728308
 20
5.265101486171709
 30
0.0
 10
5.859313314262454
 20
5.502047931609702
 30
0.0
 10
5.948619600489748
 20
5.716438957393309
 30
0.0
 10
6.065030675530398
 20
5.912414349345767
 30
0.0
 10
6.204907348014566
 20
6.093974766561367
 30
0.0
 10
6.425167408697502
 20
6.325085982964402
 30
0.0
 10
6.616933041790158
 20
6.476033655681601
 30
0.0
 10
6.75375583319259
 20
6.568486135524681
 30
0.0
  0
LINE
  5
A4
330
1F
100
AcDbEntity
  8
0
  6
Continuous
 62
     7
370
    25
100
AcDbLine
 10
6.7537558332
 20
6.5684861355
 30
0.0
 11
6.8015078106
 21
6.613303382
 31
0.0
  0
SPLINE
  5
A5
330
1F
100
AcDbEntity
  8
0
  6
Continuous
 62
     7
370
    25
100
AcDbSpline
210
0.0
220
0.0
230
1.0
 70
     8
 71
     3
 72
    15
 73
    11
 74
     0
 42
0.000000001
 43
0.00000001
 40
0.0
 40
0.0
 40
0.0
 40
0.0
 40
0.0822462370577122
 40
0.1454481652958814
 40
0.2233693144110646
 40
0.3160096886639152
 40
0.4233692905626573
 40
0.5454481217082514
 40
0.6822461831848761
 40
0.7549359041833416
 40
0.7549359041833416
 40
0.7549359041833416
 40
0.7549359041833416
 10
6.801507810622625
 20
6.613303381995659
 30
0.0
 10
6.865300492584652
 20
6.695967529726085
 30
0.0
 10
6.963838063748494
 20
6.852464976549439
 30
0.0
 10
7.090902325609304
 20
7.105985159408273
 30
0.0
 10
7.203160671038582
 20
7.380753599456889
 30
0.0
 10
7.311245888663972
 20
7.716661590985773
 30
0.0
 10
7.406256807114004
 20
8.11441379296749
 30
0.0
 10
7.479233313878987
 20
8.573657567814909
 30
0.0
 10
7.513128372657487
 20
8.99328478299286
 30
0.0
 10
7.51969020824452
 20
9.25902286728697
 30
0.0
 10
7.520254107184248
 20
9.351244738716792
 30
0.0
  0
ARC
  5
A6
330
1F
100
AcDbEntity
  8
0
  6
Continuous
 62
     7
370
    25
100
AcDbCircle
 10
0.0
 20
0.0
 30
0.0
 40
12.0
100
AcDbArc
 50
51.1938219041
 51
56.8061780959
  0
SPLINE
  5
A7
330
1F
100
AcDbEntity
  8
0
  6
Continuous
 62
     7
370
    25
100
AcDbSpline
210
0.0
220
0.0
230
1.0
 70
     8
 71
     3
 72
    15
 73
    11
 74
     0
 42
0.000000001
 43
0.00000001
 40
0.2450640958166588
 40
0.2450640958166588
 40
0.2450640958166588
 40
0.2450640958166588
 40
0.3177538168151239
 40
0.4545518782917485
 40
0.5766307094373426
 40
0.6839903113360847
 40
0.7766306855889353
 40
0.8545518347041184
 40
0.9177537629422878
 40
1.0
 40
1.0
 40
1.0
 40
1.0
 10
6.56967592308947
 20
10.04188021565576
 30
0.0
 10
6.48214196567669
 20
10.01284579036972
 30
0.0
 10
6.231437747691674
 20
9.924487529776298
 30
0.0
 10
5.842822699469787
 20
9.762579472462576
 30
0.0
 10
5.428606895613662
 20
9.551260559178525
 30
0.0
 10
5.079682060500442
 20
9.337987616105037
 30
0.0
 10
4.793614745368232
 20
9.131391187638442
 30
0.0
 10
4.566984166485804
 20
8.939719039216502
 30
0.0
 10
4.365137160858269
 20
8.74053170006512
 30
0.0
 10
4.246749028347423
 20
8.598456530265146
 30
0.0
 10
4.187843774827439
 20
8.512241457918993
 30
0.0
  0
LINE
  5
A8
330
1F
100
AcDbEntity
  8
0
  6
Continuous
 62
     7
370
    25
100
AcDbLine
 10
4.1878437748
 20
8.5122414579
 30
0.0
 11
4.1599762131
 21
8.4529773378
 31
0.0
  0
SPLINE
  5
A9
330
1F
100
AcDbEntity
  8
0
  6
Continuous
 62
     7
370
    25
100
AcDbSpline
210
0.0
220
0.0
230
1.0
 70
     8
 71
     3
 72
    15
 73
    11
 74
     0
 42
0.000000001
 43
0.00000001
 40
0.0
 40
0.0
 40
0.0
 40
0.0
 40
0.2001255096455307
 40
0.2943483555884844
 40
0.3861679858723107
 40
0.4772313955314145
 40
0.5697453566694904
 40
0.6664498717020838
 40
0.7701126166497942
 40
0.9964459079773531
 40
0.9964459079773531
 40
0.9964459079773531
 40
0.9964459079773531
 10
4.159976213069698
 20
8.452977337817558
 30
0.0
 10
4.11432924742846
 20
8.294281743032965
 30
0.0
 10
4.030028319233882
 20
8.065256391947768
 30
0.0
 10
3.878292592817957
 20
7.784359332496488
 30
0.0
 10
3.74884264383802
 20
7.595223457227313
 30
0.0
 10
3.598431970809156
 20
7.423950219148377
 30
0.0
 10
3.422131148851202
 20
7.272764423277177
 30
0.0
 10
3.213585580749763
 20
7.147826880509539
 30
0.0
 10
2.878356819380749
 20
7.030656948070318
 30
0.0
 10
2.595936944004718
 20
7.039971697661298
 30
0.0
 10
2.41763122237062
 20
7.099652052925959
 30
0.0
  0
ARC
  5
AA
330
1F
100
AcDbEntity
  8
0
  6
Continuous
 62
     7
370
    25
100
AcDbCircle
 10
0.0
 20
0.0
 30
0.0
 40
7.499999999999999
100
AcDbArc
 50
71.1948471754
 51
72.8051528219
  0
SPLINE
  5
AB
330
1F
100
AcDbEntity
  8
0
  6
Continuous
 62
     7
370
    25
100
AcDbSpline
210
0.0
220
0.0
230
1.0
 70
     8
 71
     3
 72
    15
 73
    11
 74
     0
 42
0.000000001
 43
0.00000001
 40
0.0035540918824997
 40
0.0035540918824997
 40
0.0035540918824997
 40
0.0035540918824997
 40
0.2298873833502056
 40
0.3335501282979161
 40
0.4302546433305094
 40
0.5227686044685853
 40
0.6138320141276893
 40
0.7056516444115155
 40
0.7998744903544692
 40
1.0
 40
1.0
 40
1.0
 40
1.0
 10
2.217166028421689
 20
7.164787142852356
 30
0.0
 10
2.037834436614861
 20
7.221310194759202
 30
0.0
 10
1.803876885315757
 20
7.379776641780808
 30
0.0
 10
1.601541878598386
 20
7.671611630526735
 30
0.0
 10
1.506261414999222
 20
7.895268235222181
 30
0.0
 10
1.452495835082157
 20
8.12120713650401
 30
0.0
 10
1.431482927921608
 20
8.348179272185245
 30
0.0
 10
1.43792699743852
 20
8.577282180444412
 30
0.0
 10
1.480277365071993
 20
8.893720697443607
 30
0.0
 10
1.546694205289982
 20
9.12855694096156
 30
0.0
 10
1.603043964562738
 20
9.28377498729056
 30
0.0
  0
LINE
  5
AC
330
1F
100
AcDbEntity
  8
0
  6
Continuous
 62
     7
370
    25
100
AcDbLine
 10
1.6030439646
 20
9.2837749873
 30
0.0
 11
1.6153332093
 21
9.3481008094
 31
0.0
  0
SPLINE
  5
AD
330
1F
100
AcDbEntity
  8
0
  6
Continuous
 62
     7
370
    25
100
AcDbSpline
210
0.0
220
0.0
230
1.0
 70
     8
 71
     3
 72
    15
 73
    11
 74
     0
 42
0.000000001
 43
0.00000001
 40
0.0
 40
0.0
 40
0.0
 40
0.0
 40
0.0822462370577122
 40
0.1454481652958814
 40
0.2233693144110646
 40
0.3160096886639152
 40
0.4233692905626573
 40
0.5454481217082514
 40
0.6822461831848761
 40
0.754935904183342
 40
0.754935904183342
 40
0.754935904183342
 40
0.754935904183342
 10
1.615333209294647
 20
9.34810080942785
 30
0.0
 10
1.618353806189413
 20
9.452473907428748
 30
0.0
 10
1.606085484581198
 20
9.637001932611957
 30
0.0
 10
1.559867207161388
 20
9.916790568177012
 30
0.0
 10
1.489181279518102
 20
10.20506670558432
 30
0.0
 10
1.379182293869894
 20
10.54035287618857
 30
0.0
 10
1.222254863155432
 20
10.91798718381353
 30
0.0
 10
1.011357379255983
 20
11.33241771666627
 30
0.0
 10
0.7921283692909666
 20
11.69182628072305
 30
0.0
 10
0.6412400788746384
 20
11.91066985715566
 30
0.0
 10
0.5874896267347248
 20
11.985610369876
 30
0.0
  0
ARC
  5
AE
330
1F
100
AcDbEntity
  8
0
  6
Continuous
 62
     7
370
    25
100
AcDbCircle
 10
0.0
 20
0.0
 30
0.0
 40
12.0
100
AcDbArc
 50
87.1938219041
 51
92.8061780959
  0
SPLINE
  5
AF
330
1F
100
AcDbEntity
  8
0
  6
Continuous
 62
     7
370
    25
100
AcDbSpline
210
0.0
220
0.0
230
1.0
 70
     8
 71
     3
 72
    15
 73
    11
 74
     0
 42
0.000000001
 43
0.00000001
 40
0.2450640958166587
 40
0.2450640958166587
 40
0.2450640958166587
 40
0.2450640958166587
 40
0.3177538168151239
 40
0.4545518782917485
 40
0.5766307094373426
 40
0.6839903113360847
 40
0.7766306855889353
 40
0.8545518347041184
 40
0.9177537629422878
 40
1.0
 40
1.0
 40
1.0
 40
1.0
 10
-0.5874896267347294
 20
11.985610369876
 30
0.0
 10
-0.6412400788746424
 20
11.91066985715566
 30
0.0
 10
-0.79212836929097
 20
11.69182628072305
 30
0.0
 10
-1.011357379255986
 20
11.33241771666627
 30
0.0
 10
-1.222254863155434
 20
10.91798718381352
 30
0.0
 10
-1.379182293869896
 20
10.54035287618858
 30
0.0
 10
-1.489181279518105
 20
10.20506670558431
 30
0.0
 10
-1.55986720716139
 20
9.916790568177012
 30
0.0
 10
-1.6060854845812
 20
9.637001932611955
 30
0.0
 10
-1.618353806189415
 20
9.45247390742875
 30
0.0
 10
-1.615333209294649
 20
9.34810080942785
 30
0.0
  0
LINE
  5
B0
330
1F
100
AcDbEntity
  8
0
  6
Continuous
 62
     7
370
    25
100
AcDbLine
 10
-1.6153332093
 20
9.3481008094
 30
0.0
 11
-1.6030439646
 21
9.2837749873
 31
0.0
  0
SPLINE
  5
B1
330
1F
100
AcDbEntity
  8
0
  6
Continuous
 62
     7
370
    25
100
AcDbSpline
210
0.0
220
0.0
230
1.0
 70
     8
 71
     3
 72
    15
 73
    11
 74
     0
 42
0.000000001
 43
0.00000001
 40
0.0
 40
0.0
 40
0.0
 40
0.0
 40
0.2001255096455307
 40
0.2943483555884844
 40
0.3861679858723107
 40
0.4772313955314145
 40
0.5697453566694904
 40
0.6664498717020838
 40
0.7701126166497942
 40
0.9964459080899911
 40
0.9964459080899911
 40
0.9964459080899911
 40
0.9964459080899911
 10
-1.603043964562741
 20
9.28377498729056
 30
0.0
 10
-1.546694205289985
 20
9.128556940961563
 30
0.0
 10
-1.480277365071995
 20
8.89372069744361
 30
0.0
 10
-1.437926997438522
 20
8.57728218044441
 30
0.0
 10
-1.431482927921611
 20
8.348179272185245
 30
0.0
 10
-1.452495835082159
 20
8.12120713650401
 30
0.0
 10
-1.506261414999224
 20
7.895268235222181
 30
0.0
 10
-1.601541878598387
 20
7.671611630526733
 30
0.0
 10
-1.803876885302715
 20
7.379776641799623
 30
0.0
 10
-2.037834436575857
 20
7.22131019478562
 30
0.0
 10
-2.217166028356301
 20
7.164787142872965
 30
0.0
  0
ARC
  5
B2
330
1F
100
AcDbEntity
  8
0
  6
Continuous
 62
     7
370
    25
100
AcDbCircle
 10
0.0
 20
0.0
 30
0.0
 40
7.500000000000001
100
AcDbArc
 50
107.1948471776
 51
108.8051528219
  0
SPLINE
  5
B3
330
1F
100
AcDbEntity
  8
0
  6
Continuous
 62
     7
370
    25
100
AcDbSpline
210
0.0
220
0.0
230
1.0
 70
     8
 71
     3
 72
    15
 73
    11
 74
     0
 42
0.000000001
 43
0.00000001
 40
0.0035540918827794
 40
0.0035540918827794
 40
0.0035540918827794
 40
0.0035540918827794
 40
0.2298873833502056
 40
0.3335501282979161
 40
0.4302546433305094
 40
0.5227686044685853
 40
0.6138320141276893
 40
0.7056516444115155
 40
0.7998744903544692
 40
1.0
 40
1.0
 40
1.0
 40
1.0
 10
-2.417631222039955
 20
7.099652053036634
 30
0.0
 10
-2.595936943765212
 20
7.03997169766923
 30
0.0
 10
-2.878356819270764
 20
7.03065694803195
 30
0.0
 10
-3.213585580749661
 20
7.147826880509585
 30
0.0
 10
-3.422131148851097
 20
7.272764423277224
 30
0.0
 10
-3.598431970809048
 20
7.423950219148426
 30
0.0
 10
-3.74884264383791
 20
7.595223457227363
 30
0.0
 10
-3.878292592817846
 20
7.784359332496543
 30
0.0
 10
-4.030028319233764
 20
8.06525639194782
 30
0.0
 10
-4.11432924742834
 20
8.29428174303302
 30
0.0
 10
-4.159976213069576
 20
8.452977337817615
 30
0.0
  0
LINE
  5
B4
330
1F
100
AcDbEntity
  8
0
  6
Continuous
 62
     7
370
    25
100
AcDbLine
 10
-4.1599762131
 20
8.4529773378
 30
0.0
 11
-4.1878437748
 21
8.5122414579
 31
0.0
  0
SPLINE
  5
B5
330
1F
100
AcDbEntity
  8
0
  6
Continuous
 62
     7
370
    25
100
AcDbSpline
210
0.0
220
0.0
230
1.0
 70
     8
 71
     3
 72
    15
 73
    11
 74
     0
 42
0.000000001
 43
0.00000001
 40
0.0
 40
0.0
 40
0.0
 40
0.0
 40
0.0822462370577122
 40
0.1454481652958814
 40
0.2233693144110646
 40
0.3160096886639152
 40
0.4233692905626573
 40
0.5454481217082514
 40
0.6822461831848761
 40
0.7549359041833432
 40
0.7549359041833432
 40
0.7549359041833432
 40
0.7549359041833432
 10
-4.187843774827316
 20
8.51224145791905
 30
0.0
 10
-4.246749028347298
 20
8.598456530265205
 30
0.0
 10
-4.365137160858144
 20
8.74053170006518
 30
0.0
 10
-4.566984166485676
 20
8.939719039216566
 30
0.0
 10
-4.793614745368104
 20
9.131391187638512
 30
0.0
 10
-5.079682060500304
 20
9.337987616105103
 30
0.0
 10
-5.428606895613525
 20
9.551260559178603
 30
0.0
 10
-5.842822699469647
 20
9.762579472462658
 30
0.0
 10
-6.231437747691533
 20
9.924487529776384
 30
0.0
 10
-6.482141965676552
 20
10.01284579036981
 30
0.0
 10
-6.569675923089333
 20
10.04188021565585
 30
0.0
  0
ARC
  5
B6
330
1F
100
AcDbEntity
  8
0
  6
Continuous
 62
     7
370
    25
100
AcDbCircle
 10
0.0
 20
0.0
 30
0.0
 40
12.0
100
AcDbArc
 50
123.1938219041
 51
128.8061780959
  0
SPLINE
  5
B7
330
1F
100
AcDbEntity
  8
0
  6
Continuous
 62
     7
370
    25
100
AcDbSpline
210
0.0
220
0.0
230
1.0
 70
     8
 71
     3
 72
    15
 73
    11
 74
     0
 42
0.000000001
 43
0.00000001
 40
0.2450640958166582
 40
0.2450640958166582
 40
0.2450640958166582
 40
0.2450640958166582
 40
0.3177538168151239
 40
0.4545518782917485
 40
0.5766307094373426
 40
0.6839903113360847
 40
0.7766306855889353
 40
0.8545518347041184
 40
0.9177537629422878
 40
1.0
 40
1.0
 40
1.0
 40
1.0
 10
-7.520254107184114
 20
9.3512447387169
 30
0.0
 10
-7.519690208244389
 20
9.259022867287078
 30
0.0
 10
-7.513128372657359
 20
8.993284782992966
 30
0.0
 10
-7.479233313878862
 20
8.573657567815012
 30
0.0
 10
-7.406256807113884
 20
8.11441379296759
 30
0.0
 10
-7.311245888663864
 20
7.716661590985882
 30
0.0
 10
-7.203160671038473
 20
7.380753599456986
 30
0.0
 10
-7.090902325609201
 20
7.105985159408373
 30
0.0
 10
-6.963838063748392
 20
6.852464976549535
 30
0.0
 10
-6.865300492584555
 20
6.695967529726182
 30
0.0
 10
-6.801507810622528
 20
6.613303381995755
 30
0.0
  0
LINE
  5
B8
330
1F
100
AcDbEntity
  8
0
  6
Continuous
 62
     7
370
    25
100
AcDbLine
 10
-6.8015078106
 20
6.613303382
 30
0.0
 11
-6.7537558332
 21
6.5684861355
 31
0.0
  0
SPLINE
  5
B9
330
1F
100
AcDbEntity
  8
0
  6
Continuous
 62
     7
370
    25
100
AcDbSpline
210
0.0
220
0.0
230
1.0
 70
     8
 71
     3
 72
    15
 73
    11
 74
     0
 42
0.000000001
 43
0.00000001
 40
0.0
 40
0.0
 40
0.0
 40
0.0
 40
0.2001255096455307
 40
0.2943483555884844
 40
0.3861679858723107
 40
0.4772313955314145
 40
0.5697453566694904
 40
0.6664498717020838
 40
0.7701126166497942
 40
0.9964459079769303
 40
0.9964459079769303
 40
0.9964459079769303
 40
0.9964459079769303
 10
-6.753755833192495
 20
6.568486135524776
 30
0.0
 10
-6.616933041790065
 20
6.476033655681695
 30
0.0
 10
-6.425167408697412
 20
6.325085982964495
 30
0.0
 10
-6.204907348014476
 20
6.093974766561454
 30
0.0
 10
-6.065030675530312
 20
5.91241434934585
 30
0.0
 10
-5.948619600489665
 20
5.716438957393392
 30
0.0
 10
-5.859313314262374
 20
5.502047931609784
 30
0.0
 10
-5.804934774728231
 20
5.265101486171789
 30
0.0
 10
-5.797090931234349
 20
4.910072487869103
 30
0.0
 10
-5.893222325570705
 20
4.644353640983754
 30
0.0
 10
-6.005081214518817
 20
4.493217066538215
 30
0.0
  0
ARC
  5
BA
330
1F
100
AcDbEntity
  8
0
  6
Continuous
 62
     7
370
    25
100
AcDbCircle
 10
0.0
 20
0.0
 30
0.0
 40
7.5
100
AcDbArc
 50
143.1948471754
 51
144.8051528219
  0
SPLINE
  5
BB
330
1F
100
AcDbEntity
  8
0
  6
Continuous
 62
     7
370
    25
100
AcDbSpline
210
0.0
220
0.0
230
1.0
 70
     8
 71
     3
 72
    15
 73
    11
 74
     0
 42
0.000000001
 43
0.00000001
 40
0.003554091882849
 40
0.003554091882849
 40
0.003554091882849
 40
0.003554091882849
 40
0.2298873833502056
 40
0.3335501282979161
 40
0.4302546433305094
 40
0.5227686044685853
 40
0.6138320141276893
 40
0.7056516444115155
 40
0.7998744903544692
 40
1.0
 40
1.0
 40
1.0
 40
1.0
 10
-6.128975517944816
 20
4.322691187258556
 30
0.0
 10
-6.238148644278299
 20
4.169603291906585
 30
0.0
 10
-6.461156050645918
 20
3.996065263375294
 30
0.0
 10
-6.801232574008016
 20
3.893815207837915
 30
0.0
 10
-7.043385927800133
 20
3.872311793811403
 30
0.0
 10
-7.274881070055581
 20
3.890996648865381
 30
0.0
 10
-7.497237744126481
 20
3.941150433759117
 30
0.0
 10
-7.713136230934871
 20
4.018075800177444
 30
0.0
 10
-8.00100016121696
 20
4.156138272710314
 30
0.0
 10
-8.203818768536939
 20
4.291872831533591
 30
0.0
 10
-8.334026869700516
 20
4.393429651430949
 30
0.0
  0
LINE
  5
BC
330
1F
100
AcDbEntity
  8
0
  6
Continuous
 62
     7
370
    25
100
AcDbLine
 10
-8.3340268697
 20
4.3934296514
 30
0.0
 11
-8.3914067765
 21
4.4249951899
 31
0.0
  0
SPLINE
  5
BD
330
1F
100
AcDbEntity
  8
0
  6
Continuous
 62
     7
370
    25
100
AcDbSpline
210
0.0
220
0.0
230
1.0
 70
     8
 71
     3
 72
    15
 73
    11
 74
     0
 42
0.000000001
 43
0.00000001
 40
0.0
 40
0.0
 40
0.0
 40
0.0
 40
0.0822462370577122
 40
0.1454481652958814
 40
0.2233693144110646
 40
0.3160096886639152
 40
0.4233692905626573
 40
0.5454481217082514
 40
0.6822461831848761
 40
0.754935904183343
 40
0.754935904183343
 40
0.754935904183343
 40
0.754935904183343
 10
-8.391406776540036
 20
4.424995189931139
 30
0.0
 10
-8.489738075746063
 20
4.460121009328848
 30
0.0
 10
-8.669025776405027
 20
4.505475437839412
 30
0.0
 10
-8.949402814617958
 20
4.54797868714995
 30
0.0
 10
-9.24541286649651
 20
4.569834600586064
 30
0.0
 10
-9.598280519802632
 20
4.568828473195093
 30
0.0
 10
-10.00592533182032
 20
4.536277036343781
 30
0.0
 10
-10.46524309723744
 20
4.463767687650326
 30
0.0
 10
-10.87480644383512
 20
4.366331863379609
 30
0.0
 10
-11.12956609924151
 20
4.290454955773995
 30
0.0
 10
-11.21744856536527
 20
4.262493130010277
 30
0.0
  0
ARC
  5
BE
330
1F
100
AcDbEntity
  8
0
  6
Continuous
 62
     7
370
    25
100
AcDbCircle
 10
0.0
 20
0.0
 30
0.0
 40
12.0
100
AcDbArc
 50
159.1938219041
 51
164.8061780959
  0
SPLINE
  5
BF
330
1F
100
AcDbEntity
  8
0
  6
Continuous
 62
     7
370
    25
100
AcDbSpline
210
0.0
220
0.0
230
1.0
 70
     8
 71
     3
 72
    15
 73
    11
 74
     0
 42
0.000000001
 43
0.00000001
 40
0.2450640958166587
 40
0.2450640958166587
 40
0.2450640958166587
 40
0.2450640958166587
 40
0.3177538168151239
 40
0.4545518782917485
 40
0.5766307094373426
 40
0.6839903113360847
 40
0.7766306855889353
 40
0.8545518347041184
 40
0.9177537629422878
 40
1.0
 40
1.0
 40
1.0
 40
1.0
 10
-11.58053712272532
 20
3.145021454486543
 30
0.0
 10
-11.52587426293472
 20
3.07074384472731
 30
0.0
 10
-11.36436869950998
 20
2.859614168666757
 30
0.0
 10
-11.09029633239068
 20
2.540051635961146
 30
0.0
 10
-10.76132038016525
 20
2.211410131988957
 30
0.0
 10
-10.45066205409631
 20
1.945467857707383
 30
0.0
 10
-10.16577751264878
 20
1.737243480925179
 30
0.0
 10
-9.913453766580105
 20
1.580934943298038
 30
0.0
 10
-9.661641194714088
 20
1.450519306163406
 30
0.0
 10
-9.489935733793917
 20
1.381829143233848
 30
0.0
 10
-9.389737603040611
 20
1.352448840555875
 30
0.0
  0
LINE
  5
C0
330
1F
100
AcDbEntity
  8
0
  6
Continuous
 62
     7
370
    25
100
AcDbLine
 10
-9.389737603
 20
1.3524488406
 30
0.0
 11
-9.3247625253
 21
1.3442588346
 31
0.0
  0
SPLINE
  5
C1
330
1F
100
AcDbEntity
  8
0
  6
Continuous
 62
     7
370
    25
100
AcDbSpline
210
0.0
220
0.0
230
1.0
 70
     8
 71
     3
 72
    15
 73
    11
 74
     0
 42
0.000000001
 43
0.00000001
 40
0.0
 40
0.0
 40
0.0
 40
0.0
 40
0.2001255096455307
 40
0.2943483555884844
 40
0.3861679858723107
 40
0.4772313955314145
 40
0.5697453566694904
 40
0.6664498717020838
 40
0.7701126166497942
 40
0.9964459081569669
 40
0.9964459081569669
 40
0.9964459081569669
 40
0.9964459081569669
 10
-9.324762525260706
 20
1.344258834620938
 30
0.0
 10
-9.159728357608692
 20
1.349885626219616
 30
0.0
 10
-8.915861885608624
 20
1.340483404758446
 30
0.0
 10
-8.601823988692988
 20
1.282976118436194
 30
0.0
 10
-8.381942847897283
 20
1.218308100628902
 30
0.0
 10
-8.172572864654047
 20
1.128185391172477
 30
0.0
 10
-7.974306678212197
 20
1.007232325853474
 30
0.0
 10
-7.79103988938821
 20
0.8475015283167713
 30
0.0
 10
-7.576013277271226
 20
0.5648875306017369
 30
0.0
 10
-7.497599589532093
 20
0.293411851695575
 30
0.0
 10
-7.499259482211446
 20
0.1053907890835355
 30
0.0
  0
ARC
  5
C2
330
1F
100
AcDbEntity
  8
0
  6
Continuous
 62
     7
370
    25
100
AcDbCircle
 10
0.0
 20
0.0
 30
0.0
 40
7.499999999999999
100
AcDbArc
 50
179.1948471788
 51
180.8051528219
  0
SPLINE
  5
C3
330
1F
100
AcDbEntity
  8
0
  6
Continuous
 62
     7
370
    25
100
AcDbSpline
210
0.0
220
0.0
230
1.0
 70
     8
 71
     3
 72
    15
 73
    11
 74
     0
 42
0.000000001
 43
0.00000001
 40
0.003554091882945
 40
0.003554091882945
 40
0.003554091882945
 40
0.003554091882945
 40
0.2298873833502056
 40
0.3335501282979161
 40
0.4302546433305094
 40
0.5227686044685853
 40
0.6138320141276893
 40
0.7056516444115155
 40
0.7998744903544692
 40
1.0
 40
1.0
 40
1.0
 40
1.0
 10
-7.49925948221057
 20
-0.1053907891828476
 30
0.0
 10
-7.497599589551067
 20
-0.2934118517610879
 30
0.0
 10
-7.576013277291349
 20
-0.5648875306280141
 30
0.0
 10
-7.791039889388228
 20
-0.8475015283166102
 30
0.0
 10
-7.974306678212217
 20
-1.007232325853309
 30
0.0
 10
-8.172572864654072
 20
-1.128185391172307
 30
0.0
 10
-8.381942847897308
 20
-1.218308100628729
 30
0.0
 10
-8.601823988693017
 20
-1.282976118436016
 30
0.0
 10
-8.915861885608647
 20
-1.34048340475826
 30
0.0
 10
-9.159728357608717
 20
-1.349885626219427
 30
0.0
 10
-9.324762525260734
 20
-1.344258834620745
 30
0.0
  0
LINE
  5
C4
330
1F
100
AcDbEntity
  8
0
  6
Continuous
 62
     7
370
    25
100
AcDbLine
 10
-9.3247625253
 20
-1.3442588346
 30
0.0
 11
-9.389737603
 21
-1.3524488406
 31
0.0
  0
MTEXT
  5
C6
330
1F
100
AcDbEntity
  8
0
  6
Continuous
 62
     7
100
AcDbMText
 10
-11.5805371227
 20
-13.0195663917
 30
0.0
 40
4.83362
 41
0.0
 71
     1
 72
     1
  1
SOLIDWORKS Educational Product.
  7
SLDTEXTSTYLE0
 73
     1
 44
1.0
  0
MTEXT
  5
C7
330
1F
100
AcDbEntity
  8
0
  6
Continuous
 62
     7
100
AcDbMText
 10
-11.5805371227
 20
-20.2699963917
 30
0.0
 40
4.83362
 41
0.0
 71
     1
 72
     1
  1
For Instructional Use Only.
  7
SLDTEXTSTYLE0
 73
     1
 44
1.0
  0
ENDSEC
  0
SECTION
  2
OBJECTS
  0
DICTIONARY
  5
C
330
0
100
AcDbDictionary
281
     1
  3
ACAD_GROUP
350
D
  3
ACAD_LAYOUT
350
1A
  3
ACAD_MLINESTYLE
350
17
  3
ACAD_PLOTSETTINGS
350
19
  3
ACAD_PLOTSTYLENAME
350
E
  3
ACAD_SCALELIST
350
47
  0
DICTIONARY
  5
D
102
{ACAD_REACTORS
330
C
102
}
330
C
100
AcDbDictionary
281
     1
  0
DICTIONARY
  5
1A
102
{ACAD_REACTORS
330
C
102
}
330
C
100
AcDbDictionary
281
     1
  3
Layout1
350
1E
  3
Layout2
350
26
  3
Model
350
22
  0
DICTIONARY
  5
17
102
{ACAD_REACTORS
330
C
102
}
330
C
100
AcDbDictionary
281
     1
  3
Standard
350
18
  0
DICTIONARY
  5
19
102
{ACAD_REACTORS
330
C
102
}
330
C
100
AcDbDictionary
281
     1
  0
ACDBDICTIONARYWDFLT
  5
E
102
{ACAD_REACTORS
330
C
102
}
330
C
100
AcDbDictionary
281
     1
  3
Normal
350
F
100
AcDbDictionaryWithDefault
340
F
  0
DICTIONARY
  5
47
102
{ACAD_REACTORS
330
C
102
}
330
C
100
AcDbDictionary
281
     1
  3
A0
350
48
  3
A1
350
49
  3
A2
350
4A
  3
A3
350
4B
  3
A4
350
4C
  3
A5
350
4D
  3
A6
350
4E
  3
A7
350
4F
  3
A8
350
50
  3
A9
350
51
  3
B0
350
52
  3
B1
350
53
  3
B2
350
54
  3
B3
350
55
  3
B4
350
56
  3
B5
350
57
  3
B6
350
58
  3
B7
350
59
  3
B8
350
5A
  3
B9
350
5B
  3
C0
350
5C
  3
C1
350
5D
  3
C2
350
5E
  3
C3
350
5F
  3
C4
350
60
  3
C5
350
61
  3
C6
350
62
  3
C7
350
63
  3
C8
350
64
  3
C9
350
65
  3
D0
350
66
  3
D1
350
67
  3
D2
350
68
  0
LAYOUT
  5
1E
102
{ACAD_REACTORS
330
1A
102
}
330
1A
100
AcDbPlotSettings
  1

  2
none_device
  4

  6

 40
0.0
 41
0.0
 42
0.0
 43
0.0
 44
0.0
 45
0.0
 46
0.0
 47
0.0
 48
0.0
 49
0.0
140
0.0
141
0.0
142
1.0
143
1.0
 70
   688
 72
     1
 73
     0
 74
     5
  7

 75
    16
147
1.0
148
0.0
149
0.0
100
AcDbLayout
  1
Layout1
 70
     1
 71
     1
 10
0.0
 20
0.0
 11
420.0
 21
297.0
 12
0.0
 22
0.0
 32
0.0
 14
1.0000000000E+20
 24
1.0000000000E+20
 34
1.0000000000E+20
 15
-1.0000000000E+20
 25
-1.0000000000E+20
 35
-1.0000000000E+20
146
0.0
 13
0.0
 23
0.0
 33
0.0
 16
1.0
 26
0.0
 36
0.0
 17
0.0
 27
1.0
 37
0.0
 76
     0
330
1B
  0
LAYOUT
  5
26
102
{ACAD_REACTORS
330
1A
102
}
330
1A
100
AcDbPlotSettings
  1

  2
none_device
  4

  6

 40
0.0
 41
0.0
 42
0.0
 43
0.0
 44
0.0
 45
0.0
 46
0.0
 47
0.0
 48
0.0
 49
0.0
140
0.0
141
0.0
142
1.0
143
1.0
 70
   688
 72
     1
 73
     0
 74
     5
  7

 75
    16
147
1.0
148
0.0
149
0.0
100
AcDbLayout
  1
Layout2
 70
     1
 71
     2
 10
0.0
 20
0.0
 11
0.0
 21
0.0
 12
0.0
 22
0.0
 32
0.0
 14
0.0
 24
0.0
 34
0.0
 15
0.0
 25
0.0
 35
0.0
146
0.0
 13
0.0
 23
0.0
 33
0.0
 16
1.0
 26
0.0
 36
0.0
 17
0.0
 27
1.0
 37
0.0
 76
     0
330
23
  0
LAYOUT
  5
22
102
{ACAD_REACTORS
330
1A
102
}
330
1A
100
AcDbPlotSettings
  1

  2
none_device
  4
ANSI_A_(11.00_x_8.50_Inches)
  6

 40
6.35
 41
19.05
 42
6.35000508
 43
19.05000254
 44
279.4
 45
215.9
 46
133.34999746
 47
88.89999873
 48
0.0
 49
0.0
140
0.0
141
0.0
142
0.350625
143
1.0
 70
  1696
 72
     0
 73
     0
 74
     0
  7

 75
     0
147
0.0179189148
148
-1300.4909072572
149
0.0
100
AcDbLayout
  1
Model
 70
     1
 71
     0
 10
0.0
 20
0.0
 11
420.0
 21
297.0
 12
0.0
 22
0.0
 32
0.0
 14
-11.5805371227
 24
-12.0
 34
0.0
 15
11.5805371227
 25
12.0
 35
0.0
146
0.0
 13
0.0
 23
0.0
 33
0.0
 16
1.0
 26
0.0
 36
0.0
 17
0.0
 27
1.0
 37
0.0
 76
     0
330
1F
331
29
  0
MLINESTYLE
  5
18
102
{ACAD_REACTORS
330
17
102
}
330
17
100
AcDbMlineStyle
  2
Standard
 70
     0
  3

 62
   256
 51
90.0
 52
90.0
 71
     2
 49
0.5
 62
   256
  6
BYLAYER
 49
-0.5
 62
   256
  6
BYLAYER
  0
ACDBPLACEHOLDER
  5
F
102
{ACAD_REACTORS
330
E
102
}
330
E
  0
SCALE
  5
48
102
{ACAD_REACTORS
330
47
102
}
330
47
100
AcDbScale
 70
     0
300
1:1
140
1.0
141
1.0
290
     1
  0
SCALE
  5
49
102
{ACAD_REACTORS
330
47
102
}
330
47
100
AcDbScale
 70
     0
300
1:2
140
1.0
141
2.0
290
     0
  0
SCALE
  5
4A
102
{ACAD_REACTORS
330
47
102
}
330
47
100
AcDbScale
 70
     0
300
1:4
140
1.0
141
4.0
290
     0
  0
SCALE
  5
4B
102
{ACAD_REACTORS
330
47
102
}
330
47
100
AcDbScale
 70
     0
300
1:5
140
1.0
141
5.0
290
     0
  0
SCALE
  5
4C
102
{ACAD_REACTORS
330
47
102
}
330
47
100
AcDbScale
 70
     0
300
1:8
140
1.0
141
8.0
290
     0
  0
SCALE
  5
4D
102
{ACAD_REACTORS
330
47
102
}
330
47
100
AcDbScale
 70
     0
300
1:10
140
1.0
141
10.0
290
     0
  0
SCALE
  5
4E
102
{ACAD_REACTORS
330
47
102
}
330
47
100
AcDbScale
 70
     0
300
1:16
140
1.0
141
16.0
290
     0
  0
SCALE
  5
4F
102
{ACAD_REACTORS
330
47
102
}
330
47
100
AcDbScale
 70
     0
300
1:20
140
1.0
141
20.0
290
     0
  0
SCALE
  5
50
102
{ACAD_REACTORS
330
47
102
}
330
47
100
AcDbScale
 70
     0
300
1:30
140
1.0
141
30.0
290
     0
  0
SCALE
  5
51
102
{ACAD_REACTORS
330
47
102
}
330
47
100
AcDbScale
 70
     0
300
1:40
140
1.0
141
40.0
290
     0
  0
SCALE
  5
52
102
{ACAD_REACTORS
330
47
102
}
330
47
100
AcDbScale
 70
     0
300
1:50
140
1.0
141
50.0
290
     0
  0
SCALE
  5
53
102
{ACAD_REACTORS
330
47
102
}
330
47
100
AcDbScale
 70
     0
300
1:100
140
1.0
141
100.0
290
     0
  0
SCALE
  5
54
102
{ACAD_REACTORS
330
47
102
}
330
47
100
AcDbScale
 70
     0
300
2:1
140
2.0
141
1.0
290
     0
  0
SCALE
  5
55
102
{ACAD_REACTORS
330
47
102
}
330
47
100
AcDbScale
 70
     0
300
4:1
140
4.0
141
1.0
290
     0
  0
SCALE
  5
56
102
{ACAD_REACTORS
330
47
102
}
330
47
100
AcDbScale
 70
     0
300
8:1
140
8.0
141
1.0
290
     0
  0
SCALE
  5
57
102
{ACAD_REACTORS
330
47
102
}
330
47
100
AcDbScale
 70
     0
300
10:1
140
10.0
141
1.0
290
     0
  0
SCALE
  5
58
102
{ACAD_REACTORS
330
47
102
}
330
47
100
AcDbScale
 70
     0
300
100:1
140
100.0
141
1.0
290
     0
  0
SCALE
  5
59
102
{ACAD_REACTORS
330
47
102
}
330
47
100
AcDbScale
 70
     0
300
1/128" = 1'-0"
140
0.0078125
141
12.0
290
     0
  0
SCALE
  5
5A
102
{ACAD_REACTORS
330
47
102
}
330
47
100
AcDbScale
 70
     0
300
1/64" = 1'-0"
140
0.015625
141
12.0
290
     0
  0
SCALE
  5
5B
102
{ACAD_REACTORS
330
47
102
}
330
47
100
AcDbScale
 70
     0
300
1/32" = 1'-0"
140
0.03125
141
12.0
290
     0
  0
SCALE
  5
5C
102
{ACAD_REACTORS
330
47
102
}
330
47
100
AcDbScale
 70
     0
300
1/16" = 1'-0"
140
0.0625
141
12.0
290
     0
  0
SCALE
  5
5D
102
{ACAD_REACTORS
330
47
102
}
330
47
100
AcDbScale
 70
     0
300
3/32" = 1'-0"
140
0.09375
141
12.0
290
     0
  0
SCALE
  5
5E
102
{ACAD_REACTORS
330
47
102
}
330
47
100
AcDbScale
 70
     0
300
1/8" = 1'-0"
140
0.125
141
12.0
290
     0
  0
SCALE
  5
5F
102
{ACAD_REACTORS
330
47
102
}
330
47
100
AcDbScale
 70
     0
300
3/16" = 1'-0"
140
0.1875
141
12.0
290
     0
  0
SCALE
  5
60
102
{ACAD_REACTORS
330
47
102
}
330
47
100
AcDbScale
 70
     0
300
1/4" = 1'-0"
140
0.25
141
12.0
290
     0
  0
SCALE
  5
61
102
{ACAD_REACTORS
330
47
102
}
330
47
100
AcDbScale
 70
     0
300
3/8" = 1'-0"
140
0.375
141
12.0
290
     0
  0
SCALE
  5
62
102
{ACAD_REACTORS
330
47
102
}
330
47
100
AcDbScale
 70
     0
300
1/2" = 1'-0"
140
0.5
141
12.0
290
     0
  0
SCALE
  5
63
102
{ACAD_REACTORS
330
47
102
}
330
47
100
AcDbScale
 70
     0
300
3/4" = 1'-0"
140
0.75
141
12.0
290
     0
  0
SCALE
  5
64
102
{ACAD_REACTORS
330
47
102
}
330
47
100
AcDbScale
 70
     0
300
1" = 1'-0"
140
1.0
141
12.0
290
     0
  0
SCALE
  5
65
102
{ACAD_REACTORS
330
47
102
}
330
47
100
AcDbScale
 70
     0
300
1-1/2" = 1'-0"
140
1.5
141
12.0
290
     0
  0
SCALE
  5
66
102
{ACAD_REACTORS
330
47
102
}
330
47
100
AcDbScale
 70
     0
300
3" = 1'-0"
140
3.0
141
12.0
290
     0
  0
SCALE
  5
67
102
{ACAD_REACTORS
330
47
102
}
330
47
100
AcDbScale
 70
     0
300
6" = 1'-0"
140
6.0
141
12.0
290
     0
  0
SCALE
  5
68
102
{ACAD_REACTORS
330
47
102
}
330
47
100
AcDbScale
 70
     0
300
1'-0" = 1'-0"
140
12.0
141
12.0
290
     0
  0
ENDSEC
  0
EOF
