  0
SECTION
  2
HEADER
  9
$ACADVER
  1
AC1015
  9
$ACADMAINTVER
 70
     6
  9
$DWGCODEPAGE
  3
ANSI_1252
  9
$INSBASE
 10
0.0
 20
0.0
 30
0.0
  9
$EXTMIN
 10
-31.8933238634
 20
-32.0
 30
0.0
  9
$EXTMAX
 10
31.8933238634
 20
32.0
 30
0.0
  9
$LIMMIN
 10
0.0
 20
0.0
  9
$LIMMAX
 10
420.0
 20
297.0
  9
$ORTHOMODE
 70
     0
  9
$REGENMODE
 70
     1
  9
$FILLMODE
 70
     1
  9
$QTEXTMODE
 70
     0
  9
$MIRRTEXT
 70
     1
  9
$LTSCALE
 40
1.0
  9
$ATTMODE
 70
     1
  9
$TEXTSIZE
 40
3.5
  9
$TRACEWID
 40
1.0
  9
$TEXTSTYLE
  7
Standard
  9
$CLAYER
  8
0
  9
$CELTYPE
  6
ByLayer
  9
$CECOLOR
 62
   256
  9
$CELTSCALE
 40
1.0
  9
$DISPSILH
 70
     0
  9
$DIMSCALE
 40
1.0
  9
$DIMASZ
 40
6.0
  9
$DIMEXO
 40
1.0
  9
$DIMDLI
 40
3.75
  9
$DIMRND
 40
0.0
  9
$DIMDLE
 40
0.0
  9
$DIMEXE
 40
1.0
  9
$DIMTP
 40
0.0
  9
$DIMTM
 40
0.0
  9
$DIMTXT
 40
3.5
  9
$DIMCEN
 40
2.5
  9
$DIMTSZ
 40
0.0
  9
$DIMTOL
 70
     0
  9
$DIMLIM
 70
     0
  9
$DIMTIH
 70
     1
  9
$DIMTOH
 70
     1
  9
$DIMSE1
 70
     0
  9
$DIMSE2
 70
     0
  9
$DIMTAD
 70
     1
  9
$DIMZIN
 70
     0
  9
$DIMBLK
  1

  9
$DIMASO
 70
     1
  9
$DIMSHO
 70
     1
  9
$DIMPOST
  1

  9
$DIMAPOST
  1

  9
$DIMALT
 70
     0
  9
$DIMALTD
 70
     3
  9
$DIMALTF
 40
0.0393700787
  9
$DIMLFAC
 40
1.0
  9
$DIMTOFL
 70
     1
  9
$DIMTVP
 40
0.0
  9
$DIMTIX
 70
     0
  9
$DIMSOXD
 70
     0
  9
$DIMSAH
 70
     0
  9
$DIMBLK1
  1

  9
$DIMBLK2
  1

  9
$DIMSTYLE
  2
ISO-25
  9
$DIMCLRD
 70
     0
  9
$DIMCLRE
 70
     0
  9
$DIMCLRT
 70
     0
  9
$DIMTFAC
 40
1.0
  9
$DIMGAP
 40
1.524
  9
$DIMJUST
 70
     0
  9
$DIMSD1
 70
     0
  9
$DIMSD2
 70
     0
  9
$DIMTOLJ
 70
     0
  9
$DIMTZIN
 70
     0
  9
$DIMALTZ
 70
     0
  9
$DIMALTTZ
 70
     0
  9
$DIMUPT
 70
     0
  9
$DIMDEC
 70
     2
  9
$DIMTDEC
 70
     2
  9
$DIMALTU
 70
     2
  9
$DIMALTTD
 70
     3
  9
$DIMTXSTY
  7
Standard
  9
$DIMAUNIT
 70
     0
  9
$DIMADEC
 70
     2
  9
$DIMALTRND
 40
0.0
  9
$DIMAZIN
 70
     0
  9
$DIMDSEP
 70
    44
  9
$DIMATFIT
 70
     3
  9
$DIMFRAC
 70
     0
  9
$DIMLDRBLK
  1

  9
$DIMLUNIT
 70
     2
  9
$DIMLWD
 70
    -2
  9
$DIMLWE
 70
    -2
  9
$DIMTMOVE
 70
     0
  9
$LUNITS
 70
     2
  9
$LUPREC
 70
     2
  9
$SKETCHINC
 40
1.0
  9
$FILLETRAD
 40
10.0
  9
$AUNITS
 70
     0
  9
$AUPREC
 70
     2
  9
$MENU
  1
.
  9
$ELEVATION
 40
0.0
  9
$PELEVATION
 40
0.0
  9
$THICKNESS
 40
0.0
  9
$LIMCHECK
 70
     0
  9
$CHAMFERA
 40
0.0
  9
$CHAMFERB
 40
0.0
  9
$CHAMFERC
 40
0.0
  9
$CHAMFERD
 40
0.0
  9
$SKPOLY
 70
     0
  9
$TDCREATE
 40
2457780.641948461
  9
$TDUCREATE
 40
2457780.850281794
  9
$TDUPDATE
 40
2457780.641972986
  9
$TDUUPDATE
 40
2457780.85030632
  9
$TDINDWG
 40
0.0000000116
  9
$TDUSRTIMER
 40
0.0000000116
  9
$USRTIMER
 70
     1
  9
$ANGBASE
 50
0.0
  9
$ANGDIR
 70
     0
  9
$PDMODE
 70
     0
  9
$PDSIZE
 40
-1.0
  9
$PLINEWID
 40
0.0
  9
$SPLFRAME
 70
     0
  9
$SPLINETYPE
 70
     6
  9
$SPLINESEGS
 70
     8
  9
$HANDSEED
  5
167
  9
$SURFTAB1
 70
     6
  9
$SURFTAB2
 70
     6
  9
$SURFTYPE
 70
     6
  9
$SURFU
 70
     6
  9
$SURFV
 70
     6
  9
$UCSBASE
  2

  9
$UCSNAME
  2

  9
$UCSORG
 10
0.0
 20
0.0
 30
0.0
  9
$UCSXDIR
 10
1.0
 20
0.0
 30
0.0
  9
$UCSYDIR
 10
0.0
 20
1.0
 30
0.0
  9
$UCSORTHOREF
  2

  9
$UCSORTHOVIEW
 70
     0
  9
$UCSORGTOP
 10
0.0
 20
0.0
 30
0.0
  9
$UCSORGBOTTOM
 10
0.0
 20
0.0
 30
0.0
  9
$UCSORGLEFT
 10
0.0
 20
0.0
 30
0.0
  9
$UCSORGRIGHT
 10
0.0
 20
0.0
 30
0.0
  9
$UCSORGFRONT
 10
0.0
 20
0.0
 30
0.0
  9
$UCSORGBACK
 10
0.0
 20
0.0
 30
0.0
  9
$PUCSBASE
  2

  9
$PUCSNAME
  2

  9
$PUCSORG
 10
0.0
 20
0.0
 30
0.0
  9
$PUCSXDIR
 10
1.0
 20
0.0
 30
0.0
  9
$PUCSYDIR
 10
0.0
 20
1.0
 30
0.0
  9
$PUCSORTHOREF
  2

  9
$PUCSORTHOVIEW
 70
     0
  9
$PUCSORGTOP
 10
0.0
 20
0.0
 30
0.0
  9
$PUCSORGBOTTOM
 10
0.0
 20
0.0
 30
0.0
  9
$PUCSORGLEFT
 10
0.0
 20
0.0
 30
0.0
  9
$PUCSORGRIGHT
 10
0.0
 20
0.0
 30
0.0
  9
$PUCSORGFRONT
 10
0.0
 20
0.0
 30
0.0
  9
$PUCSORGBACK
 10
0.0
 20
0.0
 30
0.0
  9
$USERI1
 70
     0
  9
$USERI2
 70
     0
  9
$USERI3
 70
     0
  9
$USERI4
 70
     0
  9
$USERI5
 70
     0
  9
$USERR1
 40
0.0
  9
$USERR2
 40
0.0
  9
$USERR3
 40
0.0
  9
$USERR4
 40
0.0
  9
$USERR5
 40
0.0
  9
$WORLDVIEW
 70
     1
  9
$SHADEDGE
 70
     3
  9
$SHADEDIF
 70
    70
  9
$TILEMODE
 70
     1
  9
$MAXACTVP
 70
    64
  9
$PINSBASE
 10
0.0
 20
0.0
 30
0.0
  9
$PLIMCHECK
 70
     0
  9
$PEXTMIN
 10
1.0000000000E+20
 20
1.0000000000E+20
 30
1.0000000000E+20
  9
$PEXTMAX
 10
-1.0000000000E+20
 20
-1.0000000000E+20
 30
-1.0000000000E+20
  9
$PLIMMIN
 10
0.0
 20
0.0
  9
$PLIMMAX
 10
420.0
 20
297.0
  9
$UNITMODE
 70
     0
  9
$VISRETAIN
 70
     1
  9
$PLINEGEN
 70
     0
  9
$PSLTSCALE
 70
     1
  9
$TREEDEPTH
 70
  3020
  9
$CMLSTYLE
  2
Standard
  9
$CMLJUST
 70
     0
  9
$CMLSCALE
 40
20.0
  9
$PROXYGRAPHICS
 70
     1
  9
$MEASUREMENT
 70
     1
  9
$CELWEIGHT
370
    -1
  9
$ENDCAPS
280
     0
  9
$JOINSTYLE
280
     0
  9
$LWDISPLAY
290
     1
  9
$INSUNITS
 70
     4
  9
$HYPERLINKBASE
  1

  9
$STYLESHEET
  1

  9
$XEDIT
290
     1
  9
$CEPSNTYPE
380
     0
  9
$PSTYLEMODE
290
     1
  9
$FINGERPRINTGUID
  2
{ECD2F3D1-6FD2-4BAB-A2D0-F1FF3C01D9BE}
  9
$VERSIONGUID
  2
{FAEB1C32-E019-11D5-929B-00C0DF256EC4}
  9
$EXTNAMES
290
     1
  9
$PSVPSCALE
 40
0.0
  9
$OLESTARTUP
290
     0
  0
ENDSEC
  0
SECTION
  2
CLASSES
  0
CLASS
  1
ACDBDICTIONARYWDFLT
  2
AcDbDictionaryWithDefault
  3
ObjectDBX Classes
 90
        0
280
     0
281
     0
  0
CLASS
  1
VISUALSTYLE
  2
AcDbVisualStyle
  3
ObjectDBX Classes
 90
     4095
280
     0
281
     0
  0
CLASS
  1
MATERIAL
  2
AcDbMaterial
  3
ObjectDBX Classes
 90
     1153
280
     0
281
     0
  0
CLASS
  1
SCALE
  2
AcDbScale
  3
ObjectDBX Classes
 90
     1153
280
     0
281
     0
  0
CLASS
  1
TABLESTYLE
  2
AcDbTableStyle
  3
ObjectDBX Classes
 90
     4095
280
     0
281
     0
  0
CLASS
  1
MLEADERSTYLE
  2
AcDbMLeaderStyle
  3
ACDB_MLEADERSTYLE_CLASS
 90
     4095
280
     0
281
     0
  0
CLASS
  1
SUN
  2
AcDbSun
  3
SCENEOE
 90
     1153
280
     0
281
     0
  0
CLASS
  1
ACDBPLACEHOLDER
  2
AcDbPlaceHolder
  3
ObjectDBX Classes
 90
        0
280
     0
281
     0
  0
CLASS
  1
LAYOUT
  2
AcDbLayout
  3
ObjectDBX Classes
 90
        0
280
     0
281
     0
  0
ENDSEC
  0
SECTION
  2
TABLES
  0
TABLE
  2
VPORT
  5
8
330
0
100
AcDbSymbolTable
 70
     1
  0
VPORT
  5
29
330
8
100
AcDbSymbolTableRecord
100
AcDbViewportTableRecord
  2
*Active
 70
     0
 10
0.0
 20
0.0
 11
1.0
 21
1.0
 12
0.0
 22
0.0
 13
0.0
 23
0.0
 14
10.0
 24
10.0
 15
10.0
 25
10.0
 16
0.0
 26
0.0
 36
1.0
 17
0.0
 27
0.0
 37
0.0
 40
65.28
 41
0.9966663707
 42
50.0
 43
0.0
 44
0.0
 50
0.0
 51
0.0
 71
     0
 72
   100
 73
     1
 74
     3
 75
     0
 76
     0
 77
     0
 78
     0
281
     0
 65
     1
110
0.0
120
0.0
130
0.0
111
1.0
121
0.0
131
0.0
112
0.0
122
1.0
132
0.0
 79
     0
146
0.0
  0
ENDTAB
  0
TABLE
  2
LTYPE
  5
5
330
0
100
AcDbSymbolTable
 70
     6
  0
LTYPE
  5
14
330
5
100
AcDbSymbolTableRecord
100
AcDbLinetypeTableRecord
  2
ByBlock
 70
     0
  3

 72
    65
 73
     0
 40
0.0
  0
LTYPE
  5
15
330
5
100
AcDbSymbolTableRecord
100
AcDbLinetypeTableRecord
  2
ByLayer
 70
     0
  3

 72
    65
 73
     0
 40
0.0
  0
LTYPE
  5
16
330
5
100
AcDbSymbolTableRecord
100
AcDbLinetypeTableRecord
  2
Continuous
 70
     0
  3
Solid line
 72
    65
 73
     0
 40
0.0
  0
LTYPE
  5
6E
330
5
100
AcDbSymbolTableRecord
100
AcDbLinetypeTableRecord
  2
HIDDEN
 70
     0
  3
Hidden __ __ __ __ __ __ __ __ __ __ __ __ __ __
 72
    65
 73
     2
 40
1.905
 49
1.27
 74
     0
 49
-0.635
 74
     0
  0
LTYPE
  5
6F
330
5
100
AcDbSymbolTableRecord
100
AcDbLinetypeTableRecord
  2
PHANTOM
 70
     0
  3
Phantom ______  __  __  ______  __  __  ______
 72
    65
 73
     6
 40
12.7
 49
6.35
 74
     0
 49
-1.27
 74
     0
 49
1.27
 74
     0
 49
-1.27
 74
     0
 49
1.27
 74
     0
 49
-1.27
 74
     0
  0
LTYPE
  5
70
330
5
100
AcDbSymbolTableRecord
100
AcDbLinetypeTableRecord
  2
CENTER
 70
     0
  3
Center ____ _ ____ _ ____ _ ____ _ ____ _ ____
 72
    65
 73
     4
 40
10.16
 49
6.35
 74
     0
 49
-1.27
 74
     0
 49
1.27
 74
     0
 49
-1.27
 74
     0
  0
LTYPE
  5
71
330
5
100
AcDbSymbolTableRecord
100
AcDbLinetypeTableRecord
  2
CENTERX2
 70
     0
  3
Center (2x) ________  __  ________  __  _____
 72
    65
 73
     4
 40
20.32
 49
12.7
 74
     0
 49
-2.54
 74
     0
 49
2.54
 74
     0
 49
-2.54
 74
     0
  0
LTYPE
  5
72
330
5
100
AcDbSymbolTableRecord
100
AcDbLinetypeTableRecord
  2
DOT2
 70
     0
  3
Dot (.5x) ........................................
 72
    65
 73
     2
 40
0.635
 49
0.0
 74
     0
 49
-0.635
 74
     0
  0
ENDTAB
  0
TABLE
  2
LAYER
  5
2
330
0
100
AcDbSymbolTable
 70
     1
  0
LAYER
  5
10
330
2
100
AcDbSymbolTableRecord
100
AcDbLayerTableRecord
  2
0
 70
     0
 62
     7
  6
Continuous
370
    -3
390
F
  0
ENDTAB
  0
TABLE
  2
STYLE
  5
3
330
0
100
AcDbSymbolTable
 70
     2
  0
STYLE
  5
11
330
3
100
AcDbSymbolTableRecord
100
AcDbTextStyleTableRecord
  2
Standard
 70
     0
 40
0.0
 41
1.0
 50
0.0
 71
     0
 42
3.5
  3
txt
  4

  0
STYLE
  5
164
330
3
100
AcDbSymbolTableRecord
100
AcDbTextStyleTableRecord
  2
SLDTEXTSTYLE0
 70
     0
 40
0.0
 41
0.7
 50
0.0
 71
     0
 42
3.5
  3
TXT
  4

  0
ENDTAB
  0
TABLE
  2
VIEW
  5
6
330
0
100
AcDbSymbolTable
 70
     0
  0
ENDTAB
  0
TABLE
  2
UCS
  5
7
330
0
100
AcDbSymbolTable
 70
     0
  0
ENDTAB
  0
TABLE
  2
APPID
  5
9
330
0
100
AcDbSymbolTable
 70
     1
  0
APPID
  5
12
330
9
100
AcDbSymbolTableRecord
100
AcDbRegAppTableRecord
  2
ACAD
 70
     0
  0
ENDTAB
  0
TABLE
  2
DIMSTYLE
  5
A
330
0
100
AcDbSymbolTable
 70
     1
100
AcDbDimStyleTable
  0
DIMSTYLE
105
27
330
A
100
AcDbSymbolTableRecord
100
AcDbDimStyleTableRecord
  2
ISO-25
 70
     0
 41
2.5
 42
0.625
 43
3.75
 44
1.25
 73
     0
 74
     0
 77
     1
 78
     8
140
2.5
141
2.5
143
0.0393700787
147
0.625
171
     3
172
     1
178
     0
271
     2
272
     2
274
     3
278
    44
283
     0
284
     8
340
11
  0
ENDTAB
  0
TABLE
  2
BLOCK_RECORD
  5
1
330
0
100
AcDbSymbolTable
 70
     1
  0
BLOCK_RECORD
  5
1F
330
1
100
AcDbSymbolTableRecord
100
AcDbBlockTableRecord
  2
*Model_Space
340
22
  0
BLOCK_RECORD
  5
1B
330
1
100
AcDbSymbolTableRecord
100
AcDbBlockTableRecord
  2
*Paper_Space
340
1E
  0
BLOCK_RECORD
  5
23
330
1
100
AcDbSymbolTableRecord
100
AcDbBlockTableRecord
  2
*Paper_Space0
340
26
  0
ENDTAB
  0
ENDSEC
  0
SECTION
  2
BLOCKS
  0
BLOCK
  5
20
330
1F
100
AcDbEntity
  8
0
100
AcDbBlockBegin
  2
*Model_Space
 70
     0
 10
0.0
 20
0.0
 30
0.0
  3
*Model_Space
  1

  0
ENDBLK
  5
21
330
1F
100
AcDbEntity
  8
0
100
AcDbBlockEnd
  0
BLOCK
  5
1C
330
1B
100
AcDbEntity
 67
     1
  8
0
100
AcDbBlockBegin
  2
*Paper_Space
 70
     0
 10
0.0
 20
0.0
 30
0.0
  3
*Paper_Space
  1

  0
ENDBLK
  5
1D
330
1B
100
AcDbEntity
 67
     1
  8
0
100
AcDbBlockEnd
  0
BLOCK
  5
24
330
23
100
AcDbEntity
  8
0
100
AcDbBlockBegin
  2
*Paper_Space0
 70
     0
 10
0.0
 20
0.0
 30
0.0
  3
*Paper_Space0
  1

  0
ENDBLK
  5
25
330
23
100
AcDbEntity
  8
0
100
AcDbBlockEnd
  0
ENDSEC
  0
SECTION
  2
ENTITIES
  0
CIRCLE
  5
73
330
1F
100
AcDbEntity
  8
0
  6
Continuous
 62
     7
370
    25
100
AcDbCircle
 10
0.0
 20
0.0
 30
0.0
 40
3.0
  0
SPLINE
  5
74
330
1F
100
AcDbEntity
  8
0
  6
Continuous
 62
     7
370
    25
100
AcDbSpline
210
0.0
220
0.0
230
1.0
 70
     8
 71
     3
 72
    15
 73
    11
 74
     0
 42
0.000000001
 43
0.00000001
 40
0.0
 40
0.0
 40
0.0
 40
0.0
 40
0.1038470769322736
 40
0.1737992859881159
 40
0.2557706103176525
 40
0.3497610505187547
 40
0.4557706069859365
 40
0.573799279993188
 40
0.7038470697385366
 40
0.7135890889256654
 40
0.7135890889256654
 40
0.7135890889256654
 40
0.7135890889256654
 10
-28.5127409323224
 20
-1.104446751686252
 30
0.0
 10
-28.68985613152844
 20
-1.139470024213817
 30
0.0
 10
-28.98277100770123
 20
-1.214492134710881
 30
0.0
 10
-29.4057537010764
 20
-1.351767251100576
 30
0.0
 10
-29.8058040000043
 20
-1.502699092323462
 30
0.0
 10
-30.25588850844655
 20
-1.697078815164668
 30
0.0
 10
-30.75267105553386
 20
-1.939919708018108
 30
0.0
 10
-31.29245926213471
 20
-2.235987366558462
 30
0.0
 10
-31.67491972945626
 20
-2.469810345340666
 30
0.0
 10
-31.87910923476722
 20
-2.601523567962365
 30
0.0
 10
-31.89332386342401
 20
-2.610726516268763
 30
0.0
  0
ARC
  5
75
330
1F
100
AcDbEntity
  8
0
  6
Continuous
 62
     7
370
    25
100
AcDbCircle
 10
0.0
 20
0.0
 30
0.0
 40
32.0
100
AcDbArc
 50
184.6796891117
 51
187.3203108883
  0
SPLINE
  5
76
330
1F
100
AcDbEntity
  8
0
  6
Continuous
 62
     7
370
    25
100
AcDbSpline
210
0.0
220
0.0
230
1.0
 70
     8
 71
     3
 72
    15
 73
    11
 74
     0
 42
0.000000001
 43
0.00000001
 40
0.2864109110743343
 40
0.2864109110743343
 40
0.2864109110743343
 40
0.2864109110743343
 40
0.2961529302614634
 40
0.426200720006812
 40
0.5442293930140635
 40
0.6502389494812453
 40
0.7442293896823475
 40
0.8262007140118841
 40
0.8961529230677264
 40
1.0
 40
1.0
 40
1.0
 40
1.0
 10
-31.7391787806947
 20
-4.077319012181841
 30
0.0
 10
-31.72336137523585
 20
-4.083365466509044
 30
0.0
 10
-31.49624918170257
 20
-4.169747053904936
 30
0.0
 10
-31.07353186234582
 20
-4.318942437165415
 30
0.0
 10
-30.48398339567122
 20
-4.49631202830368
 30
0.0
 10
-29.94756727851849
 20
-4.630559365674664
 30
0.0
 10
-29.46690437962165
 20
-4.727113594041991
 30
0.0
 10
-29.0442156452456
 20
-4.791572078346253
 30
0.0
 10
-28.60193503701296
 20
-4.837904357117013
 30
0.0
 10
-28.29982307982315
 20
-4.85038662733095
 30
0.0
 10
-28.1192965248571
 20
-4.847820236787185
 30
0.0
  0
LINE
  5
77
330
1F
100
AcDbEntity
  8
0
  6
Continuous
 62
     7
370
    25
100
AcDbLine
 10
-28.1192965249
 20
-4.8478202368
 30
0.0
 11
-28.0611070044
 21
-4.8483748054
 31
0.0
  0
SPLINE
  5
78
330
1F
100
AcDbEntity
  8
0
  6
Continuous
 62
     7
370
    25
100
AcDbSpline
210
0.0
220
0.0
230
1.0
 70
     8
 71
     3
 72
    15
 73
    11
 74
     0
 42
0.000000001
 43
0.00000001
 40
0.0
 40
0.0
 40
0.0
 40
0.0
 40
0.116824388060492
 40
0.1947561360372789
 40
0.2749300010688125
 40
0.3600226580694308
 40
0.4538017178728536
 40
0.5612445088623751
 40
0.6877527338530942
 40
1.0
 40
1.0
 40
1.0
 40
1.0
 10
-28.06110700444112
 20
-4.84837480535194
 30
0.0
 10
-28.00337603090145
 20
-4.847725560992055
 30
0.0
 10
-27.90715518766493
 20
-4.852822116010505
 30
0.0
 10
-27.77228853733379
 20
-4.869737997915607
 30
0.0
 10
-27.65441130748576
 20
-4.893752478243932
 30
0.0
 10
-27.53160421109508
 20
-4.930529954551989
 30
0.0
 10
-27.40114863128867
 20
-4.986178738984734
 30
0.0
 10
-27.26212294718921
 20
-5.070504295462268
 30
0.0
 10
-27.05895444645635
 20
-5.250945500399339
 30
0.0
 10
-26.95426088432448
 20
-5.450019633710472
 30
0.0
 10
-26.92334223040189
 20
-5.602110597324767
 30
0.0
  0
ARC
  5
79
330
1F
100
AcDbEntity
  8
0
  6
Continuous
 62
     7
370
    25
100
AcDbCircle
 10
0.0
 20
0.0
 30
0.0
 40
27.5
100
AcDbArc
 50
191.7541762546
 51
192.2458237454
  0
SPLINE
  5
7A
330
1F
100
AcDbEntity
  8
0
  6
Continuous
 62
     7
370
    25
100
AcDbSpline
210
0.0
220
0.0
230
1.0
 70
     8
 71
     3
 72
    15
 73
    11
 74
     0
 42
0.000000001
 43
0.00000001
 40
0.0
 40
0.0
 40
0.0
 40
0.0
 40
0.3122472661469057
 40
0.4387554911376247
 40
0.5461982821271463
 40
0.639977341930569
 40
0.7250699989311875
 40
0.8052438639627211
 40
0.883175611939508
 40
1.0
 40
1.0
 40
1.0
 40
1.0
 10
-26.8742806576362
 20
-5.832927149776553
 30
0.0
 10
-26.84066528550097
 20
-5.984444908239777
 30
0.0
 10
-26.85533686892479
 20
-6.208890886473469
 30
0.0
 10
-26.96754847993668
 20
-6.456368203582108
 30
0.0
 10
-27.06025646837425
 20
-6.589950272717275
 30
0.0
 10
-27.15679917095909
 20
-6.693849031560102
 30
0.0
 10
-27.25403028877874
 20
-6.777397074116721
 30
0.0
 10
-27.35194892755194
 20
-6.847280382301768
 30
0.0
 10
-27.46827543432869
 20
-6.917589017996756
 30
0.0
 10
-27.55410459291851
 20
-6.961381495455435
 30
0.0
 10
-27.60710853303242
 20
-6.984269683598578
 30
0.0
  0
LINE
  5
7B
330
1F
100
AcDbEntity
  8
0
  6
Continuous
 62
     7
370
    25
100
AcDbLine
 10
-27.607108533
 20
-6.9842696836
 30
0.0
 11
-27.6600417417
 21
-7.0084441174
 31
0.0
  0
SPLINE
  5
7C
330
1F
100
AcDbEntity
  8
0
  6
Continuous
 62
     7
370
    25
100
AcDbSpline
210
0.0
220
0.0
230
1.0
 70
     8
 71
     3
 72
    15
 73
    11
 74
     0
 42
0.000000001
 43
0.00000001
 40
0.0
 40
0.0
 40
0.0
 40
0.0
 40
0.1038470769322736
 40
0.1737992859881159
 40
0.2557706103176525
 40
0.3497610505187547
 40
0.4557706069859365
 40
0.573799279993188
 40
0.7038470697385366
 40
0.7135890889256647
 40
0.7135890889256647
 40
0.7135890889256647
 40
0.7135890889256647
 10
-27.66004174173445
 20
-7.008444117388045
 30
0.0
 10
-27.82600480108216
 20
-7.079526367917182
 30
0.0
 10
-28.09692081058765
 20
-7.213809492472631
 30
0.0
 10
-28.48211921570871
 20
-7.436027865175946
 30
0.0
 10
-28.84204696147098
 20
-7.666836617604698
 30
0.0
 10
-29.24188222669462
 20
-7.950546508294234
 30
0.0
 10
-29.67731942258166
 20
-8.291367644332558
 30
0.0
 10
-30.14375603428909
 20
-8.693193792906548
 30
0.0
 10
-30.46924429190454
 20
-9.001425181030566
 30
0.0
 10
-30.64158704780115
 20
-9.172713539019343
 30
0.0
 10
-30.65357765217421
 20
-9.1846707683033
 30
0.0
  0
ARC
  5
7D
330
1F
100
AcDbEntity
  8
0
  6
Continuous
 62
     7
370
    25
100
AcDbCircle
 10
0.0
 20
0.0
 30
0.0
 40
32.00000000000001
100
AcDbArc
 50
196.6796891117
 51
199.3203108883
  0
SPLINE
  5
7E
330
1F
100
AcDbEntity
  8
0
  6
Continuous
 62
     7
370
    25
100
AcDbSpline
210
0.0
220
0.0
230
1.0
 70
     8
 71
     3
 72
    15
 73
    11
 74
     0
 42
0.000000001
 43
0.00000001
 40
0.2864109110743336
 40
0.2864109110743336
 40
0.2864109110743336
 40
0.2864109110743336
 40
0.2961529302614634
 40
0.426200720006812
 40
0.5442293930140635
 40
0.6502389494812453
 40
0.7442293896823475
 40
0.8262007140118841
 40
0.8961529230677264
 40
1.0
 40
1.0
 40
1.0
 40
1.0
 10
-30.19787928377171
 20
-10.58716613465339
 30
0.0
 10
-30.18115039802968
 20
-10.58979183593319
 30
0.0
 10
-29.94104140893671
 20
-10.62706649822923
 30
0.0
 10
-29.49654201282339
 20
-10.68511373180061
 30
0.0
 10
-28.88299938303613
 20
-10.73603335329031
 30
0.0
 10
-28.33039365414765
 20
-10.75581988234551
 30
0.0
 10
-27.84015963995449
 20
-10.75032873314071
 30
0.0
 10
-27.4133059961081
 20
-10.72549671545612
 30
0.0
 10
-26.97105725789559
 20
-10.67886121369872
 30
0.0
 10
-26.67295196191196
 20
-10.62825810852459
 30
0.0
 10
-26.49690392790043
 20
-10.58821421849117
 30
0.0
  0
LINE
  5
7F
330
1F
100
AcDbEntity
  8
0
  6
Continuous
 62
     7
370
    25
100
AcDbLine
 10
-26.4969039279
 20
-10.5882142185
 30
0.0
 11
-26.4398706868
 21
-10.5766583868
 31
0.0
  0
SPLINE
  5
80
330
1F
100
AcDbEntity
  8
0
  6
Continuous
 62
     7
370
    25
100
AcDbSpline
210
0.0
220
0.0
230
1.0
 70
     8
 71
     3
 72
    15
 73
    11
 74
     0
 42
0.000000001
 43
0.00000001
 40
0.0
 40
0.0
 40
0.0
 40
0.0
 40
0.116824388060492
 40
0.1947561360372789
 40
0.2749300010688125
 40
0.3600226580694308
 40
0.4538017178728536
 40
0.5612445088623751
 40
0.6877527338530942
 40
1.0
 40
1.0
 40
1.0
 40
1.0
 10
-26.43987068682971
 20
-10.57665838682466
 30
0.0
 10
-26.38353625906649
 20
-10.56402038569056
 30
0.0
 10
-26.28835843874287
 20
-10.54900013054465
 30
0.0
 10
-26.15292193869389
 20
-10.53750600653915
 30
0.0
 10
-26.03262771792772
 20
-10.53648765868855
 30
0.0
 10
-25.90485778395687
 20
-10.54692842784532
 30
0.0
 10
-25.76568293870353
 20
-10.5742379126478
 30
0.0
 10
-25.61216303033488
 20
-10.62781568834862
 30
0.0
 10
-25.37591841278669
 20
-10.76207271352306
 30
0.0
 10
-25.23212281652033
 20
-10.93502958386894
 30
0.0
 10
-25.17025831996487
 20
-11.07736864540669
 30
0.0
  0
ARC
  5
81
330
1F
100
AcDbEntity
  8
0
  6
Continuous
 62
     7
370
    25
100
AcDbCircle
 10
0.0
 20
0.0
 30
0.0
 40
27.5
100
AcDbArc
 50
203.7541762546
 51
204.2458237454
  0
SPLINE
  5
82
330
1F
100
AcDbEntity
  8
0
  6
Continuous
 62
     7
370
    25
100
AcDbSpline
210
0.0
220
0.0
230
1.0
 70
     8
 71
     3
 72
    15
 73
    11
 74
     0
 42
0.000000001
 43
0.00000001
 40
0.0
 40
0.0
 40
0.0
 40
0.0
 40
0.3122472661469057
 40
0.4387554911376247
 40
0.5461982821271463
 40
0.639977341930569
 40
0.7250699989311875
 40
0.8052438639627211
 40
0.883175611939508
 40
1.0
 40
1.0
 40
1.0
 40
1.0
 10
-25.07427940058691
 20
-11.29294082784917
 30
0.0
 10
-25.00989629163405
 20
-11.43415853090043
 30
0.0
 10
-24.97758232292722
 20
-11.65675021972069
 30
0.0
 10
-25.03588841357387
 20
-11.92214966946141
 30
0.0
 10
-25.0987972361761
 20
-12.0720877245154
 30
0.0
 10
-25.17162848245295
 20
-12.19378840272726
 30
0.0
 10
-25.24936425227245
 20
-12.29572620620601
 30
0.0
 10
-25.33061357709089
 20
-12.38444082618846
 30
0.0
 10
-25.42978008326986
 20
-12.47739869021526
 30
0.0
 10
-25.50462870078397
 20
-12.53807908245553
 30
0.0
 10
-25.55171565573923
 20
-12.57148724758198
 30
0.0
  0
LINE
  5
83
330
1F
100
AcDbEntity
  8
0
  6
Continuous
 62
     7
370
    25
100
AcDbLine
 10
-25.5517156557
 20
-12.5714872476
 30
0.0
 11
-25.5984659994
 21
-12.6061388449
 31
0.0
  0
SPLINE
  5
84
330
1F
100
AcDbEntity
  8
0
  6
Continuous
 62
     7
370
    25
100
AcDbSpline
210
0.0
220
0.0
230
1.0
 70
     8
 71
     3
 72
    15
 73
    11
 74
     0
 42
0.000000001
 43
0.00000001
 40
0.0
 40
0.0
 40
0.0
 40
0.0
 40
0.1038470769322736
 40
0.1737992859881159
 40
0.2557706103176525
 40
0.3497610505187547
 40
0.4557706069859365
 40
0.573799279993188
 40
0.7038470697385366
 40
0.7135890889256666
 40
0.7135890889256666
 40
0.7135890889256666
 40
0.7135890889256666
 10
-25.59846599942654
 20
-12.60613884491389
 30
0.0
 10
-25.74602353684329
 20
-12.71017343800599
 30
0.0
 10
-25.98310035006685
 20
-12.89784875971483
 30
0.0
 10
-26.31367944824298
 20
-13.19529837952257
 30
0.0
 10
-26.61775407122488
 20
-13.49589659313278
 30
0.0
 10
-26.94986537351717
 20
-13.85653716805641
 30
0.0
 10
-27.30492652328417
 20
-14.28044302819349
 30
0.0
 10
-27.6776260219554
 20
-14.77046593593264
 30
0.0
 10
-27.93191667114101
 20
-15.13963454267916
 30
0.0
 10
-28.06488047219829
 20
-15.34301191285817
 30
0.0
 10
-28.07412300533923
 20
-15.35720083482283
 30
0.0
  0
ARC
  5
85
330
1F
100
AcDbEntity
  8
0
  6
Continuous
 62
     7
370
    25
100
AcDbCircle
 10
0.0
 20
0.0
 30
0.0
 40
32.0
100
AcDbArc
 50
208.6796891117
 51
211.3203108883
  0
SPLINE
  5
86
330
1F
100
AcDbEntity
  8
0
  6
Continuous
 62
     7
370
    25
100
AcDbSpline
210
0.0
220
0.0
230
1.0
 70
     8
 71
     3
 72
    15
 73
    11
 74
     0
 42
0.000000001
 43
0.00000001
 40
0.2864109110743331
 40
0.2864109110743331
 40
0.2864109110743331
 40
0.2864109110743331
 40
0.2961529302614634
 40
0.426200720006812
 40
0.5442293930140635
 40
0.6502389494812453
 40
0.7442293896823475
 40
0.8262007140118841
 40
0.8961529230677264
 40
1.0
 40
1.0
 40
1.0
 40
1.0
 10
-27.33678755664607
 20
-16.63430329418098
 30
0.0
 10
-27.31987832320189
 20
-16.63339348666794
 30
0.0
 10
-27.07726645354336
 20
-16.61993214225811
 30
0.0
 10
-26.63041173722836
 20
-16.5842942834918
 30
0.0
 10
-26.01968970135432
 20
-16.50653850353438
 30
0.0
 10
-25.47504588277902
 20
-16.4109994580078
 30
0.0
 10
-24.99666633211358
 20
-16.30370292080057
 30
0.0
 10
-24.58430333130398
 20
-16.19066567945718
 30
0.0
 10
-24.16141485511637
 20
-16.05310059238037
 30
0.0
 10
-23.88034485224133
 20
-15.94162371033494
 30
0.0
 10
-23.71646948304281
 20
-15.86585243095821
 30
0.0
  0
LINE
  5
87
330
1F
100
AcDbEntity
  8
0
  6
Continuous
 62
     7
370
    25
100
AcDbLine
 10
-23.716469483
 20
-15.865852431
 30
0.0
 11
-23.6630851476
 21
-15.8426912444
 31
0.0
  0
SPLINE
  5
88
330
1F
100
AcDbEntity
  8
0
  6
Continuous
 62
     7
370
    25
100
AcDbSpline
210
0.0
220
0.0
230
1.0
 70
     8
 71
     3
 72
    15
 73
    11
 74
     0
 42
0.000000001
 43
0.00000001
 40
0.0
 40
0.0
 40
0.0
 40
0.0
 40
0.116824388060492
 40
0.1947561360372789
 40
0.2749300010688125
 40
0.3600226580694308
 40
0.4538017178728536
 40
0.5612445088623751
 40
0.6877527338530942
 40
1.0
 40
1.0
 40
1.0
 40
1.0
 10
-23.66308514762801
 20
-15.84269124435531
 30
0.0
 10
-23.61060935045704
 20
-15.81861682774042
 30
0.0
 10
-23.52063428050832
 20
-15.7841362196552
 30
0.0
 10
-23.39054715569008
 20
-15.74473443811306
 30
0.0
 10
-23.27309337868897
 20
-15.71872776877119
 30
0.0
 10
-23.14594476636065
 20
-15.70237551906414
 30
0.0
 10
-23.00413326423295
 20
-15.70015214870504
 30
0.0
 10
-22.84282868826106
 20
-15.72064053773635
 30
0.0
 10
-22.58383297731184
 20
-15.80284570691134
 30
0.0
 10
-22.40721990447566
 20
-15.9421262691187
 30
0.0
 10
-22.3171133406456
 20
-16.06849252857212
 30
0.0
  0
ARC
  5
89
330
1F
100
AcDbEntity
  8
0
  6
Continuous
 62
     7
370
    25
100
AcDbCircle
 10
0.0
 20
0.0
 30
0.0
 40
27.5
100
AcDbArc
 50
215.7541762546
 51
216.2458237454
  0
SPLINE
  5
8A
330
1F
100
AcDbEntity
  8
0
  6
Continuous
 62
     7
370
    25
100
AcDbSpline
210
0.0
220
0.0
230
1.0
 70
     8
 71
     3
 72
    15
 73
    11
 74
     0
 42
0.000000001
 43
0.00000001
 40
0.0
 40
0.0
 40
0.0
 40
0.0
 40
0.3122472661469057
 40
0.4387554911376247
 40
0.5461982821271463
 40
0.639977341930569
 40
0.7250699989311875
 40
0.8052438639627211
 40
0.883175611939508
 40
1.0
 40
1.0
 40
1.0
 40
1.0
 10
-22.17841181399014
 20
-16.25939880220245
 30
0.0
 10
-22.08607481902533
 20
-16.38414455858069
 30
0.0
 10
-22.00818757367995
 20
-16.59515363307264
 30
0.0
 10
-22.01003988801645
 20
-16.86687598596393
 30
0.0
 10
-22.0404001273656
 20
-17.02661701444826
 30
0.0
 10
-22.08633684238906
 20
-17.16080070840666
 30
0.0
 10
-22.14117983804968
 20
-17.27667310164366
 30
0.0
 10
-22.20220886354127
 20
-17.38034177883031
 30
0.0
 10
-22.27988131694877
 20
-17.49188616646962
 30
0.0
 10
-22.34047814963828
 20
-17.56680244917376
 30
0.0
 10
-22.37959019355507
 20
-17.60927049415732
 30
0.0
  0
LINE
  5
8B
330
1F
100
AcDbEntity
  8
0
  6
Continuous
 62
     7
370
    25
100
AcDbLine
 10
-22.3795901936
 20
-17.6092704942
 30
0.0
 11
-22.4181144579
 21
-17.652884814
 31
0.0
  0
SPLINE
  5
8C
330
1F
100
AcDbEntity
  8
0
  6
Continuous
 62
     7
370
    25
100
AcDbSpline
210
0.0
220
0.0
230
1.0
 70
     8
 71
     3
 72
    15
 73
    11
 74
     0
 42
0.000000001
 43
0.00000001
 40
0.0
 40
0.0
 40
0.0
 40
0.0
 40
0.1038470769322736
 40
0.1737992859881159
 40
0.2557706103176525
 40
0.3497610505187547
 40
0.4557706069859365
 40
0.573799279993188
 40
0.7038470697385366
 40
0.7135890889256666
 40
0.7135890889256666
 40
0.7135890889256666
 40
0.7135890889256666
 10
-22.41811445787547
 20
-17.65288481395146
 30
0.0
 10
-22.54081750091655
 20
-17.78532493867505
 30
0.0
 10
-22.73369372349953
 20
-18.01819014541248
 30
0.0
 10
-22.99520562184594
 20
-18.37787103661742
 30
0.0
 10
-23.23013760191122
 20
-18.73512112704405
 30
0.0
 10
-23.48001008371514
 20
-19.15693066253214
 30
0.0
 10
-23.73917731134486
 20
-19.64539452655398
 30
0.0
 10
-24.00185094047733
 20
-20.2021978409993
 30
0.0
 10
-24.17383025964178
 20
-20.61616922678597
 30
0.0
 10
-24.26160394972241
 20
-20.8427470421655
 30
0.0
 10
-24.26769446858237
 20
-20.858547532835
 30
0.0
  0
ARC
  5
8D
330
1F
100
AcDbEntity
  8
0
  6
Continuous
 62
     7
370
    25
100
AcDbCircle
 10
0.0
 20
0.0
 30
0.0
 40
32.0
100
AcDbArc
 50
220.6796891117
 51
223.3203108883
  0
SPLINE
  5
8E
330
1F
100
AcDbEntity
  8
0
  6
Continuous
 62
     7
370
    25
100
AcDbSpline
210
0.0
220
0.0
230
1.0
 70
     8
 71
     3
 72
    15
 73
    11
 74
     0
 42
0.000000001
 43
0.00000001
 40
0.2864109110743329
 40
0.2864109110743329
 40
0.2864109110743329
 40
0.2864109110743329
 40
0.2961529302614634
 40
0.426200720006812
 40
0.5442293930140635
 40
0.6502389494812453
 40
0.7442293896823475
 40
0.8262007140118841
 40
0.8961529230677264
 40
1.0
 40
1.0
 40
1.0
 40
1.0
 10
-23.28094703683451
 20
-21.95444157950976
 30
0.0
 10
-23.26459647032919
 20
-21.95003602615794
 30
0.0
 10
-23.03008502299008
 20
-21.88642700038764
 30
0.0
 10
-22.60040468182321
 20
-21.75866159472114
 30
0.0
 10
-22.01919472339955
 20
-21.55562871401437
 30
0.0
 10
-21.50631636350017
 20
-21.34893960864271
 30
0.0
 10
-21.0606987582463
 20
-21.14452705697493
 30
0.0
 10
-20.68084864234607
 20
-20.94822486183231
 30
0.0
 10
-20.29580268383682
 20
-20.72574244385189
 30
0.0
 10
-20.04405208191951
 20
-20.55826385960595
 30
0.0
 10
-19.89951151752926
 20
-20.45007675938563
 30
0.0
  0
LINE
  5
8F
330
1F
100
AcDbEntity
  8
0
  6
Continuous
 62
     7
370
    25
100
AcDbLine
 10
-19.8995115175
 20
-20.4500767594
 30
0.0
 11
-19.8521092394
 21
-20.4163224728
 31
0.0
  0
SPLINE
  5
90
330
1F
100
AcDbEntity
  8
0
  6
Continuous
 62
     7
370
    25
100
AcDbSpline
210
0.0
220
0.0
230
1.0
 70
     8
 71
     3
 72
    15
 73
    11
 74
     0
 42
0.000000001
 43
0.00000001
 40
0.0
 40
0.0
 40
0.0
 40
0.0
 40
0.116824388060492
 40
0.1947561360372789
 40
0.2749300010688125
 40
0.3600226580694308
 40
0.4538017178728536
 40
0.5612445088623751
 40
0.6877527338530942
 40
1.0
 40
1.0
 40
1.0
 40
1.0
 10
-19.85210923939445
 20
-20.41632247284058
 30
0.0
 10
-19.80578551695893
 20
-20.38186380827283
 30
0.0
 10
-19.72494553969015
 20
-20.32942981527795
 30
0.0
 10
-19.60589322168449
 20
-20.26384242312329
 30
0.0
 10
-19.49641318210914
 20
-20.21398404853422
 30
0.0
 10
-19.37544289590882
 20
-20.17155345174236
 30
0.0
 10
-19.23719258003683
 20
-20.13989439817529
 30
0.0
 10
-19.07515312045692
 20
-20.1263979596222
 30
0.0
 10
-18.80472567147446
 20
-20.15295851244064
 30
0.0
 10
-18.60301396083494
 20
-20.25247553759873
 30
0.0
 10
-18.48860341894892
 20
-20.35734618305712
 30
0.0
  0
ARC
  5
91
330
1F
100
AcDbEntity
  8
0
  6
Continuous
 62
     7
370
    25
100
AcDbCircle
 10
0.0
 20
0.0
 30
0.0
 40
27.5
100
AcDbArc
 50
227.7541762546
 51
228.2458237454
  0
SPLINE
  5
92
330
1F
100
AcDbEntity
  8
0
  6
Continuous
 62
     7
370
    25
100
AcDbSpline
210
0.0
220
0.0
230
1.0
 70
     8
 71
     3
 72
    15
 73
    11
 74
     0
 42
0.000000001
 43
0.00000001
 40
0.0
 40
0.0
 40
0.0
 40
0.0
 40
0.3122472661469057
 40
0.4387554911376247
 40
0.5461982821271463
 40
0.639977341930569
 40
0.7250699989311875
 40
0.8052438639627211
 40
0.883175611939508
 40
1.0
 40
1.0
 40
1.0
 40
1.0
 10
-18.31324120729457
 20
-20.51524302764771
 30
0.0
 10
-18.19698589607984
 20
-20.61806484920264
 30
0.0
 10
-18.07692942046197
 20
-20.80826920027711
 30
0.0
 10
-18.02224700346342
 20
-21.07443888562909
 30
0.0
 10
-18.01873177141535
 20
-21.2370014380765
 30
0.0
 10
-18.03576630031008
 20
-21.37780367647064
 30
0.0
 10
-18.06531961973556
 20
-21.50254647986401
 30
0.0
 10
-18.10346108463657
 20
-21.6166383956043
 30
0.0
 10
-18.1562448263449
 20
-21.74189428186693
 30
0.0
 10
-18.19994150184541
 20
-21.82777225399256
 30
0.0
 10
-18.22936925072416
 20
-21.87744412148316
 30
0.0
  0
LINE
  5
93
330
1F
100
AcDbEntity
  8
0
  6
Continuous
 62
     7
370
    25
100
AcDbLine
 10
-18.2293692507
 20
-21.8774441215
 30
0.0
 11
-18.2579837405
 21
-21.9281150087
 31
0.0
  0
SPLINE
  5
94
330
1F
100
AcDbEntity
  8
0
  6
Continuous
 62
     7
370
    25
100
AcDbSpline
210
0.0
220
0.0
230
1.0
 70
     8
 71
     3
 72
    15
 73
    11
 74
     0
 42
0.000000001
 43
0.00000001
 40
0.0
 40
0.0
 40
0.0
 40
0.0
 40
0.1038470769322736
 40
0.1737992859881159
 40
0.2557706103176525
 40
0.3497610505187547
 40
0.4557706069859365
 40
0.573799279993188
 40
0.7038470697385366
 40
0.7135890889256667
 40
0.7135890889256667
 40
0.7135890889256667
 40
0.7135890889256667
 10
-18.25798374046693
 20
-21.9281150086798
 30
0.0
 10
-18.3504695773569
 20
-22.08317239606622
 30
0.0
 10
-18.49071559284964
 20
-22.3510501608866
 30
0.0
 10
-18.67173096653526
 20
-22.75724254260266
 30
0.0
 10
-18.82725264882636
 20
-23.15553096661795
 30
0.0
 10
-18.98396568366588
 20
-23.62007436190294
 30
0.0
 10
-19.13591213768857
 20
-24.15174801504211
 30
0.0
 10
-19.27707979924128
 20
-24.7509967595136
 30
0.0
 10
-19.35923146688873
 20
-25.19167838832646
 30
0.0
 10
-19.39797891455131
 20
-25.43155411113342
 30
0.0
 10
-19.40065123423055
 20
-25.44827561324635
 30
0.0
  0
ARC
  5
95
330
1F
100
AcDbEntity
  8
0
  6
Continuous
 62
     7
370
    25
100
AcDbCircle
 10
0.0
 20
0.0
 30
0.0
 40
32.0
100
AcDbArc
 50
232.6796891117
 51
235.3203108883
  0
SPLINE
  5
96
330
1F
100
AcDbEntity
  8
0
  6
Continuous
 62
     7
370
    25
100
AcDbSpline
210
0.0
220
0.0
230
1.0
 70
     8
 71
     3
 72
    15
 73
    11
 74
     0
 42
0.000000001
 43
0.00000001
 40
0.2864109110743348
 40
0.2864109110743348
 40
0.2864109110743348
 40
0.2864109110743348
 40
0.2961529302614634
 40
0.426200720006812
 40
0.5442293930140635
 40
0.6502389494812453
 40
0.7442293896823475
 40
0.8262007140118841
 40
0.8961529230677264
 40
1.0
 40
1.0
 40
1.0
 40
1.0
 10
-18.20761741713487
 20
-26.31506541871494
 30
0.0
 10
-18.19254011578342
 20
-26.307356663346
 30
0.0
 10
-17.97637836632323
 20
-26.19637997587138
 30
0.0
 10
-17.58265149304851
 20
-25.98207098461876
 30
0.0
 10
-17.05635527621316
 20
-25.66263451430937
 30
0.0
 10
-16.59765762038073
 20
-25.35382865480175
 30
0.0
 10
-16.20427758819853
 20
-25.06123389806154
 30
0.0
 10
-15.8735416299956
 20
-24.79024609700987
 30
0.0
 10
-15.54316654520706
 20
-24.49256989738066
 30
0.0
 10
-15.33173805358469
 20
-24.27640922871719
 30
0.0
 10
-15.21284941024913
 20
-24.1405346030722
 30
0.0
  0
LINE
  5
97
330
1F
100
AcDbEntity
  8
0
  6
Continuous
 62
     7
370
    25
100
AcDbLine
 10
-15.2128494102
 20
-24.1405346031
 30
0.0
 11
-15.1735008964
 21
-24.0976624409
 31
0.0
  0
SPLINE
  5
98
330
1F
100
AcDbEntity
  8
0
  6
Continuous
 62
     7
370
    25
100
AcDbSpline
210
0.0
220
0.0
230
1.0
 70
     8
 71
     3
 72
    15
 73
    11
 74
     0
 42
0.000000001
 43
0.00000001
 40
0.0
 40
0.0
 40
0.0
 40
0.0
 40
0.116824388060492
 40
0.1947561360372789
 40
0.2749300010688125
 40
0.3600226580694308
 40
0.4538017178728536
 40
0.5612445088623751
 40
0.6877527338530942
 40
1.0
 40
1.0
 40
1.0
 40
1.0
 10
-15.17350089641019
 20
-24.09766244087806
 30
0.0
 10
-15.13535381766642
 20
-24.05432553735008
 30
0.0
 10
-15.06718202799749
 20
-23.98622977654562
 30
0.0
 10
-14.96436767437766
 20
-23.89732325753882
 30
0.0
 10
-14.86764617530102
 20
-23.82579222791913
 30
0.0
 10
-14.7581411972155
 20
-23.75913770472685
 30
0.0
 10
-14.62949426980144
 20
-23.69942662050968
 30
0.0
 10
-14.47380182854874
 20
-23.65253521350007
 30
0.0
 10
-14.20376161870845
 20
-23.62229032635211
 30
0.0
 10
-13.98576703994072
 20
-23.67769444292586
 30
0.0
 10
-13.85205280968185
 20
-23.75648612395749
 30
0.0
  0
ARC
  5
99
330
1F
100
AcDbEntity
  8
0
  6
Continuous
 62
     7
370
    25
100
AcDbCircle
 10
0.0
 20
0.0
 30
0.0
 40
27.5
100
AcDbArc
 50
239.7541762546
 51
240.2458237454
  0
SPLINE
  5
9A
330
1F
100
AcDbEntity
  8
0
  6
Continuous
 62
     7
370
    25
100
AcDbSpline
210
0.0
220
0.0
230
1.0
 70
     8
 71
     3
 72
    15
 73
    11
 74
     0
 42
0.000000001
 43
0.00000001
 40
0.0
 40
0.0
 40
0.0
 40
0.0
 40
0.3122472661469057
 40
0.4387554911376247
 40
0.5461982821271463
 40
0.639977341930569
 40
0.7250699989311875
 40
0.8052438639627211
 40
0.883175611939508
 40
1.0
 40
1.0
 40
1.0
 40
1.0
 10
-13.64769408315915
 20
-23.87447268972663
 30
0.0
 10
-13.51260137064944
 20
-23.95087676946247
 30
0.0
 10
-13.35562270883849
 20
-24.11196355427575
 30
0.0
 10
-13.24679544452306
 20
-24.36094767961469
 30
0.0
 10
-13.20955837358624
 20
-24.51922699242157
 30
0.0
 10
-13.19694622569879
 20
-24.66049404178953
 30
0.0
 10
-13.19991824701768
 20
-24.7886553962486
 30
0.0
 10
-13.21350518628887
 20
-24.90818418635092
 30
0.0
 10
-13.23909331350089
 20
-25.04167728796276
 30
0.0
 10
-13.26398007741312
 20
-25.13476367003975
 30
0.0
 10
-13.28243739741782
 20
-25.189468461076
 30
0.0
  0
LINE
  5
9B
330
1F
100
AcDbEntity
  8
0
  6
Continuous
 62
     7
370
    25
100
AcDbLine
 10
-13.2824373974
 20
-25.1894684611
 30
0.0
 11
-13.2998915221
 21
-25.2449813548
 31
0.0
  0
SPLINE
  5
9C
330
1F
100
AcDbEntity
  8
0
  6
Continuous
 62
     7
370
    25
100
AcDbSpline
210
0.0
220
0.0
230
1.0
 70
     8
 71
     3
 72
    15
 73
    11
 74
     0
 42
0.000000001
 43
0.00000001
 40
0.0
 40
0.0
 40
0.0
 40
0.0
 40
0.1038470769322736
 40
0.1737992859881159
 40
0.2557706103176525
 40
0.3497610505187547
 40
0.4557706069859365
 40
0.573799279993188
 40
0.7038470697385366
 40
0.7135890889256657
 40
0.7135890889256657
 40
0.7135890889256657
 40
0.7135890889256657
 10
-13.29989152207364
 20
-25.24498135475875
 30
0.0
 10
-13.35811807794413
 20
-25.41587925293132
 30
0.0
 10
-13.43960446249454
 20
-25.70706203209185
 30
0.0
 10
-13.53221207108118
 20
-26.14201334811076
 30
0.0
 10
-13.60152641180615
 20
-26.56393299038533
 30
0.0
 10
-13.65823088806621
 20
-27.05090746996675
 30
0.0
 10
-13.6963157793211
 20
-27.60255422232782
 30
0.0
 10
-13.70980776908659
 20
-28.21805835117757
 30
0.0
 10
-13.69854136313343
 20
-28.6661903212124
 30
0.0
 10
-13.6865691189842
 20
-28.90888023130872
 30
0.0
 10
-13.68570644628954
 20
-28.92579193498406
 30
0.0
  0
ARC
  5
9D
330
1F
100
AcDbEntity
  8
0
  6
Continuous
 62
     7
370
    25
100
AcDbCircle
 10
0.0
 20
0.0
 30
0.0
 40
32.0
100
AcDbArc
 50
244.6796891117
 51
247.3203108883
  0
SPLINE
  5
9E
330
1F
100
AcDbEntity
  8
0
  6
Continuous
 62
     7
370
    25
100
AcDbSpline
210
0.0
220
0.0
230
1.0
 70
     8
 71
     3
 72
    15
 73
    11
 74
     0
 42
0.000000001
 43
0.00000001
 40
0.2864109110743334
 40
0.2864109110743334
 40
0.2864109110743334
 40
0.2864109110743334
 40
0.2961529302614634
 40
0.426200720006812
 40
0.5442293930140635
 40
0.6502389494812453
 40
0.7442293896823475
 40
0.8262007140118841
 40
0.8961529230677264
 40
1.0
 40
1.0
 40
1.0
 40
1.0
 10
-12.33852754646453
 20
-29.52559462542856
 30
0.0
 10
-12.32538246068493
 20
-29.51491957764284
 30
0.0
 10
-12.13701771481423
 20
-29.36142544223176
 30
0.0
 10
-11.79645206310491
 20
-29.06993919667939
 30
0.0
 10
-11.34807125798302
 20
-28.64806004334616
 30
0.0
 10
-10.96360159485296
 20
-28.25063372757797
 30
0.0
 10
-10.63965173079563
 20
-27.8826445606603
 30
0.0
 10
-10.37248467871068
 20
-27.54881462094928
 30
0.0
 10
-10.11121944416366
 20
-27.18895451800396
 30
0.0
 10
-9.949353502466584
 20
-26.93355902339752
 30
0.0
 10
-9.86131278439049
 20
-26.77593524546734
 30
0.0
  0
LINE
  5
9F
330
1F
100
AcDbEntity
  8
0
  6
Continuous
 62
     7
370
    25
100
AcDbLine
 10
-9.8613127844
 20
-26.7759352455
 30
0.0
 11
-9.8317377537
 21
-26.7258189268
 31
0.0
  0
SPLINE
  5
A0
330
1F
100
AcDbEntity
  8
0
  6
Continuous
 62
     7
370
    25
100
AcDbSpline
210
0.0
220
0.0
230
1.0
 70
     8
 71
     3
 72
    15
 73
    11
 74
     0
 42
0.000000001
 43
0.00000001
 40
0.0
 40
0.0
 40
0.0
 40
0.0
 40
0.116824388060492
 40
0.1947561360372789
 40
0.2749300010688125
 40
0.3600226580694308
 40
0.4538017178728536
 40
0.5612445088623751
 40
0.6877527338530942
 40
1.0
 40
1.0
 40
1.0
 40
1.0
 10
-9.831737753717283
 20
-26.72581892683545
 30
0.0
 10
-9.803434529056377
 20
-26.67549781498495
 30
0.0
 10
-9.750910361320354
 20
-26.59471639787779
 30
0.0
 10
-9.668827452697542
 20
-26.48637639352026
 30
0.0
 10
-9.589091687750521
 20
-26.39629895810829
 30
0.0
 10
-9.49583791078532
 20
-26.30833363102299
 30
0.0
 10
-9.382416859873635
 20
-26.22318017706158
 30
0.0
 10
-9.239875943726103
 20
-26.1449431810917
 30
0.0
 10
-8.982025025994695
 20
-26.05921470067678
 30
0.0
 10
-8.75727498824495
 20
-26.06808448291347
 30
0.0
 10
-8.610101023107616
 20
-26.11735362497282
 30
0.0
  0
ARC
  5
A1
330
1F
100
AcDbEntity
  8
0
  6
Continuous
 62
     7
370
    25
100
AcDbCircle
 10
0.0
 20
0.0
 30
0.0
 40
27.5
100
AcDbArc
 50
251.7541762546
 51
252.2458237454
  0
SPLINE
  5
A2
330
1F
100
AcDbEntity
  8
0
  6
Continuous
 62
     7
370
    25
100
AcDbSpline
210
0.0
220
0.0
230
1.0
 70
     8
 71
     3
 72
    15
 73
    11
 74
     0
 42
0.000000001
 43
0.00000001
 40
0.0
 40
0.0
 40
0.0
 40
0.0
 40
0.3122472661469057
 40
0.4387554911376247
 40
0.5461982821271463
 40
0.639977341930569
 40
0.7250699989311875
 40
0.8052438639627211
 40
0.883175611939508
 40
1.0
 40
1.0
 40
1.0
 40
1.0
 10
-8.385677238687586
 20
-26.19027333283402
 30
0.0
 10
-8.237651324666345
 20
-26.23692044583885
 30
0.0
 10
-8.050611197450628
 20
-26.36184939891447
 30
0.0
 10
-7.892395359480074
 20
-26.58276616320467
 30
0.0
 10
-7.82306388833771
 20
-26.72984467089293
 30
0.0
 10
-7.78135627505057
 20
-26.86540248330282
 30
0.0
 10
-7.757617106669901
 20
-26.99138112265131
 30
0.0
 10
-7.746055705867758
 20
-27.11112280542542
 30
0.0
 10
-7.74332989463884
 20
-27.24701883327507
 30
0.0
 10
-7.74831907595988
 20
-27.34324530372865
 30
0.0
 10
-7.754999293638273
 20
-27.40059215643953
 30
0.0
  0
LINE
  5
A3
330
1F
100
AcDbEntity
  8
0
  6
Continuous
 62
     7
370
    25
100
AcDbLine
 10
-7.7549992936
 20
-27.4005921564
 30
0.0
 11
-7.7605302242
 21
-27.4585208768
 31
0.0
  0
SPLINE
  5
A4
330
1F
100
AcDbEntity
  8
0
  6
Continuous
 62
     7
370
    25
100
AcDbSpline
210
0.0
220
0.0
230
1.0
 70
     8
 71
     3
 72
    15
 73
    11
 74
     0
 42
0.000000001
 43
0.00000001
 40
0.0
 40
0.0
 40
0.0
 40
0.0
 40
0.1038470769322736
 40
0.1737992859881159
 40
0.2557706103176525
 40
0.3497610505187547
 40
0.4557706069859365
 40
0.573799279993188
 40
0.7038470697385366
 40
0.7135890889256656
 40
0.7135890889256656
 40
0.7135890889256656
 40
0.7135890889256656
 10
-7.760530224205507
 20
-27.45852087677405
 30
0.0
 10
-7.781952719162956
 20
-27.63779022752352
 30
0.0
 10
-7.801118126751132
 20
-27.9395519363249
 30
0.0
 10
-7.801270573362951
 20
-28.38425272700864
 30
0.0
 10
-7.781348203224996
 20
-28.81136367458002
 30
0.0
 10
-7.735565863194771
 20
-29.29948611693735
 30
0.0
 10
-7.658124699182425
 20
-29.84699635834734
 30
0.0
 10
-7.543351352466207
 20
-30.45185538762811
 30
0.0
 10
-7.439159268914789
 20
-30.88785218141864
 30
0.0
 10
-7.37699057747229
 20
-31.12274956517771
 30
0.0
 10
-7.372630615340038
 20
-31.1391123478135
 30
0.0
  0
ARC
  5
A5
330
1F
100
AcDbEntity
  8
0
  6
Continuous
 62
     7
370
    25
100
AcDbCircle
 10
0.0
 20
0.0
 30
0.0
 40
32.00000000000001
100
AcDbArc
 50
256.6796891117
 51
259.3203108883
  0
SPLINE
  5
A6
330
1F
100
AcDbEntity
  8
0
  6
Continuous
 62
     7
370
    25
100
AcDbSpline
210
0.0
220
0.0
230
1.0
 70
     8
 71
     3
 72
    15
 73
    11
 74
     0
 42
0.000000001
 43
0.00000001
 40
0.286410911074334
 40
0.286410911074334
 40
0.286410911074334
 40
0.286410911074334
 40
0.2961529302614634
 40
0.426200720006812
 40
0.5442293930140635
 40
0.6502389494812453
 40
0.7442293896823475
 40
0.8262007140118841
 40
0.8961529230677264
 40
1.0
 40
1.0
 40
1.0
 40
1.0
 10
-5.930184815189643
 20
-31.44571366748884
 30
0.0
 10
-5.919546448307573
 20
-31.43253887809914
 30
0.0
 10
-5.767211149295237
 20
-31.24323572501564
 30
0.0
 10
-5.494691072346346
 20
-30.88731157280035
 30
0.0
 10
-5.143822071691553
 20
-30.38142787984472
 30
0.0
 10
-4.850383570432789
 20
-29.91275054487809
 30
0.0
 10
-4.610022038043539
 20
-29.48544986018519
 30
0.0
 10
-4.418100374262428
 20
-29.10336775207396
 30
0.0
 10
-4.237363534396318
 20
-28.69705135911161
 30
0.0
 10
-4.132134460995672
 20
-28.41358304720005
 30
0.0
 10
-4.078789470025203
 20
-28.24109903244304
 30
0.0
  0
LINE
  5
A7
330
1F
100
AcDbEntity
  8
0
  6
Continuous
 62
     7
370
    25
100
AcDbLine
 10
-4.07878947
 20
-28.2410990324
 30
0.0
 11
-4.0602804933
 21
-28.185928881
 31
0.0
  0
SPLINE
  5
A8
330
1F
100
AcDbEntity
  8
0
  6
Continuous
 62
     7
370
    25
100
AcDbSpline
210
0.0
220
0.0
230
1.0
 70
     8
 71
     3
 72
    15
 73
    11
 74
     0
 42
0.000000001
 43
0.00000001
 40
0.0
 40
0.0
 40
0.0
 40
0.0
 40
0.116824388060492
 40
0.1947561360372789
 40
0.2749300010688125
 40
0.3600226580694308
 40
0.4538017178728536
 40
0.5612445088623751
 40
0.6877527338530942
 40
1.0
 40
1.0
 40
1.0
 40
1.0
 10
-4.060280493274896
 20
-28.18592888098239
 30
0.0
 10
-4.043058109428466
 20
-28.13082283486473
 30
0.0
 10
-4.00847712179434
 20
-28.04088629701468
 30
0.0
 10
-3.950713075152867
 20
-27.91784778536987
 30
0.0
 10
-3.89144787987829
 20
-27.81316076033261
 30
0.0
 10
-3.818520941568057
 20
-27.70772913625238
 30
0.0
 10
-3.725282811338174
 20
-27.60085492709646
 30
0.0
 10
-3.602123142318665
 20
-27.49469167431296
 30
0.0
 10
-3.367730839106981
 20
-27.3572263465961
 30
0.0
 10
-3.146047997495223
 20
-27.31917414245003
 30
0.0
 10
-2.991846505974956
 20
-27.33676744760955
 30
0.0
  0
ARC
  5
A9
330
1F
100
AcDbEntity
  8
0
  6
Continuous
 62
     7
370
    25
100
AcDbCircle
 10
0.0
 20
0.0
 30
0.0
 40
27.5
100
AcDbArc
 50
263.7541762546
 51
264.2458237454
  0
SPLINE
  5
AA
330
1F
100
AcDbEntity
  8
0
  6
Continuous
 62
     7
370
    25
100
AcDbSpline
210
0.0
220
0.0
230
1.0
 70
     8
 71
     3
 72
    15
 73
    11
 74
     0
 42
0.000000001
 43
0.00000001
 40
0.0
 40
0.0
 40
0.0
 40
0.0
 40
0.3122472661469057
 40
0.4387554911376247
 40
0.5461982821271463
 40
0.639977341930569
 40
0.7250699989311875
 40
0.8052438639627211
 40
0.883175611939508
 40
1.0
 40
1.0
 40
1.0
 40
1.0
 10
-2.757166059941354
 20
-27.36143335642172
 30
0.0
 10
-2.602676387158445
 20
-27.37628480001956
 30
0.0
 10
-2.393749345615402
 20
-27.45959592663246
 30
0.0
 10
-2.193059725312852
 20
-27.64279020719819
 30
0.0
 10
-2.094663971943183
 20
-27.77223987322088
 30
0.0
 10
-2.025683716092336
 20
-27.89616392179184
 30
0.0
 10
-1.976270873583502
 20
-28.01445397497764
 30
0.0
 10
-1.940066421400834
 20
-28.12917526430197
 30
0.0
 10
-1.909145802761575
 20
-28.26153490987091
 30
0.0
 10
-1.894019350326948
 20
-28.35669591019641
 30
0.0
 10
-1.888630508111251
 20
-28.41417849193774
 30
0.0
  0
LINE
  5
AB
330
1F
100
AcDbEntity
  8
0
  6
Continuous
 62
     7
370
    25
100
AcDbLine
 10
-1.8886305081
 20
-28.4141784919
 30
0.0
 11
-1.8819965164
 21
-28.4719912759
 31
0.0
  0
SPLINE
  5
AC
330
1F
100
AcDbEntity
  8
0
  6
Continuous
 62
     7
370
    25
100
AcDbSpline
210
0.0
220
0.0
230
1.0
 70
     8
 71
     3
 72
    15
 73
    11
 74
     0
 42
0.000000001
 43
0.00000001
 40
0.0
 40
0.0
 40
0.0
 40
0.0
 40
0.1038470769322736
 40
0.1737992859881159
 40
0.2557706103176525
 40
0.3497610505187547
 40
0.4557706069859365
 40
0.573799279993188
 40
0.7038470697385366
 40
0.7135890889256663
 40
0.7135890889256663
 40
0.7135890889256663
 40
0.7135890889256663
 10
-1.881996516383756
 20
-28.47199127587255
 30
0.0
 10
-1.865678684601993
 20
-28.65179714834139
 30
0.0
 10
-1.821685494950498
 20
-28.95094935209567
 30
0.0
 10
-1.729376116939034
 20
-29.38596405898022
 30
0.0
 10
-1.62108773911132
 20
-29.79959951393382
 30
0.0
 10
-1.474819490738165
 20
-30.26753662606469
 30
0.0
 10
-1.285236821929861
 20
-30.78698153172836
 30
0.0
 10
-1.047214284727045
 20
-31.35476021942494
 30
0.0
 10
-0.854650217597657
 20
-31.75956668493777
 30
0.0
 10
-0.745002148996397
 20
-31.97640539952661
 30
0.0
 10
-0.7373354486931545
 20
-31.99150412900432
 30
0.0
  0
ARC
  5
AD
330
1F
100
AcDbEntity
  8
0
  6
Continuous
 62
     7
370
    25
100
AcDbCircle
 10
0.0
 20
0.0
 30
0.0
 40
32.0
100
AcDbArc
 50
268.6796891117
 51
271.3203108883
  0
SPLINE
  5
AE
330
1F
100
AcDbEntity
  8
0
  6
Continuous
 62
     7
370
    25
100
AcDbSpline
210
0.0
220
0.0
230
1.0
 70
     8
 71
     3
 72
    15
 73
    11
 74
     0
 42
0.000000001
 43
0.00000001
 40
0.2864109110743336
 40
0.2864109110743336
 40
0.2864109110743336
 40
0.2864109110743336
 40
0.2961529302614634
 40
0.426200720006812
 40
0.5442293930140635
 40
0.6502389494812453
 40
0.7442293896823475
 40
0.8262007140118841
 40
0.8961529230677264
 40
1.0
 40
1.0
 40
1.0
 40
1.0
 10
0.737335448693162
 20
-31.99150412900433
 30
0.0
 10
0.7450021489964047
 20
-31.97640539952662
 30
0.0
 10
0.8546502175976649
 20
-31.75956668493777
 30
0.0
 10
1.047214284727054
 20
-31.35476021942494
 30
0.0
 10
1.285236821929867
 20
-30.78698153172836
 30
0.0
 10
1.474819490738174
 20
-30.26753662606469
 30
0.0
 10
1.621087739111328
 20
-29.79959951393382
 30
0.0
 10
1.729376116939041
 20
-29.38596405898022
 30
0.0
 10
1.821685494950507
 20
-28.95094935209566
 30
0.0
 10
1.865678684602
 20
-28.65179714834139
 30
0.0
 10
1.881996516383764
 20
-28.47199127587256
 30
0.0
  0
LINE
  5
AF
330
1F
100
AcDbEntity
  8
0
  6
Continuous
 62
     7
370
    25
100
AcDbLine
 10
1.8819965164
 20
-28.4719912759
 30
0.0
 11
1.8886305081
 21
-28.4141784919
 31
0.0
  0
SPLINE
  5
B0
330
1F
100
AcDbEntity
  8
0
  6
Continuous
 62
     7
370
    25
100
AcDbSpline
210
0.0
220
0.0
230
1.0
 70
     8
 71
     3
 72
    15
 73
    11
 74
     0
 42
0.000000001
 43
0.00000001
 40
0.0
 40
0.0
 40
0.0
 40
0.0
 40
0.116824388060492
 40
0.1947561360372789
 40
0.2749300010688125
 40
0.3600226580694308
 40
0.4538017178728536
 40
0.5612445088623751
 40
0.6877527338530942
 40
1.0
 40
1.0
 40
1.0
 40
1.0
 10
1.888630508111258
 20
-28.41417849193774
 30
0.0
 10
1.894019350326955
 20
-28.3566959101964
 30
0.0
 10
1.909145802761582
 20
-28.26153490987091
 30
0.0
 10
1.94006642140084
 20
-28.12917526430197
 30
0.0
 10
1.97627087358351
 20
-28.01445397497764
 30
0.0
 10
2.025683716092341
 20
-27.89616392179185
 30
0.0
 10
2.094663971943188
 20
-27.77223987322088
 30
0.0
 10
2.193059725312858
 20
-27.6427902071982
 30
0.0
 10
2.393749345615408
 20
-27.45959592663246
 30
0.0
 10
2.602676387158451
 20
-27.37628480001957
 30
0.0
 10
2.757166059941361
 20
-27.36143335642172
 30
0.0
  0
ARC
  5
B1
330
1F
100
AcDbEntity
  8
0
  6
Continuous
 62
     7
370
    25
100
AcDbCircle
 10
0.0
 20
0.0
 30
0.0
 40
27.5
100
AcDbArc
 50
275.7541762546
 51
276.2458237454
  0
SPLINE
  5
B2
330
1F
100
AcDbEntity
  8
0
  6
Continuous
 62
     7
370
    25
100
AcDbSpline
210
0.0
220
0.0
230
1.0
 70
     8
 71
     3
 72
    15
 73
    11
 74
     0
 42
0.000000001
 43
0.00000001
 40
0.0
 40
0.0
 40
0.0
 40
0.0
 40
0.3122472661469057
 40
0.4387554911376247
 40
0.5461982821271463
 40
0.639977341930569
 40
0.7250699989311875
 40
0.8052438639627211
 40
0.883175611939508
 40
1.0
 40
1.0
 40
1.0
 40
1.0
 10
2.991846505974594
 20
-27.33676744760959
 30
0.0
 10
3.146047997494858
 20
-27.31917414245007
 30
0.0
 10
3.36773083910662
 20
-27.35722634659615
 30
0.0
 10
3.602123142318299
 20
-27.494691674313
 30
0.0
 10
3.725282811337808
 20
-27.60085492709651
 30
0.0
 10
3.818520941567689
 20
-27.70772913625242
 30
0.0
 10
3.891447879877921
 20
-27.81316076033266
 30
0.0
 10
3.950713075152494
 20
-27.91784778536991
 30
0.0
 10
4.008477121793967
 20
-28.04088629701473
 30
0.0
 10
4.043058109428094
 20
-28.13082283486479
 30
0.0
 10
4.060280493274521
 20
-28.18592888098244
 30
0.0
  0
LINE
  5
B3
330
1F
100
AcDbEntity
  8
0
  6
Continuous
 62
     7
370
    25
100
AcDbLine
 10
4.0602804933
 20
-28.185928881
 30
0.0
 11
4.07878947
 21
-28.2410990324
 31
0.0
  0
SPLINE
  5
B4
330
1F
100
AcDbEntity
  8
0
  6
Continuous
 62
     7
370
    25
100
AcDbSpline
210
0.0
220
0.0
230
1.0
 70
     8
 71
     3
 72
    15
 73
    11
 74
     0
 42
0.000000001
 43
0.00000001
 40
0.0
 40
0.0
 40
0.0
 40
0.0
 40
0.1038470769322736
 40
0.1737992859881159
 40
0.2557706103176525
 40
0.3497610505187547
 40
0.4557706069859365
 40
0.573799279993188
 40
0.7038470697385366
 40
0.7135890889256664
 40
0.7135890889256664
 40
0.7135890889256664
 40
0.7135890889256664
 10
4.078789470024828
 20
-28.24109903244308
 30
0.0
 10
4.132134460995295
 20
-28.4135830472001
 30
0.0
 10
4.23736353439594
 20
-28.69705135911167
 30
0.0
 10
4.418100374262041
 20
-29.10336775207402
 30
0.0
 10
4.610022038043149
 20
-29.48544986018525
 30
0.0
 10
4.850383570432392
 20
-29.91275054487815
 30
0.0
 10
5.143822071691149
 20
-30.38142787984479
 30
0.0
 10
5.494691072345938
 20
-30.88731157280042
 30
0.0
 10
5.767211149294824
 20
-31.24323572501572
 30
0.0
 10
5.919546448307158
 20
-31.43253887809922
 30
0.0
 10
5.930184815189229
 20
-31.44571366748891
 30
0.0
  0
ARC
  5
B5
330
1F
100
AcDbEntity
  8
0
  6
Continuous
 62
     7
370
    25
100
AcDbCircle
 10
0.0
 20
0.0
 30
0.0
 40
32.0
100
AcDbArc
 50
280.6796891117
 51
283.3203108883
  0
SPLINE
  5
B6
330
1F
100
AcDbEntity
  8
0
  6
Continuous
 62
     7
370
    25
100
AcDbSpline
210
0.0
220
0.0
230
1.0
 70
     8
 71
     3
 72
    15
 73
    11
 74
     0
 42
0.000000001
 43
0.00000001
 40
0.2864109110743345
 40
0.2864109110743345
 40
0.2864109110743345
 40
0.2864109110743345
 40
0.2961529302614634
 40
0.426200720006812
 40
0.5442293930140635
 40
0.6502389494812453
 40
0.7442293896823475
 40
0.8262007140118841
 40
0.8961529230677264
 40
1.0
 40
1.0
 40
1.0
 40
1.0
 10
7.372630615339625
 20
-31.13911234781359
 30
0.0
 10
7.376990577471878
 20
-31.12274956517781
 30
0.0
 10
7.439159268914381
 20
-30.88785218141873
 30
0.0
 10
7.543351352465804
 20
-30.45185538762821
 30
0.0
 10
7.658124699182028
 20
-29.84699635834744
 30
0.0
 10
7.735565863194383
 20
-29.29948611693745
 30
0.0
 10
7.781348203224614
 20
-28.81136367458012
 30
0.0
 10
7.801270573362575
 20
-28.38425272700875
 30
0.0
 10
7.801118126750762
 20
-27.939551936325
 30
0.0
 10
7.78195271916259
 20
-27.63779022752362
 30
0.0
 10
7.760530224205143
 20
-27.45852087677415
 30
0.0
  0
LINE
  5
B7
330
1F
100
AcDbEntity
  8
0
  6
Continuous
 62
     7
370
    25
100
AcDbLine
 10
7.7605302242
 20
-27.4585208768
 30
0.0
 11
7.7549992936
 21
-27.4005921564
 31
0.0
  0
SPLINE
  5
B8
330
1F
100
AcDbEntity
  8
0
  6
Continuous
 62
     7
370
    25
100
AcDbSpline
210
0.0
220
0.0
230
1.0
 70
     8
 71
     3
 72
    15
 73
    11
 74
     0
 42
0.000000001
 43
0.00000001
 40
0.0
 40
0.0
 40
0.0
 40
0.0
 40
0.116824388060492
 40
0.1947561360372789
 40
0.2749300010688125
 40
0.3600226580694308
 40
0.4538017178728536
 40
0.5612445088623751
 40
0.6877527338530942
 40
1.0
 40
1.0
 40
1.0
 40
1.0
 10
7.75499929363791
 20
-27.40059215643964
 30
0.0
 10
7.748319075959516
 20
-27.34324530372874
 30
0.0
 10
7.74332989463848
 20
-27.24701883327518
 30
0.0
 10
7.746055705867398
 20
-27.11112280542552
 30
0.0
 10
7.757617106669543
 20
-26.99138112265141
 30
0.0
 10
7.781356275050214
 20
-26.86540248330293
 30
0.0
 10
7.823063888337353
 20
-26.72984467089302
 30
0.0
 10
7.892395359479722
 20
-26.58276616320478
 30
0.0
 10
8.050611197450277
 20
-26.36184939891457
 30
0.0
 10
8.237651324665997
 20
-26.23692044583897
 30
0.0
 10
8.38567723868724
 20
-26.19027333283413
 30
0.0
  0
ARC
  5
B9
330
1F
100
AcDbEntity
  8
0
  6
Continuous
 62
     7
370
    25
100
AcDbCircle
 10
0.0
 20
0.0
 30
0.0
 40
27.5
100
AcDbArc
 50
287.7541762546
 51
288.2458237454
  0
SPLINE
  5
BA
330
1F
100
AcDbEntity
  8
0
  6
Continuous
 62
     7
370
    25
100
AcDbSpline
210
0.0
220
0.0
230
1.0
 70
     8
 71
     3
 72
    15
 73
    11
 74
     0
 42
0.000000001
 43
0.00000001
 40
0.0
 40
0.0
 40
0.0
 40
0.0
 40
0.3122472661469057
 40
0.4387554911376247
 40
0.5461982821271463
 40
0.639977341930569
 40
0.7250699989311875
 40
0.8052438639627211
 40
0.883175611939508
 40
1.0
 40
1.0
 40
1.0
 40
1.0
 10
8.610101023107267
 20
-26.11735362497294
 30
0.0
 10
8.757274988244601
 20
-26.06808448291358
 30
0.0
 10
8.982025025994352
 20
-26.05921470067691
 30
0.0
 10
9.239875943725753
 20
-26.14494318109181
 30
0.0
 10
9.38241685987329
 20
-26.22318017706171
 30
0.0
 10
9.495837910784969
 20
-26.3083336310231
 30
0.0
 10
9.589091687750171
 20
-26.39629895810841
 30
0.0
 10
9.668827452697194
 20
-26.48637639352038
 30
0.0
 10
9.750910361319997
 20
-26.59471639787791
 30
0.0
 10
9.803434529056029
 20
-26.67549781498509
 30
0.0
 10
9.83173775371693
 20
-26.72581892683558
 30
0.0
  0
LINE
  5
BB
330
1F
100
AcDbEntity
  8
0
  6
Continuous
 62
     7
370
    25
100
AcDbLine
 10
9.8317377537
 20
-26.7258189268
 30
0.0
 11
9.8613127844
 21
-26.7759352455
 31
0.0
  0
SPLINE
  5
BC
330
1F
100
AcDbEntity
  8
0
  6
Continuous
 62
     7
370
    25
100
AcDbSpline
210
0.0
220
0.0
230
1.0
 70
     8
 71
     3
 72
    15
 73
    11
 74
     0
 42
0.000000001
 43
0.00000001
 40
0.0
 40
0.0
 40
0.0
 40
0.0
 40
0.1038470769322736
 40
0.1737992859881159
 40
0.2557706103176525
 40
0.3497610505187547
 40
0.4557706069859365
 40
0.573799279993188
 40
0.7038470697385366
 40
0.7135890889256669
 40
0.7135890889256669
 40
0.7135890889256669
 40
0.7135890889256669
 10
9.861312784390133
 20
-26.77593524546747
 30
0.0
 10
9.949353502466229
 20
-26.93355902339765
 30
0.0
 10
10.1112194441633
 20
-27.1889545180041
 30
0.0
 10
10.37248467871031
 20
-27.54881462094941
 30
0.0
 10
10.63965173079526
 20
-27.88264456066044
 30
0.0
 10
10.96360159485259
 20
-28.25063372757812
 30
0.0
 10
11.34807125798264
 20
-28.64806004334631
 30
0.0
 10
11.79645206310453
 20
-29.06993919667955
 30
0.0
 10
12.13701771481384
 20
-29.36142544223192
 30
0.0
 10
12.32538246068454
 20
-29.514919577643
 30
0.0
 10
12.33852754646415
 20
-29.52559462542872
 30
0.0
  0
ARC
  5
BD
330
1F
100
AcDbEntity
  8
0
  6
Continuous
 62
     7
370
    25
100
AcDbCircle
 10
0.0
 20
0.0
 30
0.0
 40
32.0
100
AcDbArc
 50
292.6796891117
 51
295.3203108883
  0
SPLINE
  5
BE
330
1F
100
AcDbEntity
  8
0
  6
Continuous
 62
     7
370
    25
100
AcDbSpline
210
0.0
220
0.0
230
1.0
 70
     8
 71
     3
 72
    15
 73
    11
 74
     0
 42
0.000000001
 43
0.00000001
 40
0.2864109110743335
 40
0.2864109110743335
 40
0.2864109110743335
 40
0.2864109110743335
 40
0.2961529302614634
 40
0.426200720006812
 40
0.5442293930140635
 40
0.6502389494812453
 40
0.7442293896823475
 40
0.8262007140118841
 40
0.8961529230677264
 40
1.0
 40
1.0
 40
1.0
 40
1.0
 10
13.68570644628915
 20
-28.92579193498425
 30
0.0
 10
13.68656911898382
 20
-28.90888023130891
 30
0.0
 10
13.69854136313305
 20
-28.66619032121259
 30
0.0
 10
13.70980776908622
 20
-28.21805835117775
 30
0.0
 10
13.69631577932073
 20
-27.602554222328
 30
0.0
 10
13.65823088806585
 20
-27.05090746996693
 30
0.0
 10
13.6015264118058
 20
-26.5639329903855
 30
0.0
 10
13.53221207108084
 20
-26.14201334811094
 30
0.0
 10
13.4396044624942
 20
-25.70706203209203
 30
0.0
 10
13.35811807794379
 20
-25.41587925293149
 30
0.0
 10
13.29989152207331
 20
-25.24498135475893
 30
0.0
  0
LINE
  5
BF
330
1F
100
AcDbEntity
  8
0
  6
Continuous
 62
     7
370
    25
100
AcDbLine
 10
13.2998915221
 20
-25.2449813548
 30
0.0
 11
13.2824373974
 21
-25.1894684611
 31
0.0
  0
SPLINE
  5
C0
330
1F
100
AcDbEntity
  8
0
  6
Continuous
 62
     7
370
    25
100
AcDbSpline
210
0.0
220
0.0
230
1.0
 70
     8
 71
     3
 72
    15
 73
    11
 74
     0
 42
0.000000001
 43
0.00000001
 40
0.0
 40
0.0
 40
0.0
 40
0.0
 40
0.116824388060492
 40
0.1947561360372789
 40
0.2749300010688125
 40
0.3600226580694308
 40
0.4538017178728536
 40
0.5612445088623751
 40
0.6877527338530942
 40
1.0
 40
1.0
 40
1.0
 40
1.0
 10
13.28243739741749
 20
-25.18946846107617
 30
0.0
 10
13.26398007741278
 20
-25.13476367003992
 30
0.0
 10
13.23909331350056
 20
-25.04167728796294
 30
0.0
 10
13.21350518628854
 20
-24.90818418635109
 30
0.0
 10
13.19991824701735
 20
-24.78865539624877
 30
0.0
 10
13.19694622569846
 20
-24.66049404178971
 30
0.0
 10
13.20955837358591
 20
-24.51922699242174
 30
0.0
 10
13.24679544452274
 20
-24.36094767961487
 30
0.0
 10
13.35562270883817
 20
-24.11196355427592
 30
0.0
 10
13.51260137064913
 20
-23.95087676946265
 30
0.0
 10
13.64769408315883
 20
-23.87447268972681
 30
0.0
  0
ARC
  5
C1
330
1F
100
AcDbEntity
  8
0
  6
Continuous
 62
     7
370
    25
100
AcDbCircle
 10
0.0
 20
0.0
 30
0.0
 40
27.5
100
AcDbArc
 50
299.7541762546
 51
300.2458237454
  0
SPLINE
  5
C2
330
1F
100
AcDbEntity
  8
0
  6
Continuous
 62
     7
370
    25
100
AcDbSpline
210
0.0
220
0.0
230
1.0
 70
     8
 71
     3
 72
    15
 73
    11
 74
     0
 42
0.000000001
 43
0.00000001
 40
0.0
 40
0.0
 40
0.0
 40
0.0
 40
0.3122472661469057
 40
0.4387554911376247
 40
0.5461982821271463
 40
0.639977341930569
 40
0.7250699989311875
 40
0.8052438639627211
 40
0.883175611939508
 40
1.0
 40
1.0
 40
1.0
 40
1.0
 10
13.85205280968154
 20
-23.75648612395768
 30
0.0
 10
13.9857670399404
 20
-23.67769444292604
 30
0.0
 10
14.20376161870814
 20
-23.62229032635231
 30
0.0
 10
14.47380182854842
 20
-23.65253521350026
 30
0.0
 10
14.62949426980113
 20
-23.69942662050988
 30
0.0
 10
14.75814119721519
 20
-23.75913770472705
 30
0.0
 10
14.86764617530071
 20
-23.82579222791933
 30
0.0
 10
14.96436767437734
 20
-23.89732325753901
 30
0.0
 10
15.06718202799717
 20
-23.98622977654582
 30
0.0
 10
15.13535381766611
 20
-24.05432553735029
 30
0.0
 10
15.17350089640987
 20
-24.09766244087826
 30
0.0
  0
LINE
  5
C3
330
1F
100
AcDbEntity
  8
0
  6
Continuous
 62
     7
370
    25
100
AcDbLine
 10
15.1735008964
 20
-24.0976624409
 30
0.0
 11
15.2128494102
 21
-24.1405346031
 31
0.0
  0
SPLINE
  5
C4
330
1F
100
AcDbEntity
  8
0
  6
Continuous
 62
     7
370
    25
100
AcDbSpline
210
0.0
220
0.0
230
1.0
 70
     8
 71
     3
 72
    15
 73
    11
 74
     0
 42
0.000000001
 43
0.00000001
 40
0.0
 40
0.0
 40
0.0
 40
0.0
 40
0.1038470769322736
 40
0.1737992859881159
 40
0.2557706103176525
 40
0.3497610505187547
 40
0.4557706069859365
 40
0.573799279993188
 40
0.7038470697385366
 40
0.7135890889256657
 40
0.7135890889256657
 40
0.7135890889256657
 40
0.7135890889256657
 10
15.21284941024881
 20
-24.1405346030724
 30
0.0
 10
15.33173805358437
 20
-24.27640922871739
 30
0.0
 10
15.54316654520674
 20
-24.49256989738086
 30
0.0
 10
15.87354162999527
 20
-24.79024609701008
 30
0.0
 10
16.2042775881982
 20
-25.06123389806175
 30
0.0
 10
16.59765762038039
 20
-25.35382865480197
 30
0.0
 10
17.05635527621282
 20
-25.6626345143096
 30
0.0
 10
17.58265149304816
 20
-25.98207098461899
 30
0.0
 10
17.97637836632288
 20
-26.19637997587162
 30
0.0
 10
18.19254011578307
 20
-26.30735666334624
 30
0.0
 10
18.20761741713452
 20
-26.31506541871518
 30
0.0
  0
ARC
  5
C5
330
1F
100
AcDbEntity
  8
0
  6
Continuous
 62
     7
370
    25
100
AcDbCircle
 10
0.0
 20
0.0
 30
0.0
 40
32.0
100
AcDbArc
 50
304.6796891117
 51
307.3203108883
  0
SPLINE
  5
C6
330
1F
100
AcDbEntity
  8
0
  6
Continuous
 62
     7
370
    25
100
AcDbSpline
210
0.0
220
0.0
230
1.0
 70
     8
 71
     3
 72
    15
 73
    11
 74
     0
 42
0.000000001
 43
0.00000001
 40
0.2864109110743346
 40
0.2864109110743346
 40
0.2864109110743346
 40
0.2864109110743346
 40
0.2961529302614634
 40
0.426200720006812
 40
0.5442293930140635
 40
0.6502389494812453
 40
0.7442293896823475
 40
0.8262007140118841
 40
0.8961529230677264
 40
1.0
 40
1.0
 40
1.0
 40
1.0
 10
19.40065123423022
 20
-25.44827561324659
 30
0.0
 10
19.39797891455097
 20
-25.43155411113367
 30
0.0
 10
19.3592314668884
 20
-25.19167838832671
 30
0.0
 10
19.27707979924095
 20
-24.75099675951386
 30
0.0
 10
19.13591213768825
 20
-24.15174801504237
 30
0.0
 10
18.98396568366557
 20
-23.6200743619032
 30
0.0
 10
18.82725264882605
 20
-23.15553096661819
 30
0.0
 10
18.67173096653496
 20
-22.75724254260291
 30
0.0
 10
18.49071559284934
 20
-22.35105016088684
 30
0.0
 10
18.35046957735661
 20
-22.08317239606646
 30
0.0
 10
18.25798374046664
 20
-21.92811500868005
 30
0.0
  0
LINE
  5
C7
330
1F
100
AcDbEntity
  8
0
  6
Continuous
 62
     7
370
    25
100
AcDbLine
 10
18.2579837405
 20
-21.9281150087
 30
0.0
 11
18.2293692507
 21
-21.8774441215
 31
0.0
  0
SPLINE
  5
C8
330
1F
100
AcDbEntity
  8
0
  6
Continuous
 62
     7
370
    25
100
AcDbSpline
210
0.0
220
0.0
230
1.0
 70
     8
 71
     3
 72
    15
 73
    11
 74
     0
 42
0.000000001
 43
0.00000001
 40
0.0
 40
0.0
 40
0.0
 40
0.0
 40
0.116824388060492
 40
0.1947561360372789
 40
0.2749300010688125
 40
0.3600226580694308
 40
0.4538017178728536
 40
0.5612445088623751
 40
0.6877527338530942
 40
1.0
 40
1.0
 40
1.0
 40
1.0
 10
18.22936925072387
 20
-21.8774441214834
 30
0.0
 10
18.19994150184512
 20
-21.82777225399279
 30
0.0
 10
18.15624482634462
 20
-21.74189428186718
 30
0.0
 10
18.10346108463628
 20
-21.61663839560454
 30
0.0
 10
18.06531961973528
 20
-21.50254647986425
 30
0.0
 10
18.0357663003098
 20
-21.37780367647089
 30
0.0
 10
18.01873177141507
 20
-21.23700143807674
 30
0.0
 10
18.02224700346315
 20
-21.07443888562933
 30
0.0
 10
18.07692942046169
 20
-20.80826920027734
 30
0.0
 10
18.19698589607957
 20
-20.61806484920289
 30
0.0
 10
18.3132412072943
 20
-20.51524302764795
 30
0.0
  0
ARC
  5
C9
330
1F
100
AcDbEntity
  8
0
  6
Continuous
 62
     7
370
    25
100
AcDbCircle
 10
0.0
 20
0.0
 30
0.0
 40
27.5
100
AcDbArc
 50
311.7541762546
 51
312.2458237454
  0
SPLINE
  5
CA
330
1F
100
AcDbEntity
  8
0
  6
Continuous
 62
     7
370
    25
100
AcDbSpline
210
0.0
220
0.0
230
1.0
 70
     8
 71
     3
 72
    15
 73
    11
 74
     0
 42
0.000000001
 43
0.00000001
 40
0.0
 40
0.0
 40
0.0
 40
0.0
 40
0.3122472661469057
 40
0.4387554911376247
 40
0.5461982821271463
 40
0.639977341930569
 40
0.7250699989311875
 40
0.8052438639627211
 40
0.883175611939508
 40
1.0
 40
1.0
 40
1.0
 40
1.0
 10
18.48860341894865
 20
-20.35734618305736
 30
0.0
 10
18.60301396083466
 20
-20.25247553759897
 30
0.0
 10
18.8047256714742
 20
-20.15295851244089
 30
0.0
 10
19.07515312045664
 20
-20.12639795962245
 30
0.0
 10
19.23719258003656
 20
-20.13989439817555
 30
0.0
 10
19.37544289590855
 20
-20.17155345174261
 30
0.0
 10
19.49641318210887
 20
-20.21398404853448
 30
0.0
 10
19.60589322168422
 20
-20.26384242312355
 30
0.0
 10
19.72494553968988
 20
-20.32942981527821
 30
0.0
 10
19.80578551695866
 20
-20.3818638082731
 30
0.0
 10
19.85210923939418
 20
-20.41632247284084
 30
0.0
  0
LINE
  5
CB
330
1F
100
AcDbEntity
  8
0
  6
Continuous
 62
     7
370
    25
100
AcDbLine
 10
19.8521092394
 20
-20.4163224728
 30
0.0
 11
19.8995115175
 21
-20.4500767594
 31
0.0
  0
SPLINE
  5
CC
330
1F
100
AcDbEntity
  8
0
  6
Continuous
 62
     7
370
    25
100
AcDbSpline
210
0.0
220
0.0
230
1.0
 70
     8
 71
     3
 72
    15
 73
    11
 74
     0
 42
0.000000001
 43
0.00000001
 40
0.0
 40
0.0
 40
0.0
 40
0.0
 40
0.1038470769322736
 40
0.1737992859881159
 40
0.2557706103176525
 40
0.3497610505187547
 40
0.4557706069859365
 40
0.573799279993188
 40
0.7038470697385366
 40
0.7135890889256656
 40
0.7135890889256656
 40
0.7135890889256656
 40
0.7135890889256656
 10
19.89951151752897
 20
-20.45007675938589
 30
0.0
 10
20.04405208191924
 20
-20.55826385960622
 30
0.0
 10
20.29580268383654
 20
-20.72574244385216
 30
0.0
 10
20.68084864234579
 20
-20.94822486183258
 30
0.0
 10
21.06069875824602
 20
-21.14452705697521
 30
0.0
 10
21.50631636349988
 20
-21.34893960864299
 30
0.0
 10
22.01919472339926
 20
-21.55562871401466
 30
0.0
 10
22.60040468182292
 20
-21.75866159472144
 30
0.0
 10
23.03008502298978
 20
-21.88642700038795
 30
0.0
 10
23.26459647032889
 20
-21.95003602615824
 30
0.0
 10
23.28094703683421
 20
-21.95444157951006
 30
0.0
  0
ARC
  5
CD
330
1F
100
AcDbEntity
  8
0
  6
Continuous
 62
     7
370
    25
100
AcDbCircle
 10
0.0
 20
0.0
 30
0.0
 40
32.0
100
AcDbArc
 50
316.6796891117
 51
319.3203108883
  0
SPLINE
  5
CE
330
1F
100
AcDbEntity
  8
0
  6
Continuous
 62
     7
370
    25
100
AcDbSpline
210
0.0
220
0.0
230
1.0
 70
     8
 71
     3
 72
    15
 73
    11
 74
     0
 42
0.000000001
 43
0.00000001
 40
0.2864109110743345
 40
0.2864109110743345
 40
0.2864109110743345
 40
0.2864109110743345
 40
0.2961529302614634
 40
0.426200720006812
 40
0.5442293930140635
 40
0.6502389494812453
 40
0.7442293896823475
 40
0.8262007140118841
 40
0.8961529230677264
 40
1.0
 40
1.0
 40
1.0
 40
1.0
 10
24.26769446858208
 20
-20.85854753283532
 30
0.0
 10
24.26160394972213
 20
-20.84274704216581
 30
0.0
 10
24.17383025964149
 20
-20.61616922678629
 30
0.0
 10
24.00185094047706
 20
-20.20219784099961
 30
0.0
 10
23.7391773113446
 20
-19.64539452655429
 30
0.0
 10
23.48001008371488
 20
-19.15693066253246
 30
0.0
 10
23.23013760191097
 20
-18.73512112704436
 30
0.0
 10
22.9952056218457
 20
-18.37787103661773
 30
0.0
 10
22.73369372349929
 20
-18.01819014541278
 30
0.0
 10
22.54081750091631
 20
-17.78532493867534
 30
0.0
 10
22.41811445787524
 20
-17.65288481395176
 30
0.0
  0
LINE
  5
CF
330
1F
100
AcDbEntity
  8
0
  6
Continuous
 62
     7
370
    25
100
AcDbLine
 10
22.4181144579
 20
-17.652884814
 30
0.0
 11
22.3795901936
 21
-17.6092704942
 31
0.0
  0
SPLINE
  5
D0
330
1F
100
AcDbEntity
  8
0
  6
Continuous
 62
     7
370
    25
100
AcDbSpline
210
0.0
220
0.0
230
1.0
 70
     8
 71
     3
 72
    15
 73
    11
 74
     0
 42
0.000000001
 43
0.00000001
 40
0.0
 40
0.0
 40
0.0
 40
0.0
 40
0.116824388060492
 40
0.1947561360372789
 40
0.2749300010688125
 40
0.3600226580694308
 40
0.4538017178728536
 40
0.5612445088623751
 40
0.6877527338530942
 40
1.0
 40
1.0
 40
1.0
 40
1.0
 10
22.37959019355484
 20
-17.60927049415761
 30
0.0
 10
22.34047814963804
 20
-17.56680244917405
 30
0.0
 10
22.27988131694854
 20
-17.49188616646992
 30
0.0
 10
22.20220886354104
 20
-17.3803417788306
 30
0.0
 10
22.14117983804945
 20
-17.27667310164395
 30
0.0
 10
22.08633684238883
 20
-17.16080070840695
 30
0.0
 10
22.04040012736537
 20
-17.02661701444855
 30
0.0
 10
22.01003988801623
 20
-16.86687598596422
 30
0.0
 10
22.00818757367972
 20
-16.59515363307293
 30
0.0
 10
22.08607481902511
 20
-16.38414455858099
 30
0.0
 10
22.17841181398992
 20
-16.25939880220275
 30
0.0
  0
ARC
  5
D1
330
1F
100
AcDbEntity
  8
0
  6
Continuous
 62
     7
370
    25
100
AcDbCircle
 10
0.0
 20
0.0
 30
0.0
 40
27.5
100
AcDbArc
 50
323.7541762546
 51
324.2458237454
  0
SPLINE
  5
D2
330
1F
100
AcDbEntity
  8
0
  6
Continuous
 62
     7
370
    25
100
AcDbSpline
210
0.0
220
0.0
230
1.0
 70
     8
 71
     3
 72
    15
 73
    11
 74
     0
 42
0.000000001
 43
0.00000001
 40
0.0
 40
0.0
 40
0.0
 40
0.0
 40
0.3122472661469057
 40
0.4387554911376247
 40
0.5461982821271463
 40
0.639977341930569
 40
0.7250699989311875
 40
0.8052438639627211
 40
0.883175611939508
 40
1.0
 40
1.0
 40
1.0
 40
1.0
 10
22.31711334064538
 20
-16.06849252857243
 30
0.0
 10
22.40721990447544
 20
-15.942126269119
 30
0.0
 10
22.58383297731164
 20
-15.80284570691165
 30
0.0
 10
22.84282868826084
 20
-15.72064053773665
 30
0.0
 10
23.00413326423274
 20
-15.70015214870536
 30
0.0
 10
23.14594476636044
 20
-15.70237551906446
 30
0.0
 10
23.27309337868876
 20
-15.71872776877151
 30
0.0
 10
23.39054715568987
 20
-15.74473443811338
 30
0.0
 10
23.52063428050811
 20
-15.78413621965552
 30
0.0
 10
23.61060935045684
 20
-15.81861682774075
 30
0.0
 10
23.6630851476278
 20
-15.84269124435564
 30
0.0
  0
LINE
  5
D3
330
1F
100
AcDbEntity
  8
0
  6
Continuous
 62
     7
370
    25
100
AcDbLine
 10
23.6630851476
 20
-15.8426912444
 30
0.0
 11
23.716469483
 21
-15.865852431
 31
0.0
  0
SPLINE
  5
D4
330
1F
100
AcDbEntity
  8
0
  6
Continuous
 62
     7
370
    25
100
AcDbSpline
210
0.0
220
0.0
230
1.0
 70
     8
 71
     3
 72
    15
 73
    11
 74
     0
 42
0.000000001
 43
0.00000001
 40
0.0
 40
0.0
 40
0.0
 40
0.0
 40
0.1038470769322736
 40
0.1737992859881159
 40
0.2557706103176525
 40
0.3497610505187547
 40
0.4557706069859365
 40
0.573799279993188
 40
0.7038470697385366
 40
0.7135890889256642
 40
0.7135890889256642
 40
0.7135890889256642
 40
0.7135890889256642
 10
23.71646948304259
 20
-15.86585243095854
 30
0.0
 10
23.88034485224112
 20
-15.94162371033527
 30
0.0
 10
24.16141485511616
 20
-16.05310059238071
 30
0.0
 10
24.58430333130376
 20
-16.19066567945752
 30
0.0
 10
24.99666633211337
 20
-16.30370292080092
 30
0.0
 10
25.4750458827788
 20
-16.41099945800815
 30
0.0
 10
26.0196897013541
 20
-16.50653850353474
 30
0.0
 10
26.63041173722814
 20
-16.58429428349217
 30
0.0
 10
27.07726645354314
 20
-16.61993214225848
 30
0.0
 10
27.31987832320167
 20
-16.63339348666831
 30
0.0
 10
27.33678755664585
 20
-16.63430329418135
 30
0.0
  0
ARC
  5
D5
330
1F
100
AcDbEntity
  8
0
  6
Continuous
 62
     7
370
    25
100
AcDbCircle
 10
0.0
 20
0.0
 30
0.0
 40
32.0
100
AcDbArc
 50
328.6796891117
 51
331.3203108883
  0
SPLINE
  5
D6
330
1F
100
AcDbEntity
  8
0
  6
Continuous
 62
     7
370
    25
100
AcDbSpline
210
0.0
220
0.0
230
1.0
 70
     8
 71
     3
 72
    15
 73
    11
 74
     0
 42
0.000000001
 43
0.00000001
 40
0.2864109110743346
 40
0.2864109110743346
 40
0.2864109110743346
 40
0.2864109110743346
 40
0.2961529302614634
 40
0.426200720006812
 40
0.5442293930140635
 40
0.6502389494812453
 40
0.7442293896823475
 40
0.8262007140118841
 40
0.8961529230677264
 40
1.0
 40
1.0
 40
1.0
 40
1.0
 10
28.07412300533902
 20
-15.35720083482321
 30
0.0
 10
28.06488047219808
 20
-15.34301191285855
 30
0.0
 10
27.9319166711408
 20
-15.13963454267954
 30
0.0
 10
27.6776260219552
 20
-14.77046593593302
 30
0.0
 10
27.30492652328398
 20
-14.28044302819387
 30
0.0
 10
26.94986537351699
 20
-13.85653716805679
 30
0.0
 10
26.6177540712247
 20
-13.49589659313314
 30
0.0
 10
26.31367944824281
 20
-13.19529837952294
 30
0.0
 10
25.98310035006667
 20
-12.89784875971519
 30
0.0
 10
25.74602353684313
 20
-12.71017343800635
 30
0.0
 10
25.59846599942637
 20
-12.60613884491424
 30
0.0
  0
LINE
  5
D7
330
1F
100
AcDbEntity
  8
0
  6
Continuous
 62
     7
370
    25
100
AcDbLine
 10
25.5984659994
 20
-12.6061388449
 30
0.0
 11
25.5517156557
 21
-12.5714872476
 31
0.0
  0
SPLINE
  5
D8
330
1F
100
AcDbEntity
  8
0
  6
Continuous
 62
     7
370
    25
100
AcDbSpline
210
0.0
220
0.0
230
1.0
 70
     8
 71
     3
 72
    15
 73
    11
 74
     0
 42
0.000000001
 43
0.00000001
 40
0.0
 40
0.0
 40
0.0
 40
0.0
 40
0.116824388060492
 40
0.1947561360372789
 40
0.2749300010688125
 40
0.3600226580694308
 40
0.4538017178728536
 40
0.5612445088623751
 40
0.6877527338530942
 40
1.0
 40
1.0
 40
1.0
 40
1.0
 10
25.55171565573907
 20
-12.57148724758233
 30
0.0
 10
25.5046287007838
 20
-12.53807908245588
 30
0.0
 10
25.4297800832697
 20
-12.47739869021561
 30
0.0
 10
25.33061357709072
 20
-12.38444082618881
 30
0.0
 10
25.24936425227229
 20
-12.29572620620635
 30
0.0
 10
25.17162848245279
 20
-12.19378840272761
 30
0.0
 10
25.09879723617594
 20
-12.07208772451574
 30
0.0
 10
25.03588841357372
 20
-11.92214966946176
 30
0.0
 10
24.97758232292706
 20
-11.65675021972103
 30
0.0
 10
25.00989629163391
 20
-11.43415853090078
 30
0.0
 10
25.07427940058676
 20
-11.29294082784951
 30
0.0
  0
ARC
  5
D9
330
1F
100
AcDbEntity
  8
0
  6
Continuous
 62
     7
370
    25
100
AcDbCircle
 10
0.0
 20
0.0
 30
0.0
 40
27.5
100
AcDbArc
 50
335.7541762546
 51
336.2458237454
  0
SPLINE
  5
DA
330
1F
100
AcDbEntity
  8
0
  6
Continuous
 62
     7
370
    25
100
AcDbSpline
210
0.0
220
0.0
230
1.0
 70
     8
 71
     3
 72
    15
 73
    11
 74
     0
 42
0.000000001
 43
0.00000001
 40
0.0
 40
0.0
 40
0.0
 40
0.0
 40
0.3122472661469057
 40
0.4387554911376247
 40
0.5461982821271463
 40
0.639977341930569
 40
0.7250699989311875
 40
0.8052438639627211
 40
0.883175611939508
 40
1.0
 40
1.0
 40
1.0
 40
1.0
 10
25.17025831996472
 20
-11.07736864540704
 30
0.0
 10
25.23212281652017
 20
-10.93502958386927
 30
0.0
 10
25.37591841278655
 20
-10.76207271352341
 30
0.0
 10
25.61216303033473
 20
-10.62781568834897
 30
0.0
 10
25.7656829387034
 20
-10.57423791264815
 30
0.0
 10
25.90485778395673
 20
-10.54692842784567
 30
0.0
 10
26.03262771792758
 20
-10.5364876586889
 30
0.0
 10
26.15292193869375
 20
-10.5375060065395
 30
0.0
 10
26.28835843874272
 20
-10.54900013054501
 30
0.0
 10
26.38353625906636
 20
-10.56402038569092
 30
0.0
 10
26.43987068682957
 20
-10.57665838682502
 30
0.0
  0
LINE
  5
DB
330
1F
100
AcDbEntity
  8
0
  6
Continuous
 62
     7
370
    25
100
AcDbLine
 10
26.4398706868
 20
-10.5766583868
 30
0.0
 11
26.4969039279
 21
-10.5882142185
 31
0.0
  0
SPLINE
  5
DC
330
1F
100
AcDbEntity
  8
0
  6
Continuous
 62
     7
370
    25
100
AcDbSpline
210
0.0
220
0.0
230
1.0
 70
     8
 71
     3
 72
    15
 73
    11
 74
     0
 42
0.000000001
 43
0.00000001
 40
0.0
 40
0.0
 40
0.0
 40
0.0
 40
0.1038470769322736
 40
0.1737992859881159
 40
0.2557706103176525
 40
0.3497610505187547
 40
0.4557706069859365
 40
0.573799279993188
 40
0.7038470697385366
 40
0.7135890889256687
 40
0.7135890889256687
 40
0.7135890889256687
 40
0.7135890889256687
 10
26.49690392790028
 20
-10.58821421849152
 30
0.0
 10
26.67295196191182
 20
-10.62825810852496
 30
0.0
 10
26.97105725789545
 20
-10.67886121369908
 30
0.0
 10
27.41330599610795
 20
-10.72549671545649
 30
0.0
 10
27.84015963995435
 20
-10.75032873314109
 30
0.0
 10
28.3303936541475
 20
-10.7558198823459
 30
0.0
 10
28.88299938303598
 20
-10.7360333532907
 30
0.0
 10
29.49654201282324
 20
-10.68511373180101
 30
0.0
 10
29.94104140893657
 20
-10.62706649822963
 30
0.0
 10
30.18115039802954
 20
-10.58979183593359
 30
0.0
 10
30.19787928377158
 20
-10.58716613465379
 30
0.0
  0
ARC
  5
DD
330
1F
100
AcDbEntity
  8
0
  6
Continuous
 62
     7
370
    25
100
AcDbCircle
 10
0.0
 20
0.0
 30
0.0
 40
32.0
100
AcDbArc
 50
340.6796891117
 51
343.3203108883
  0
SPLINE
  5
DE
330
1F
100
AcDbEntity
  8
0
  6
Continuous
 62
     7
370
    25
100
AcDbSpline
210
0.0
220
0.0
230
1.0
 70
     8
 71
     3
 72
    15
 73
    11
 74
     0
 42
0.000000001
 43
0.00000001
 40
0.2864109110743355
 40
0.2864109110743355
 40
0.2864109110743355
 40
0.2864109110743355
 40
0.2961529302614634
 40
0.426200720006812
 40
0.5442293930140635
 40
0.6502389494812453
 40
0.7442293896823475
 40
0.8262007140118841
 40
0.8961529230677264
 40
1.0
 40
1.0
 40
1.0
 40
1.0
 10
30.65357765217409
 20
-9.184670768303713
 30
0.0
 10
30.64158704780103
 20
-9.172713539019755
 30
0.0
 10
30.46924429190442
 20
-9.001425181030978
 30
0.0
 10
30.14375603428898
 20
-8.693193792906955
 30
0.0
 10
29.67731942258154
 20
-8.291367644332961
 30
0.0
 10
29.24188222669452
 20
-7.95054650829463
 30
0.0
 10
28.84204696147088
 20
-7.666836617605087
 30
0.0
 10
28.48211921570861
 20
-7.436027865176333
 30
0.0
 10
28.09692081058755
 20
-7.213809492473009
 30
0.0
 10
27.82600480108207
 20
-7.07952636791756
 30
0.0
 10
27.66004174173436
 20
-7.00844411738842
 30
0.0
  0
LINE
  5
DF
330
1F
100
AcDbEntity
  8
0
  6
Continuous
 62
     7
370
    25
100
AcDbLine
 10
27.6600417417
 20
-7.0084441174
 30
0.0
 11
27.607108533
 21
-6.9842696836
 31
0.0
  0
SPLINE
  5
E0
330
1F
100
AcDbEntity
  8
0
  6
Continuous
 62
     7
370
    25
100
AcDbSpline
210
0.0
220
0.0
230
1.0
 70
     8
 71
     3
 72
    15
 73
    11
 74
     0
 42
0.000000001
 43
0.00000001
 40
0.0
 40
0.0
 40
0.0
 40
0.0
 40
0.116824388060492
 40
0.1947561360372789
 40
0.2749300010688125
 40
0.3600226580694308
 40
0.4538017178728536
 40
0.5612445088623751
 40
0.6877527338530942
 40
1.0
 40
1.0
 40
1.0
 40
1.0
 10
27.60710853303233
 20
-6.984269683598953
 30
0.0
 10
27.55410459291841
 20
-6.961381495455806
 30
0.0
 10
27.4682754343286
 20
-6.91758901799713
 30
0.0
 10
27.35194892755186
 20
-6.847280382302137
 30
0.0
 10
27.25403028877865
 20
-6.777397074117088
 30
0.0
 10
27.156799170959
 20
-6.693849031560473
 30
0.0
 10
27.06025646837415
 20
-6.58995027271764
 30
0.0
 10
26.9675484799366
 20
-6.456368203582475
 30
0.0
 10
26.8553368689247
 20
-6.20889088647383
 30
0.0
 10
26.8406652855009
 20
-5.984444908240143
 30
0.0
 10
26.87428065763613
 20
-5.832927149776919
 30
0.0
  0
ARC
  5
E1
330
1F
100
AcDbEntity
  8
0
  6
Continuous
 62
     7
370
    25
100
AcDbCircle
 10
0.0
 20
0.0
 30
0.0
 40
27.5
100
AcDbArc
 50
347.7541762546
 51
348.2458237454
  0
SPLINE
  5
E2
330
1F
100
AcDbEntity
  8
0
  6
Continuous
 62
     7
370
    25
100
AcDbSpline
210
0.0
220
0.0
230
1.0
 70
     8
 71
     3
 72
    15
 73
    11
 74
     0
 42
0.000000001
 43
0.00000001
 40
0.0
 40
0.0
 40
0.0
 40
0.0
 40
0.3122472661469057
 40
0.4387554911376247
 40
0.5461982821271463
 40
0.639977341930569
 40
0.7250699989311875
 40
0.8052438639627211
 40
0.883175611939508
 40
1.0
 40
1.0
 40
1.0
 40
1.0
 10
26.92334223040181
 20
-5.602110597325125
 30
0.0
 10
26.9542608843244
 20
-5.450019633710829
 30
0.0
 10
27.05895444645629
 20
-5.250945500399701
 30
0.0
 10
27.26212294718914
 20
-5.070504295462628
 30
0.0
 10
27.40114863128861
 20
-4.9861787389851
 30
0.0
 10
27.53160421109501
 20
-4.930529954552355
 30
0.0
 10
27.6544113074857
 20
-4.893752478244298
 30
0.0
 10
27.77228853733372
 20
-4.869737997915976
 30
0.0
 10
27.90715518766486
 20
-4.852822116010874
 30
0.0
 10
28.0033760309014
 20
-4.847725560992428
 30
0.0
 10
28.06110700444105
 20
-4.848374805352312
 30
0.0
  0
LINE
  5
E3
330
1F
100
AcDbEntity
  8
0
  6
Continuous
 62
     7
370
    25
100
AcDbLine
 10
28.0611070044
 20
-4.8483748054
 30
0.0
 11
28.1192965249
 21
-4.8478202368
 31
0.0
  0
SPLINE
  5
E4
330
1F
100
AcDbEntity
  8
0
  6
Continuous
 62
     7
370
    25
100
AcDbSpline
210
0.0
220
0.0
230
1.0
 70
     8
 71
     3
 72
    15
 73
    11
 74
     0
 42
0.000000001
 43
0.00000001
 40
0.0
 40
0.0
 40
0.0
 40
0.0
 40
0.1038470769322736
 40
0.1737992859881159
 40
0.2557706103176525
 40
0.3497610505187547
 40
0.4557706069859365
 40
0.573799279993188
 40
0.7038470697385366
 40
0.7135890889256655
 40
0.7135890889256655
 40
0.7135890889256655
 40
0.7135890889256655
 10
28.11929652485703
 20
-4.847820236787557
 30
0.0
 10
28.29982307982309
 20
-4.850386627331326
 30
0.0
 10
28.6019350370129
 20
-4.837904357117393
 30
0.0
 10
29.04421564524553
 20
-4.791572078346637
 30
0.0
 10
29.46690437962158
 20
-4.727113594042382
 30
0.0
 10
29.94756727851842
 20
-4.63055936567506
 30
0.0
 10
30.48398339567116
 20
-4.496312028304085
 30
0.0
 10
31.07353186234576
 20
-4.318942437165827
 30
0.0
 10
31.49624918170252
 20
-4.169747053905354
 30
0.0
 10
31.72336137523579
 20
-4.083365466509465
 30
0.0
 10
31.73917878069464
 20
-4.077319012182262
 30
0.0
  0
ARC
  5
E5
330
1F
100
AcDbEntity
  8
0
  6
Continuous
 62
     7
370
    25
100
AcDbCircle
 10
0.0
 20
0.0
 30
0.0
 40
32.0
100
AcDbArc
 50
352.6796891117
 51
355.3203108883
  0
SPLINE
  5
E6
330
1F
100
AcDbEntity
  8
0
  6
Continuous
 62
     7
370
    25
100
AcDbSpline
210
0.0
220
0.0
230
1.0
 70
     8
 71
     3
 72
    15
 73
    11
 74
     0
 42
0.000000001
 43
0.00000001
 40
0.2864109110743338
 40
0.2864109110743338
 40
0.2864109110743338
 40
0.2864109110743338
 40
0.2961529302614634
 40
0.426200720006812
 40
0.5442293930140635
 40
0.6502389494812453
 40
0.7442293896823475
 40
0.8262007140118841
 40
0.8961529230677264
 40
1.0
 40
1.0
 40
1.0
 40
1.0
 10
31.89332386342398
 20
-2.610726516269189
 30
0.0
 10
31.8791092347672
 20
-2.601523567962789
 30
0.0
 10
31.67491972945623
 20
-2.469810345341087
 30
0.0
 10
31.29245926213468
 20
-2.235987366558876
 30
0.0
 10
30.75267105553384
 20
-1.939919708018518
 30
0.0
 10
30.25588850844652
 20
-1.697078815165069
 30
0.0
 10
29.80580400000427
 20
-1.502699092323857
 30
0.0
 10
29.40575370107639
 20
-1.351767251100967
 30
0.0
 10
28.98277100770121
 20
-1.214492134711264
 30
0.0
 10
28.68985613152843
 20
-1.139470024214198
 30
0.0
 10
28.51274093232239
 20
-1.10444675168663
 30
0.0
  0
LINE
  5
E7
330
1F
100
AcDbEntity
  8
0
  6
Continuous
 62
     7
370
    25
100
AcDbLine
 10
28.5127409323
 20
-1.1044467517
 30
0.0
 11
28.4559382938
 21
-1.0918060202
 31
0.0
  0
SPLINE
  5
E8
330
1F
100
AcDbEntity
  8
0
  6
Continuous
 62
     7
370
    25
100
AcDbSpline
210
0.0
220
0.0
230
1.0
 70
     8
 71
     3
 72
    15
 73
    11
 74
     0
 42
0.000000001
 43
0.00000001
 40
0.0
 40
0.0
 40
0.0
 40
0.0
 40
0.116824388060492
 40
0.1947561360372789
 40
0.2749300010688125
 40
0.3600226580694308
 40
0.4538017178728536
 40
0.5612445088623751
 40
0.6877527338530942
 40
1.0
 40
1.0
 40
1.0
 40
1.0
 10
28.45593829382762
 20
-1.091806020198013
 30
0.0
 10
28.39933389507916
 20
-1.080438132689738
 30
0.0
 10
28.306275341498
 20
-1.055447511417219
 30
0.0
 10
28.17787286066615
 20
-1.010860928812171
 30
0.0
 10
28.06756442231832
 20
-0.9628631683295357
 30
0.0
 10
27.95508742291391
 20
-0.9013563370627582
 30
0.0
 10
27.8390526433873
 20
-0.8198003719119555
 30
0.0
 10
27.72059727307143
 20
-0.7084124661147005
 30
0.0
 10
27.55938432754656
 20
-0.4896732279237089
 30
0.0
 10
27.49836841058979
 20
-0.2731823265366925
 30
0.0
 10
27.49974689284063
 20
-0.1179865657692197
 30
0.0
  0
ARC
  5
E9
330
1F
100
AcDbEntity
  8
0
  6
Continuous
 62
     7
370
    25
100
AcDbCircle
 10
0.0
 20
0.0
 30
0.0
 40
27.5
100
AcDbArc
 50
359.7541762546
 51
0.2458237454
  0
SPLINE
  5
EA
330
1F
100
AcDbEntity
  8
0
  6
Continuous
 62
     7
370
    25
100
AcDbSpline
210
0.0
220
0.0
230
1.0
 70
     8
 71
     3
 72
    15
 73
    11
 74
     0
 42
0.000000001
 43
0.00000001
 40
0.0
 40
0.0
 40
0.0
 40
0.0
 40
0.3122472661469057
 40
0.4387554911376247
 40
0.5461982821271463
 40
0.639977341930569
 40
0.7250699989311875
 40
0.8052438639627211
 40
0.883175611939508
 40
1.0
 40
1.0
 40
1.0
 40
1.0
 10
27.49974689284064
 20
0.1179865657690402
 30
0.0
 10
27.49836841058979
 20
0.2731823265365121
 30
0.0
 10
27.55938432754657
 20
0.4896732279235294
 30
0.0
 10
27.72059727307143
 20
0.7084124661145188
 30
0.0
 10
27.83905264338731
 20
0.8198003719117734
 30
0.0
 10
27.95508742291392
 20
0.9013563370625748
 30
0.0
 10
28.06756442231834
 20
0.962863168329353
 30
0.0
 10
28.17787286066616
 20
1.010860928811987
 30
0.0
 10
28.306275341498
 20
1.055447511417034
 30
0.0
 10
28.39933389507918
 20
1.080438132689554
 30
0.0
 10
28.45593829382763
 20
1.091806020197828
 30
0.0
  0
LINE
  5
EB
330
1F
100
AcDbEntity
  8
0
  6
Continuous
 62
     7
370
    25
100
AcDbLine
 10
28.4559382938
 20
1.0918060202
 30
0.0
 11
28.5127409323
 21
1.1044467517
 31
0.0
  0
SPLINE
  5
EC
330
1F
100
AcDbEntity
  8
0
  6
Continuous
 62
     7
370
    25
100
AcDbSpline
210
0.0
220
0.0
230
1.0
 70
     8
 71
     3
 72
    15
 73
    11
 74
     0
 42
0.000000001
 43
0.00000001
 40
0.0
 40
0.0
 40
0.0
 40
0.0
 40
0.1038470769322736
 40
0.1737992859881159
 40
0.2557706103176525
 40
0.3497610505187547
 40
0.4557706069859365
 40
0.573799279993188
 40
0.7038470697385366
 40
0.7135890889256635
 40
0.7135890889256635
 40
0.7135890889256635
 40
0.7135890889256635
 10
28.51274093232239
 20
1.104446751686444
 30
0.0
 10
28.68985613152844
 20
1.139470024214011
 30
0.0
 10
28.98277100770123
 20
1.214492134711077
 30
0.0
 10
29.4057537010764
 20
1.351767251100775
 30
0.0
 10
29.80580400000429
 20
1.502699092323664
 30
0.0
 10
30.25588850844654
 20
1.697078815164873
 30
0.0
 10
30.75267105553385
 20
1.939919708018317
 30
0.0
 10
31.2924592621347
 20
2.235987366558673
 30
0.0
 10
31.67491972945624
 20
2.469810345340878
 30
0.0
 10
31.8791092347672
 20
2.601523567962576
 30
0.0
 10
31.89332386342398
 20
2.610726516268973
 30
0.0
  0
ARC
  5
ED
330
1F
100
AcDbEntity
  8
0
  6
Continuous
 62
     7
370
    25
100
AcDbCircle
 10
0.0
 20
0.0
 30
0.0
 40
32.0
100
AcDbArc
 50
4.6796891117
 51
7.3203108883
  0
SPLINE
  5
EE
330
1F
100
AcDbEntity
  8
0
  6
Continuous
 62
     7
370
    25
100
AcDbSpline
210
0.0
220
0.0
230
1.0
 70
     8
 71
     3
 72
    15
 73
    11
 74
     0
 42
0.000000001
 43
0.00000001
 40
0.286410911074336
 40
0.286410911074336
 40
0.286410911074336
 40
0.286410911074336
 40
0.2961529302614634
 40
0.426200720006812
 40
0.5442293930140635
 40
0.6502389494812453
 40
0.7442293896823475
 40
0.8262007140118841
 40
0.8961529230677264
 40
1.0
 40
1.0
 40
1.0
 40
1.0
 10
31.73917878069467
 20
4.077319012182058
 30
0.0
 10
31.72336137523582
 20
4.08336546650926
 30
0.0
 10
31.49624918170255
 20
4.169747053905149
 30
0.0
 10
31.07353186234579
 20
4.318942437165626
 30
0.0
 10
30.4839833956712
 20
4.496312028303888
 30
0.0
 10
29.94756727851847
 20
4.630559365674866
 30
0.0
 10
29.46690437962162
 20
4.727113594042191
 30
0.0
 10
29.04421564524558
 20
4.791572078346449
 30
0.0
 10
28.60193503701293
 20
4.837904357117209
 30
0.0
 10
28.29982307982312
 20
4.850386627331142
 30
0.0
 10
28.11929652485707
 20
4.847820236787376
 30
0.0
  0
LINE
  5
EF
330
1F
100
AcDbEntity
  8
0
  6
Continuous
 62
     7
370
    25
100
AcDbLine
 10
28.1192965249
 20
4.8478202368
 30
0.0
 11
28.0611070044
 21
4.8483748054
 31
0.0
  0
SPLINE
  5
F0
330
1F
100
AcDbEntity
  8
0
  6
Continuous
 62
     7
370
    25
100
AcDbSpline
210
0.0
220
0.0
230
1.0
 70
     8
 71
     3
 72
    15
 73
    11
 74
     0
 42
0.000000001
 43
0.00000001
 40
0.0
 40
0.0
 40
0.0
 40
0.0
 40
0.116824388060492
 40
0.1947561360372789
 40
0.2749300010688125
 40
0.3600226580694308
 40
0.4538017178728536
 40
0.5612445088623751
 40
0.6877527338530942
 40
1.0
 40
1.0
 40
1.0
 40
1.0
 10
28.06110700444109
 20
4.84837480535213
 30
0.0
 10
28.00337603090143
 20
4.847725560992246
 30
0.0
 10
27.90715518766491
 20
4.852822116010694
 30
0.0
 10
27.77228853733376
 20
4.869737997915796
 30
0.0
 10
27.65441130748573
 20
4.893752478244119
 30
0.0
 10
27.53160421109505
 20
4.930529954552176
 30
0.0
 10
27.40114863128864
 20
4.986178738984921
 30
0.0
 10
27.26212294718918
 20
5.070504295462452
 30
0.0
 10
27.05895444645632
 20
5.250945500399524
 30
0.0
 10
26.95426088432445
 20
5.450019633710656
 30
0.0
 10
26.92334223040185
 20
5.60211059732495
 30
0.0
  0
ARC
  5
F1
330
1F
100
AcDbEntity
  8
0
  6
Continuous
 62
     7
370
    25
100
AcDbCircle
 10
0.0
 20
0.0
 30
0.0
 40
27.5
100
AcDbArc
 50
11.7541762546
 51
12.2458237454
  0
SPLINE
  5
F2
330
1F
100
AcDbEntity
  8
0
  6
Continuous
 62
     7
370
    25
100
AcDbSpline
210
0.0
220
0.0
230
1.0
 70
     8
 71
     3
 72
    15
 73
    11
 74
     0
 42
0.000000001
 43
0.00000001
 40
0.0
 40
0.0
 40
0.0
 40
0.0
 40
0.3122472661469057
 40
0.4387554911376247
 40
0.5461982821271463
 40
0.639977341930569
 40
0.7250699989311875
 40
0.8052438639627211
 40
0.883175611939508
 40
1.0
 40
1.0
 40
1.0
 40
1.0
 10
26.87428065763616
 20
5.832927149776741
 30
0.0
 10
26.84066528550093
 20
5.984444908239965
 30
0.0
 10
26.85533686892474
 20
6.208890886473656
 30
0.0
 10
26.96754847993664
 20
6.456368203582298
 30
0.0
 10
27.0602564683742
 20
6.589950272717465
 30
0.0
 10
27.15679917095905
 20
6.693849031560292
 30
0.0
 10
27.25403028877869
 20
6.777397074116911
 30
0.0
 10
27.3519489275519
 20
6.847280382301959
 30
0.0
 10
27.46827543432864
 20
6.917589017996949
 30
0.0
 10
27.55410459291847
 20
6.961381495455628
 30
0.0
 10
27.60710853303237
 20
6.984269683598772
 30
0.0
  0
LINE
  5
F3
330
1F
100
AcDbEntity
  8
0
  6
Continuous
 62
     7
370
    25
100
AcDbLine
 10
27.607108533
 20
6.9842696836
 30
0.0
 11
27.6600417417
 21
7.0084441174
 31
0.0
  0
SPLINE
  5
F4
330
1F
100
AcDbEntity
  8
0
  6
Continuous
 62
     7
370
    25
100
AcDbSpline
210
0.0
220
0.0
230
1.0
 70
     8
 71
     3
 72
    15
 73
    11
 74
     0
 42
0.000000001
 43
0.00000001
 40
0.0
 40
0.0
 40
0.0
 40
0.0
 40
0.1038470769322736
 40
0.1737992859881159
 40
0.2557706103176525
 40
0.3497610505187547
 40
0.4557706069859365
 40
0.573799279993188
 40
0.7038470697385366
 40
0.7135890889256653
 40
0.7135890889256653
 40
0.7135890889256653
 40
0.7135890889256653
 10
27.6600417417344
 20
7.008444117388239
 30
0.0
 10
27.82600480108211
 20
7.079526367917377
 30
0.0
 10
28.0969208105876
 20
7.213809492472827
 30
0.0
 10
28.48211921570866
 20
7.436027865176146
 30
0.0
 10
28.84204696147093
 20
7.6668366176049
 30
0.0
 10
29.24188222669457
 20
7.950546508294439
 30
0.0
 10
29.6773194225816
 20
8.291367644332766
 30
0.0
 10
30.14375603428903
 20
8.69319379290676
 30
0.0
 10
30.46924429190449
 20
9.00142518103078
 30
0.0
 10
30.6415870478011
 20
9.17271353901956
 30
0.0
 10
30.65357765217416
 20
9.18467076830352
 30
0.0
  0
ARC
  5
F5
330
1F
100
AcDbEntity
  8
0
  6
Continuous
 62
     7
370
    25
100
AcDbCircle
 10
0.0
 20
0.0
 30
0.0
 40
32.0
100
AcDbArc
 50
16.6796891117
 51
19.3203108883
  0
SPLINE
  5
F6
330
1F
100
AcDbEntity
  8
0
  6
Continuous
 62
     7
370
    25
100
AcDbSpline
210
0.0
220
0.0
230
1.0
 70
     8
 71
     3
 72
    15
 73
    11
 74
     0
 42
0.000000001
 43
0.00000001
 40
0.2864109110743331
 40
0.2864109110743331
 40
0.2864109110743331
 40
0.2864109110743331
 40
0.2961529302614634
 40
0.426200720006812
 40
0.5442293930140635
 40
0.6502389494812453
 40
0.7442293896823475
 40
0.8262007140118841
 40
0.8961529230677264
 40
1.0
 40
1.0
 40
1.0
 40
1.0
 10
30.19787928377164
 20
10.5871661346536
 30
0.0
 10
30.18115039802961
 20
10.5897918359334
 30
0.0
 10
29.94104140893664
 20
10.62706649822944
 30
0.0
 10
29.49654201282331
 20
10.68511373180082
 30
0.0
 10
28.88299938303605
 20
10.73603335329051
 30
0.0
 10
28.33039365414758
 20
10.75581988234572
 30
0.0
 10
27.84015963995441
 20
10.75032873314091
 30
0.0
 10
27.41330599610803
 20
10.72549671545631
 30
0.0
 10
26.97105725789552
 20
10.6788612136989
 30
0.0
 10
26.6729519619119
 20
10.62825810852478
 30
0.0
 10
26.49690392790035
 20
10.58821421849135
 30
0.0
  0
LINE
  5
F7
330
1F
100
AcDbEntity
  8
0
  6
Continuous
 62
     7
370
    25
100
AcDbLine
 10
26.4969039279
 20
10.5882142185
 30
0.0
 11
26.4398706868
 21
10.5766583868
 31
0.0
  0
SPLINE
  5
F8
330
1F
100
AcDbEntity
  8
0
  6
Continuous
 62
     7
370
    25
100
AcDbSpline
210
0.0
220
0.0
230
1.0
 70
     8
 71
     3
 72
    15
 73
    11
 74
     0
 42
0.000000001
 43
0.00000001
 40
0.0
 40
0.0
 40
0.0
 40
0.0
 40
0.116824388060492
 40
0.1947561360372789
 40
0.2749300010688125
 40
0.3600226580694308
 40
0.4538017178728536
 40
0.5612445088623751
 40
0.6877527338530942
 40
1.0
 40
1.0
 40
1.0
 40
1.0
 10
26.43987068682964
 20
10.57665838682485
 30
0.0
 10
26.38353625906642
 20
10.56402038569075
 30
0.0
 10
26.28835843874279
 20
10.54900013054484
 30
0.0
 10
26.15292193869382
 20
10.53750600653933
 30
0.0
 10
26.03262771792765
 20
10.53648765868873
 30
0.0
 10
25.9048577839568
 20
10.5469284278455
 30
0.0
 10
25.76568293870346
 20
10.57423791264798
 30
0.0
 10
25.61216303033481
 20
10.6278156883488
 30
0.0
 10
25.37591841278661
 20
10.76207271352324
 30
0.0
 10
25.23212281652025
 20
10.93502958386911
 30
0.0
 10
25.17025831996479
 20
11.07736864540687
 30
0.0
  0
ARC
  5
F9
330
1F
100
AcDbEntity
  8
0
  6
Continuous
 62
     7
370
    25
100
AcDbCircle
 10
0.0
 20
0.0
 30
0.0
 40
27.5
100
AcDbArc
 50
23.7541762546
 51
24.2458237454
  0
SPLINE
  5
FA
330
1F
100
AcDbEntity
  8
0
  6
Continuous
 62
     7
370
    25
100
AcDbSpline
210
0.0
220
0.0
230
1.0
 70
     8
 71
     3
 72
    15
 73
    11
 74
     0
 42
0.000000001
 43
0.00000001
 40
0.0
 40
0.0
 40
0.0
 40
0.0
 40
0.3122472661469057
 40
0.4387554911376247
 40
0.5461982821271463
 40
0.639977341930569
 40
0.7250699989311875
 40
0.8052438639627211
 40
0.883175611939508
 40
1.0
 40
1.0
 40
1.0
 40
1.0
 10
25.07427940058683
 20
11.29294082784934
 30
0.0
 10
25.00989629163398
 20
11.43415853090061
 30
0.0
 10
24.97758232292713
 20
11.65675021972086
 30
0.0
 10
25.03588841357379
 20
11.92214966946158
 30
0.0
 10
25.09879723617602
 20
12.07208772451557
 30
0.0
 10
25.17162848245286
 20
12.19378840272744
 30
0.0
 10
25.24936425227236
 20
12.29572620620618
 30
0.0
 10
25.3306135770908
 20
12.38444082618864
 30
0.0
 10
25.42978008326978
 20
12.47739869021543
 30
0.0
 10
25.50462870078388
 20
12.53807908245571
 30
0.0
 10
25.55171565573914
 20
12.57148724758215
 30
0.0
  0
LINE
  5
FB
330
1F
100
AcDbEntity
  8
0
  6
Continuous
 62
     7
370
    25
100
AcDbLine
 10
25.5517156557
 20
12.5714872476
 30
0.0
 11
25.5984659994
 21
12.6061388449
 31
0.0
  0
SPLINE
  5
FC
330
1F
100
AcDbEntity
  8
0
  6
Continuous
 62
     7
370
    25
100
AcDbSpline
210
0.0
220
0.0
230
1.0
 70
     8
 71
     3
 72
    15
 73
    11
 74
     0
 42
0.000000001
 43
0.00000001
 40
0.0
 40
0.0
 40
0.0
 40
0.0
 40
0.1038470769322736
 40
0.1737992859881159
 40
0.2557706103176525
 40
0.3497610505187547
 40
0.4557706069859365
 40
0.573799279993188
 40
0.7038470697385366
 40
0.7135890889256659
 40
0.7135890889256659
 40
0.7135890889256659
 40
0.7135890889256659
 10
25.59846599942645
 20
12.60613884491407
 30
0.0
 10
25.74602353684321
 20
12.71017343800617
 30
0.0
 10
25.98310035006676
 20
12.89784875971501
 30
0.0
 10
26.31367944824289
 20
13.19529837952276
 30
0.0
 10
26.61775407122479
 20
13.49589659313297
 30
0.0
 10
26.94986537351707
 20
13.8565371680566
 30
0.0
 10
27.30492652328407
 20
14.28044302819368
 30
0.0
 10
27.67762602195529
 20
14.77046593593283
 30
0.0
 10
27.9319166711409
 20
15.13963454267935
 30
0.0
 10
28.06488047219818
 20
15.34301191285836
 30
0.0
 10
28.07412300533911
 20
15.35720083482302
 30
0.0
  0
ARC
  5
FD
330
1F
100
AcDbEntity
  8
0
  6
Continuous
 62
     7
370
    25
100
AcDbCircle
 10
0.0
 20
0.0
 30
0.0
 40
32.0
100
AcDbArc
 50
28.6796891117
 51
31.3203108883
  0
SPLINE
  5
FE
330
1F
100
AcDbEntity
  8
0
  6
Continuous
 62
     7
370
    25
100
AcDbSpline
210
0.0
220
0.0
230
1.0
 70
     8
 71
     3
 72
    15
 73
    11
 74
     0
 42
0.000000001
 43
0.00000001
 40
0.2864109110743331
 40
0.2864109110743331
 40
0.2864109110743331
 40
0.2864109110743331
 40
0.2961529302614634
 40
0.426200720006812
 40
0.5442293930140635
 40
0.6502389494812453
 40
0.7442293896823475
 40
0.8262007140118841
 40
0.8961529230677264
 40
1.0
 40
1.0
 40
1.0
 40
1.0
 10
27.33678755664596
 20
16.63430329418118
 30
0.0
 10
27.31987832320178
 20
16.63339348666813
 30
0.0
 10
27.07726645354325
 20
16.6199321422583
 30
0.0
 10
26.63041173722825
 20
16.58429428349199
 30
0.0
 10
26.01968970135421
 20
16.50653850353456
 30
0.0
 10
25.47504588277891
 20
16.41099945800797
 30
0.0
 10
24.99666633211347
 20
16.30370292080074
 30
0.0
 10
24.58430333130387
 20
16.19066567945735
 30
0.0
 10
24.16141485511626
 20
16.05310059238055
 30
0.0
 10
23.88034485224122
 20
15.94162371033511
 30
0.0
 10
23.7164694830427
 20
15.86585243095838
 30
0.0
  0
LINE
  5
FF
330
1F
100
AcDbEntity
  8
0
  6
Continuous
 62
     7
370
    25
100
AcDbLine
 10
23.716469483
 20
15.865852431
 30
0.0
 11
23.6630851476
 21
15.8426912444
 31
0.0
  0
SPLINE
  5
100
330
1F
100
AcDbEntity
  8
0
  6
Continuous
 62
     7
370
    25
100
AcDbSpline
210
0.0
220
0.0
230
1.0
 70
     8
 71
     3
 72
    15
 73
    11
 74
     0
 42
0.000000001
 43
0.00000001
 40
0.0
 40
0.0
 40
0.0
 40
0.0
 40
0.116824388060492
 40
0.1947561360372789
 40
0.2749300010688125
 40
0.3600226580694308
 40
0.4538017178728536
 40
0.5612445088623751
 40
0.6877527338530942
 40
1.0
 40
1.0
 40
1.0
 40
1.0
 10
23.6630851476279
 20
15.84269124435548
 30
0.0
 10
23.61060935045694
 20
15.81861682774059
 30
0.0
 10
23.52063428050821
 20
15.78413621965537
 30
0.0
 10
23.39054715568997
 20
15.74473443811322
 30
0.0
 10
23.27309337868886
 20
15.71872776877135
 30
0.0
 10
23.14594476636054
 20
15.7023755190643
 30
0.0
 10
23.00413326423284
 20
15.7001521487052
 30
0.0
 10
22.84282868826095
 20
15.7206405377365
 30
0.0
 10
22.58383297731173
 20
15.8028457069115
 30
0.0
 10
22.40721990447555
 20
15.94212626911885
 30
0.0
 10
22.31711334064549
 20
16.06849252857227
 30
0.0
  0
ARC
  5
101
330
1F
100
AcDbEntity
  8
0
  6
Continuous
 62
     7
370
    25
100
AcDbCircle
 10
0.0
 20
0.0
 30
0.0
 40
27.5
100
AcDbArc
 50
35.7541762546
 51
36.2458237454
  0
SPLINE
  5
102
330
1F
100
AcDbEntity
  8
0
  6
Continuous
 62
     7
370
    25
100
AcDbSpline
210
0.0
220
0.0
230
1.0
 70
     8
 71
     3
 72
    15
 73
    11
 74
     0
 42
0.000000001
 43
0.00000001
 40
0.0
 40
0.0
 40
0.0
 40
0.0
 40
0.3122472661469057
 40
0.4387554911376247
 40
0.5461982821271463
 40
0.639977341930569
 40
0.7250699989311875
 40
0.8052438639627211
 40
0.883175611939508
 40
1.0
 40
1.0
 40
1.0
 40
1.0
 10
22.17841181399003
 20
16.2593988022026
 30
0.0
 10
22.08607481902522
 20
16.38414455858084
 30
0.0
 10
22.00818757367983
 20
16.59515363307279
 30
0.0
 10
22.01003988801633
 20
16.86687598596408
 30
0.0
 10
22.04040012736549
 20
17.02661701444841
 30
0.0
 10
22.08633684238894
 20
17.1608007084068
 30
0.0
 10
22.14117983804956
 20
17.27667310164381
 30
0.0
 10
22.20220886354115
 20
17.38034177883046
 30
0.0
 10
22.27988131694865
 20
17.49188616646977
 30
0.0
 10
22.34047814963816
 20
17.56680244917391
 30
0.0
 10
22.37959019355495
 20
17.60927049415747
 30
0.0
  0
LINE
  5
103
330
1F
100
AcDbEntity
  8
0
  6
Continuous
 62
     7
370
    25
100
AcDbLine
 10
22.3795901936
 20
17.6092704942
 30
0.0
 11
22.4181144579
 21
17.652884814
 31
0.0
  0
SPLINE
  5
104
330
1F
100
AcDbEntity
  8
0
  6
Continuous
 62
     7
370
    25
100
AcDbSpline
210
0.0
220
0.0
230
1.0
 70
     8
 71
     3
 72
    15
 73
    11
 74
     0
 42
0.000000001
 43
0.00000001
 40
0.0
 40
0.0
 40
0.0
 40
0.0
 40
0.1038470769322736
 40
0.1737992859881159
 40
0.2557706103176525
 40
0.3497610505187547
 40
0.4557706069859365
 40
0.573799279993188
 40
0.7038470697385366
 40
0.7135890889256675
 40
0.7135890889256675
 40
0.7135890889256675
 40
0.7135890889256675
 10
22.41811445787535
 20
17.65288481395161
 30
0.0
 10
22.54081750091643
 20
17.7853249386752
 30
0.0
 10
22.73369372349941
 20
18.01819014541264
 30
0.0
 10
22.99520562184581
 20
18.37787103661758
 30
0.0
 10
23.2301376019111
 20
18.73512112704421
 30
0.0
 10
23.480010083715
 20
19.1569306625323
 30
0.0
 10
23.73917731134473
 20
19.64539452655414
 30
0.0
 10
24.00185094047719
 20
20.20219784099946
 30
0.0
 10
24.17383025964163
 20
20.61616922678613
 30
0.0
 10
24.26160394972226
 20
20.84274704216566
 30
0.0
 10
24.26769446858222
 20
20.85854753283517
 30
0.0
  0
ARC
  5
105
330
1F
100
AcDbEntity
  8
0
  6
Continuous
 62
     7
370
    25
100
AcDbCircle
 10
0.0
 20
0.0
 30
0.0
 40
32.00000000000001
100
AcDbArc
 50
40.6796891117
 51
43.3203108883
  0
SPLINE
  5
106
330
1F
100
AcDbEntity
  8
0
  6
Continuous
 62
     7
370
    25
100
AcDbSpline
210
0.0
220
0.0
230
1.0
 70
     8
 71
     3
 72
    15
 73
    11
 74
     0
 42
0.000000001
 43
0.00000001
 40
0.286410911074335
 40
0.286410911074335
 40
0.286410911074335
 40
0.286410911074335
 40
0.2961529302614634
 40
0.426200720006812
 40
0.5442293930140635
 40
0.6502389494812453
 40
0.7442293896823475
 40
0.8262007140118841
 40
0.8961529230677264
 40
1.0
 40
1.0
 40
1.0
 40
1.0
 10
23.28094703683436
 20
21.95444157950991
 30
0.0
 10
23.26459647032904
 20
21.95003602615809
 30
0.0
 10
23.03008502298993
 20
21.88642700038779
 30
0.0
 10
22.60040468182306
 20
21.7586615947213
 30
0.0
 10
22.0191947233994
 20
21.55562871401452
 30
0.0
 10
21.50631636350003
 20
21.34893960864285
 30
0.0
 10
21.06069875824616
 20
21.14452705697507
 30
0.0
 10
20.68084864234593
 20
20.94822486183245
 30
0.0
 10
20.29580268383668
 20
20.72574244385202
 30
0.0
 10
20.04405208191937
 20
20.55826385960609
 30
0.0
 10
19.89951151752911
 20
20.45007675938577
 30
0.0
  0
LINE
  5
107
330
1F
100
AcDbEntity
  8
0
  6
Continuous
 62
     7
370
    25
100
AcDbLine
 10
19.8995115175
 20
20.4500767594
 30
0.0
 11
19.8521092394
 21
20.4163224728
 31
0.0
  0
SPLINE
  5
108
330
1F
100
AcDbEntity
  8
0
  6
Continuous
 62
     7
370
    25
100
AcDbSpline
210
0.0
220
0.0
230
1.0
 70
     8
 71
     3
 72
    15
 73
    11
 74
     0
 42
0.000000001
 43
0.00000001
 40
0.0
 40
0.0
 40
0.0
 40
0.0
 40
0.116824388060492
 40
0.1947561360372789
 40
0.2749300010688125
 40
0.3600226580694308
 40
0.4538017178728536
 40
0.5612445088623751
 40
0.6877527338530942
 40
1.0
 40
1.0
 40
1.0
 40
1.0
 10
19.85210923939431
 20
20.41632247284072
 30
0.0
 10
19.80578551695879
 20
20.38186380827297
 30
0.0
 10
19.72494553969002
 20
20.32942981527808
 30
0.0
 10
19.60589322168435
 20
20.26384242312341
 30
0.0
 10
19.496413182109
 20
20.21398404853435
 30
0.0
 10
19.37544289590869
 20
20.17155345174249
 30
0.0
 10
19.23719258003669
 20
20.13989439817542
 30
0.0
 10
19.07515312045678
 20
20.12639795962233
 30
0.0
 10
18.80472567147432
 20
20.15295851244077
 30
0.0
 10
18.6030139608348
 20
20.25247553759885
 30
0.0
 10
18.48860341894878
 20
20.35734618305724
 30
0.0
  0
ARC
  5
109
330
1F
100
AcDbEntity
  8
0
  6
Continuous
 62
     7
370
    25
100
AcDbCircle
 10
0.0
 20
0.0
 30
0.0
 40
27.49999999999999
100
AcDbArc
 50
47.7541762546
 51
48.2458237454
  0
SPLINE
  5
10A
330
1F
100
AcDbEntity
  8
0
  6
Continuous
 62
     7
370
    25
100
AcDbSpline
210
0.0
220
0.0
230
1.0
 70
     8
 71
     3
 72
    15
 73
    11
 74
     0
 42
0.000000001
 43
0.00000001
 40
0.0
 40
0.0
 40
0.0
 40
0.0
 40
0.3122472661469057
 40
0.4387554911376247
 40
0.5461982821271463
 40
0.639977341930569
 40
0.7250699989311875
 40
0.8052438639627211
 40
0.883175611939508
 40
1.0
 40
1.0
 40
1.0
 40
1.0
 10
18.31324120729443
 20
20.51524302764784
 30
0.0
 10
18.19698589607969
 20
20.61806484920277
 30
0.0
 10
18.07692942046183
 20
20.80826920027723
 30
0.0
 10
18.02224700346327
 20
21.07443888562921
 30
0.0
 10
18.0187317714152
 20
21.23700143807663
 30
0.0
 10
18.03576630030993
 20
21.37780367647077
 30
0.0
 10
18.06531961973541
 20
21.50254647986414
 30
0.0
 10
18.10346108463641
 20
21.61663839560443
 30
0.0
 10
18.15624482634475
 20
21.74189428186706
 30
0.0
 10
18.19994150184526
 20
21.82777225399269
 30
0.0
 10
18.22936925072401
 20
21.87744412148329
 30
0.0
  0
LINE
  5
10B
330
1F
100
AcDbEntity
  8
0
  6
Continuous
 62
     7
370
    25
100
AcDbLine
 10
18.2293692507
 20
21.8774441215
 30
0.0
 11
18.2579837405
 21
21.9281150087
 31
0.0
  0
SPLINE
  5
10C
330
1F
100
AcDbEntity
  8
0
  6
Continuous
 62
     7
370
    25
100
AcDbSpline
210
0.0
220
0.0
230
1.0
 70
     8
 71
     3
 72
    15
 73
    11
 74
     0
 42
0.000000001
 43
0.00000001
 40
0.0
 40
0.0
 40
0.0
 40
0.0
 40
0.1038470769322736
 40
0.1737992859881159
 40
0.2557706103176525
 40
0.3497610505187547
 40
0.4557706069859365
 40
0.573799279993188
 40
0.7038470697385366
 40
0.7135890889256663
 40
0.7135890889256663
 40
0.7135890889256663
 40
0.7135890889256663
 10
18.25798374046678
 20
21.92811500867993
 30
0.0
 10
18.35046957735674
 20
22.08317239606635
 30
0.0
 10
18.49071559284948
 20
22.35105016088673
 30
0.0
 10
18.6717309665351
 20
22.7572425426028
 30
0.0
 10
18.8272526488262
 20
23.15553096661808
 30
0.0
 10
18.98396568366571
 20
23.62007436190308
 30
0.0
 10
19.1359121376884
 20
24.15174801504224
 30
0.0
 10
19.2770797992411
 20
24.75099675951374
 30
0.0
 10
19.35923146688855
 20
25.19167838832659
 30
0.0
 10
19.39797891455112
 20
25.43155411113355
 30
0.0
 10
19.40065123423037
 20
25.44827561324648
 30
0.0
  0
ARC
  5
10D
330
1F
100
AcDbEntity
  8
0
  6
Continuous
 62
     7
370
    25
100
AcDbCircle
 10
0.0
 20
0.0
 30
0.0
 40
32.0
100
AcDbArc
 50
52.6796891117
 51
55.3203108883
  0
SPLINE
  5
10E
330
1F
100
AcDbEntity
  8
0
  6
Continuous
 62
     7
370
    25
100
AcDbSpline
210
0.0
220
0.0
230
1.0
 70
     8
 71
     3
 72
    15
 73
    11
 74
     0
 42
0.000000001
 43
0.00000001
 40
0.2864109110743336
 40
0.2864109110743336
 40
0.2864109110743336
 40
0.2864109110743336
 40
0.2961529302614634
 40
0.426200720006812
 40
0.5442293930140635
 40
0.6502389494812453
 40
0.7442293896823475
 40
0.8262007140118841
 40
0.8961529230677264
 40
1.0
 40
1.0
 40
1.0
 40
1.0
 10
18.20761741713469
 20
26.31506541871507
 30
0.0
 10
18.19254011578324
 20
26.30735666334613
 30
0.0
 10
17.97637836632305
 20
26.19637997587151
 30
0.0
 10
17.58265149304832
 20
25.98207098461888
 30
0.0
 10
17.05635527621298
 20
25.66263451430949
 30
0.0
 10
16.59765762038055
 20
25.35382865480187
 30
0.0
 10
16.20427758819836
 20
25.06123389806165
 30
0.0
 10
15.87354162999543
 20
24.79024609700998
 30
0.0
 10
15.54316654520689
 20
24.49256989738076
 30
0.0
 10
15.33173805358452
 20
24.2764092287173
 30
0.0
 10
15.21284941024896
 20
24.1405346030723
 30
0.0
  0
LINE
  5
10F
330
1F
100
AcDbEntity
  8
0
  6
Continuous
 62
     7
370
    25
100
AcDbLine
 10
15.2128494102
 20
24.1405346031
 30
0.0
 11
15.1735008964
 21
24.0976624409
 31
0.0
  0
SPLINE
  5
110
330
1F
100
AcDbEntity
  8
0
  6
Continuous
 62
     7
370
    25
100
AcDbSpline
210
0.0
220
0.0
230
1.0
 70
     8
 71
     3
 72
    15
 73
    11
 74
     0
 42
0.000000001
 43
0.00000001
 40
0.0
 40
0.0
 40
0.0
 40
0.0
 40
0.116824388060492
 40
0.1947561360372789
 40
0.2749300010688125
 40
0.3600226580694308
 40
0.4538017178728536
 40
0.5612445088623751
 40
0.6877527338530942
 40
1.0
 40
1.0
 40
1.0
 40
1.0
 10
15.17350089641002
 20
24.09766244087817
 30
0.0
 10
15.13535381766625
 20
24.05432553735019
 30
0.0
 10
15.06718202799732
 20
23.98622977654573
 30
0.0
 10
14.96436767437749
 20
23.89732325753893
 30
0.0
 10
14.86764617530086
 20
23.82579222791924
 30
0.0
 10
14.75814119721534
 20
23.75913770472696
 30
0.0
 10
14.62949426980128
 20
23.69942662050979
 30
0.0
 10
14.47380182854857
 20
23.65253521350018
 30
0.0
 10
14.20376161870828
 20
23.62229032635222
 30
0.0
 10
13.98576703994055
 20
23.67769444292596
 30
0.0
 10
13.85205280968169
 20
23.75648612395759
 30
0.0
  0
ARC
  5
111
330
1F
100
AcDbEntity
  8
0
  6
Continuous
 62
     7
370
    25
100
AcDbCircle
 10
0.0
 20
0.0
 30
0.0
 40
27.5
100
AcDbArc
 50
59.7541762546
 51
60.2458237454
  0
SPLINE
  5
112
330
1F
100
AcDbEntity
  8
0
  6
Continuous
 62
     7
370
    25
100
AcDbSpline
210
0.0
220
0.0
230
1.0
 70
     8
 71
     3
 72
    15
 73
    11
 74
     0
 42
0.000000001
 43
0.00000001
 40
0.0
 40
0.0
 40
0.0
 40
0.0
 40
0.3122472661469057
 40
0.4387554911376247
 40
0.5461982821271463
 40
0.639977341930569
 40
0.7250699989311875
 40
0.8052438639627211
 40
0.883175611939508
 40
1.0
 40
1.0
 40
1.0
 40
1.0
 10
13.64769408315899
 20
23.87447268972672
 30
0.0
 10
13.51260137064928
 20
23.95087676946256
 30
0.0
 10
13.35562270883833
 20
24.11196355427584
 30
0.0
 10
13.2467954445229
 20
24.36094767961478
 30
0.0
 10
13.20955837358608
 20
24.51922699242166
 30
0.0
 10
13.19694622569862
 20
24.66049404178962
 30
0.0
 10
13.19991824701752
 20
24.78865539624868
 30
0.0
 10
13.21350518628871
 20
24.908184186351
 30
0.0
 10
13.23909331350073
 20
25.04167728796284
 30
0.0
 10
13.26398007741295
 20
25.13476367003985
 30
0.0
 10
13.28243739741765
 20
25.18946846107608
 30
0.0
  0
LINE
  5
113
330
1F
100
AcDbEntity
  8
0
  6
Continuous
 62
     7
370
    25
100
AcDbLine
 10
13.2824373974
 20
25.1894684611
 30
0.0
 11
13.2998915221
 21
25.2449813548
 31
0.0
  0
SPLINE
  5
114
330
1F
100
AcDbEntity
  8
0
  6
Continuous
 62
     7
370
    25
100
AcDbSpline
210
0.0
220
0.0
230
1.0
 70
     8
 71
     3
 72
    15
 73
    11
 74
     0
 42
0.000000001
 43
0.00000001
 40
0.0
 40
0.0
 40
0.0
 40
0.0
 40
0.1038470769322736
 40
0.1737992859881159
 40
0.2557706103176525
 40
0.3497610505187547
 40
0.4557706069859365
 40
0.573799279993188
 40
0.7038470697385366
 40
0.7135890889256665
 40
0.7135890889256665
 40
0.7135890889256665
 40
0.7135890889256665
 10
13.29989152207347
 20
25.24498135475884
 30
0.0
 10
13.35811807794396
 20
25.4158792529314
 30
0.0
 10
13.43960446249437
 20
25.70706203209194
 30
0.0
 10
13.53221207108101
 20
26.14201334811085
 30
0.0
 10
13.60152641180597
 20
26.56393299038541
 30
0.0
 10
13.65823088806603
 20
27.05090746996683
 30
0.0
 10
13.69631577932091
 20
27.60255422232791
 30
0.0
 10
13.7098077690864
 20
28.21805835117766
 30
0.0
 10
13.69854136313324
 20
28.6661903212125
 30
0.0
 10
13.68656911898401
 20
28.90888023130882
 30
0.0
 10
13.68570644628935
 20
28.92579193498415
 30
0.0
  0
ARC
  5
115
330
1F
100
AcDbEntity
  8
0
  6
Continuous
 62
     7
370
    25
100
AcDbCircle
 10
0.0
 20
0.0
 30
0.0
 40
32.0
100
AcDbArc
 50
64.6796891117
 51
67.3203108883
  0
SPLINE
  5
116
330
1F
100
AcDbEntity
  8
0
  6
Continuous
 62
     7
370
    25
100
AcDbSpline
210
0.0
220
0.0
230
1.0
 70
     8
 71
     3
 72
    15
 73
    11
 74
     0
 42
0.000000001
 43
0.00000001
 40
0.2864109110743338
 40
0.2864109110743338
 40
0.2864109110743338
 40
0.2864109110743338
 40
0.2961529302614634
 40
0.426200720006812
 40
0.5442293930140635
 40
0.6502389494812453
 40
0.7442293896823475
 40
0.8262007140118841
 40
0.8961529230677264
 40
1.0
 40
1.0
 40
1.0
 40
1.0
 10
12.33852754646434
 20
29.52559462542865
 30
0.0
 10
12.32538246068473
 20
29.51491957764292
 30
0.0
 10
12.13701771481403
 20
29.36142544223184
 30
0.0
 10
11.79645206310472
 20
29.06993919667947
 30
0.0
 10
11.34807125798283
 20
28.64806004334624
 30
0.0
 10
10.96360159485278
 20
28.25063372757805
 30
0.0
 10
10.63965173079545
 20
27.88264456066037
 30
0.0
 10
10.3724846787105
 20
27.54881462094935
 30
0.0
 10
10.11121944416348
 20
27.18895451800403
 30
0.0
 10
9.949353502466407
 20
26.93355902339759
 30
0.0
 10
9.861312784390313
 20
26.77593524546741
 30
0.0
  0
LINE
  5
117
330
1F
100
AcDbEntity
  8
0
  6
Continuous
 62
     7
370
    25
100
AcDbLine
 10
9.8613127844
 20
26.7759352455
 30
0.0
 11
9.8317377537
 21
26.7258189268
 31
0.0
  0
SPLINE
  5
118
330
1F
100
AcDbEntity
  8
0
  6
Continuous
 62
     7
370
    25
100
AcDbSpline
210
0.0
220
0.0
230
1.0
 70
     8
 71
     3
 72
    15
 73
    11
 74
     0
 42
0.000000001
 43
0.00000001
 40
0.0
 40
0.0
 40
0.0
 40
0.0
 40
0.116824388060492
 40
0.1947561360372789
 40
0.2749300010688125
 40
0.3600226580694308
 40
0.4538017178728536
 40
0.5612445088623751
 40
0.6877527338530942
 40
1.0
 40
1.0
 40
1.0
 40
1.0
 10
9.831737753717107
 20
26.72581892683552
 30
0.0
 10
9.803434529056199
 20
26.67549781498502
 30
0.0
 10
9.750910361320177
 20
26.59471639787785
 30
0.0
 10
9.668827452697368
 20
26.48637639352032
 30
0.0
 10
9.589091687750345
 20
26.39629895810835
 30
0.0
 10
9.495837910785147
 20
26.30833363102305
 30
0.0
 10
9.382416859873462
 20
26.22318017706164
 30
0.0
 10
9.23987594372593
 20
26.14494318109177
 30
0.0
 10
8.982025025994524
 20
26.05921470067684
 30
0.0
 10
8.75727498824478
 20
26.06808448291353
 30
0.0
 10
8.610101023107442
 20
26.11735362497288
 30
0.0
  0
ARC
  5
119
330
1F
100
AcDbEntity
  8
0
  6
Continuous
 62
     7
370
    25
100
AcDbCircle
 10
0.0
 20
0.0
 30
0.0
 40
27.5
100
AcDbArc
 50
71.7541762546
 51
72.2458237454
  0
SPLINE
  5
11A
330
1F
100
AcDbEntity
  8
0
  6
Continuous
 62
     7
370
    25
100
AcDbSpline
210
0.0
220
0.0
230
1.0
 70
     8
 71
     3
 72
    15
 73
    11
 74
     0
 42
0.000000001
 43
0.00000001
 40
0.0
 40
0.0
 40
0.0
 40
0.0
 40
0.3122472661469057
 40
0.4387554911376247
 40
0.5461982821271463
 40
0.639977341930569
 40
0.7250699989311875
 40
0.8052438639627211
 40
0.883175611939508
 40
1.0
 40
1.0
 40
1.0
 40
1.0
 10
8.385677238687407
 20
26.19027333283408
 30
0.0
 10
8.237651324666166
 20
26.23692044583891
 30
0.0
 10
8.050611197450447
 20
26.36184939891452
 30
0.0
 10
7.892395359479892
 20
26.58276616320472
 30
0.0
 10
7.823063888337527
 20
26.72984467089298
 30
0.0
 10
7.781356275050388
 20
26.86540248330288
 30
0.0
 10
7.757617106669718
 20
26.99138112265136
 30
0.0
 10
7.746055705867573
 20
27.11112280542547
 30
0.0
 10
7.743329894638654
 20
27.24701883327512
 30
0.0
 10
7.748319075959693
 20
27.3432453037287
 30
0.0
 10
7.754999293638088
 20
27.40059215643959
 30
0.0
  0
LINE
  5
11B
330
1F
100
AcDbEntity
  8
0
  6
Continuous
 62
     7
370
    25
100
AcDbLine
 10
7.7549992936
 20
27.4005921564
 30
0.0
 11
7.7605302242
 21
27.4585208768
 31
0.0
  0
SPLINE
  5
11C
330
1F
100
AcDbEntity
  8
0
  6
Continuous
 62
     7
370
    25
100
AcDbSpline
210
0.0
220
0.0
230
1.0
 70
     8
 71
     3
 72
    15
 73
    11
 74
     0
 42
0.000000001
 43
0.00000001
 40
0.0
 40
0.0
 40
0.0
 40
0.0
 40
0.1038470769322736
 40
0.1737992859881159
 40
0.2557706103176525
 40
0.3497610505187547
 40
0.4557706069859365
 40
0.573799279993188
 40
0.7038470697385366
 40
0.713589088925664
 40
0.713589088925664
 40
0.713589088925664
 40
0.713589088925664
 10
7.760530224205319
 20
27.4585208767741
 30
0.0
 10
7.781952719162768
 20
27.63779022752357
 30
0.0
 10
7.801118126750942
 20
27.93955193632495
 30
0.0
 10
7.801270573362758
 20
28.3842527270087
 30
0.0
 10
7.7813482032248
 20
28.81136367458008
 30
0.0
 10
7.735565863194571
 20
29.2994861169374
 30
0.0
 10
7.658124699182221
 20
29.84699635834739
 30
0.0
 10
7.543351352465999
 20
30.45185538762816
 30
0.0
 10
7.43915926891458
 20
30.88785218141869
 30
0.0
 10
7.37699057747208
 20
31.12274956517776
 30
0.0
 10
7.372630615339829
 20
31.13911234781354
 30
0.0
  0
ARC
  5
11D
330
1F
100
AcDbEntity
  8
0
  6
Continuous
 62
     7
370
    25
100
AcDbCircle
 10
0.0
 20
0.0
 30
0.0
 40
32.0
100
AcDbArc
 50
76.6796891117
 51
79.3203108883
  0
SPLINE
  5
11E
330
1F
100
AcDbEntity
  8
0
  6
Continuous
 62
     7
370
    25
100
AcDbSpline
210
0.0
220
0.0
230
1.0
 70
     8
 71
     3
 72
    15
 73
    11
 74
     0
 42
0.000000001
 43
0.00000001
 40
0.2864109110743355
 40
0.2864109110743355
 40
0.2864109110743355
 40
0.2864109110743355
 40
0.2961529302614634
 40
0.426200720006812
 40
0.5442293930140635
 40
0.6502389494812453
 40
0.7442293896823475
 40
0.8262007140118841
 40
0.8961529230677264
 40
1.0
 40
1.0
 40
1.0
 40
1.0
 10
5.930184815189424
 20
31.44571366748887
 30
0.0
 10
5.919546448307356
 20
31.43253887809917
 30
0.0
 10
5.767211149295023
 20
31.24323572501568
 30
0.0
 10
5.494691072346136
 20
30.88731157280039
 30
0.0
 10
5.143822071691345
 20
30.38142787984476
 30
0.0
 10
4.850383570432585
 20
29.91275054487812
 30
0.0
 10
4.610022038043338
 20
29.48544986018522
 30
0.0
 10
4.41810037426223
 20
29.103367752074
 30
0.0
 10
4.237363534396123
 20
28.69705135911164
 30
0.0
 10
4.132134460995478
 20
28.41358304720008
 30
0.0
 10
4.07878947002501
 20
28.24109903244307
 30
0.0
  0
LINE
  5
11F
330
1F
100
AcDbEntity
  8
0
  6
Continuous
 62
     7
370
    25
100
AcDbLine
 10
4.07878947
 20
28.2410990324
 30
0.0
 11
4.0602804933
 21
28.185928881
 31
0.0
  0
SPLINE
  5
120
330
1F
100
AcDbEntity
  8
0
  6
Continuous
 62
     7
370
    25
100
AcDbSpline
210
0.0
220
0.0
230
1.0
 70
     8
 71
     3
 72
    15
 73
    11
 74
     0
 42
0.000000001
 43
0.00000001
 40
0.0
 40
0.0
 40
0.0
 40
0.0
 40
0.116824388060492
 40
0.1947561360372789
 40
0.2749300010688125
 40
0.3600226580694308
 40
0.4538017178728536
 40
0.5612445088623751
 40
0.6877527338530942
 40
1.0
 40
1.0
 40
1.0
 40
1.0
 10
4.060280493274704
 20
28.18592888098242
 30
0.0
 10
4.043058109428274
 20
28.13082283486475
 30
0.0
 10
4.008477121794149
 20
28.04088629701471
 30
0.0
 10
3.950713075152676
 20
27.91784778536989
 30
0.0
 10
3.8914478798781
 20
27.81316076033264
 30
0.0
 10
3.818520941567868
 20
27.70772913625241
 30
0.0
 10
3.725282811337986
 20
27.60085492709648
 30
0.0
 10
3.602123142318479
 20
27.49469167431298
 30
0.0
 10
3.367730839106795
 20
27.35722634659612
 30
0.0
 10
3.146047997495037
 20
27.31917414245006
 30
0.0
 10
2.99184650597477
 20
27.33676744760957
 30
0.0
  0
ARC
  5
121
330
1F
100
AcDbEntity
  8
0
  6
Continuous
 62
     7
370
    25
100
AcDbCircle
 10
0.0
 20
0.0
 30
0.0
 40
27.5
100
AcDbArc
 50
83.7541762546
 51
84.2458237454
  0
SPLINE
  5
122
330
1F
100
AcDbEntity
  8
0
  6
Continuous
 62
     7
370
    25
100
AcDbSpline
210
0.0
220
0.0
230
1.0
 70
     8
 71
     3
 72
    15
 73
    11
 74
     0
 42
0.000000001
 43
0.00000001
 40
0.0
 40
0.0
 40
0.0
 40
0.0
 40
0.3122472661469057
 40
0.4387554911376247
 40
0.5461982821271463
 40
0.639977341930569
 40
0.7250699989311875
 40
0.8052438639627211
 40
0.883175611939508
 40
1.0
 40
1.0
 40
1.0
 40
1.0
 10
2.757166059941354
 20
27.36143335642172
 30
0.0
 10
2.602676387158445
 20
27.37628480001956
 30
0.0
 10
2.393749345615402
 20
27.45959592663246
 30
0.0
 10
2.193059725312852
 20
27.64279020719819
 30
0.0
 10
2.094663971943183
 20
27.77223987322088
 30
0.0
 10
2.025683716092336
 20
27.89616392179184
 30
0.0
 10
1.976270873583502
 20
28.01445397497764
 30
0.0
 10
1.940066421400834
 20
28.12917526430197
 30
0.0
 10
1.909145802761575
 20
28.26153490987091
 30
0.0
 10
1.894019350326948
 20
28.35669591019641
 30
0.0
 10
1.888630508111251
 20
28.41417849193774
 30
0.0
  0
LINE
  5
123
330
1F
100
AcDbEntity
  8
0
  6
Continuous
 62
     7
370
    25
100
AcDbLine
 10
1.8886305081
 20
28.4141784919
 30
0.0
 11
1.8819965164
 21
28.4719912759
 31
0.0
  0
SPLINE
  5
124
330
1F
100
AcDbEntity
  8
0
  6
Continuous
 62
     7
370
    25
100
AcDbSpline
210
0.0
220
0.0
230
1.0
 70
     8
 71
     3
 72
    15
 73
    11
 74
     0
 42
0.000000001
 43
0.00000001
 40
0.0
 40
0.0
 40
0.0
 40
0.0
 40
0.1038470769322736
 40
0.1737992859881159
 40
0.2557706103176525
 40
0.3497610505187547
 40
0.4557706069859365
 40
0.573799279993188
 40
0.7038470697385366
 40
0.7135890889256663
 40
0.7135890889256663
 40
0.7135890889256663
 40
0.7135890889256663
 10
1.881996516383756
 20
28.47199127587255
 30
0.0
 10
1.865678684601993
 20
28.65179714834139
 30
0.0
 10
1.821685494950498
 20
28.95094935209567
 30
0.0
 10
1.729376116939034
 20
29.38596405898022
 30
0.0
 10
1.62108773911132
 20
29.79959951393382
 30
0.0
 10
1.474819490738165
 20
30.26753662606469
 30
0.0
 10
1.285236821929861
 20
30.78698153172836
 30
0.0
 10
1.047214284727045
 20
31.35476021942494
 30
0.0
 10
0.854650217597657
 20
31.75956668493777
 30
0.0
 10
0.745002148996397
 20
31.97640539952661
 30
0.0
 10
0.7373354486931545
 20
31.99150412900432
 30
0.0
  0
ARC
  5
125
330
1F
100
AcDbEntity
  8
0
  6
Continuous
 62
     7
370
    25
100
AcDbCircle
 10
0.0
 20
0.0
 30
0.0
 40
32.0
100
AcDbArc
 50
88.6796891117
 51
91.3203108883
  0
SPLINE
  5
126
330
1F
100
AcDbEntity
  8
0
  6
Continuous
 62
     7
370
    25
100
AcDbSpline
210
0.0
220
0.0
230
1.0
 70
     8
 71
     3
 72
    15
 73
    11
 74
     0
 42
0.000000001
 43
0.00000001
 40
0.2864109110743336
 40
0.2864109110743336
 40
0.2864109110743336
 40
0.2864109110743336
 40
0.2961529302614634
 40
0.426200720006812
 40
0.5442293930140635
 40
0.6502389494812453
 40
0.7442293896823475
 40
0.8262007140118841
 40
0.8961529230677264
 40
1.0
 40
1.0
 40
1.0
 40
1.0
 10
-0.737335448693162
 20
31.99150412900433
 30
0.0
 10
-0.7450021489964047
 20
31.97640539952662
 30
0.0
 10
-0.8546502175976649
 20
31.75956668493777
 30
0.0
 10
-1.047214284727054
 20
31.35476021942494
 30
0.0
 10
-1.285236821929867
 20
30.78698153172836
 30
0.0
 10
-1.474819490738174
 20
30.26753662606469
 30
0.0
 10
-1.621087739111328
 20
29.79959951393382
 30
0.0
 10
-1.729376116939041
 20
29.38596405898022
 30
0.0
 10
-1.821685494950507
 20
28.95094935209566
 30
0.0
 10
-1.865678684602
 20
28.65179714834139
 30
0.0
 10
-1.881996516383764
 20
28.47199127587256
 30
0.0
  0
LINE
  5
127
330
1F
100
AcDbEntity
  8
0
  6
Continuous
 62
     7
370
    25
100
AcDbLine
 10
-1.8819965164
 20
28.4719912759
 30
0.0
 11
-1.8886305081
 21
28.4141784919
 31
0.0
  0
SPLINE
  5
128
330
1F
100
AcDbEntity
  8
0
  6
Continuous
 62
     7
370
    25
100
AcDbSpline
210
0.0
220
0.0
230
1.0
 70
     8
 71
     3
 72
    15
 73
    11
 74
     0
 42
0.000000001
 43
0.00000001
 40
0.0
 40
0.0
 40
0.0
 40
0.0
 40
0.116824388060492
 40
0.1947561360372789
 40
0.2749300010688125
 40
0.3600226580694308
 40
0.4538017178728536
 40
0.5612445088623751
 40
0.6877527338530942
 40
1.0
 40
1.0
 40
1.0
 40
1.0
 10
-1.888630508111258
 20
28.41417849193774
 30
0.0
 10
-1.894019350326955
 20
28.3566959101964
 30
0.0
 10
-1.909145802761582
 20
28.26153490987091
 30
0.0
 10
-1.94006642140084
 20
28.12917526430197
 30
0.0
 10
-1.97627087358351
 20
28.01445397497764
 30
0.0
 10
-2.025683716092341
 20
27.89616392179185
 30
0.0
 10
-2.094663971943188
 20
27.77223987322088
 30
0.0
 10
-2.193059725312858
 20
27.6427902071982
 30
0.0
 10
-2.393749345615408
 20
27.45959592663246
 30
0.0
 10
-2.602676387158451
 20
27.37628480001957
 30
0.0
 10
-2.757166059941361
 20
27.36143335642172
 30
0.0
  0
ARC
  5
129
330
1F
100
AcDbEntity
  8
0
  6
Continuous
 62
     7
370
    25
100
AcDbCircle
 10
0.0
 20
0.0
 30
0.0
 40
27.5
100
AcDbArc
 50
95.7541762546
 51
96.2458237454
  0
SPLINE
  5
12A
330
1F
100
AcDbEntity
  8
0
  6
Continuous
 62
     7
370
    25
100
AcDbSpline
210
0.0
220
0.0
230
1.0
 70
     8
 71
     3
 72
    15
 73
    11
 74
     0
 42
0.000000001
 43
0.00000001
 40
0.0
 40
0.0
 40
0.0
 40
0.0
 40
0.3122472661469057
 40
0.4387554911376247
 40
0.5461982821271463
 40
0.639977341930569
 40
0.7250699989311875
 40
0.8052438639627211
 40
0.883175611939508
 40
1.0
 40
1.0
 40
1.0
 40
1.0
 10
-2.991846505974415
 20
27.33676744760961
 30
0.0
 10
-3.146047997494679
 20
27.31917414245009
 30
0.0
 10
-3.36773083910644
 20
27.35722634659617
 30
0.0
 10
-3.602123142318119
 20
27.49469167431302
 30
0.0
 10
-3.725282811337627
 20
27.60085492709653
 30
0.0
 10
-3.818520941567506
 20
27.70772913625245
 30
0.0
 10
-3.891447879877739
 20
27.81316076033269
 30
0.0
 10
-3.950713075152311
 20
27.91784778536994
 30
0.0
 10
-4.008477121793783
 20
28.04088629701475
 30
0.0
 10
-4.043058109427911
 20
28.13082283486481
 30
0.0
 10
-4.060280493274337
 20
28.18592888098247
 30
0.0
  0
LINE
  5
12B
330
1F
100
AcDbEntity
  8
0
  6
Continuous
 62
     7
370
    25
100
AcDbLine
 10
-4.0602804933
 20
28.185928881
 30
0.0
 11
-4.07878947
 21
28.2410990324
 31
0.0
  0
SPLINE
  5
12C
330
1F
100
AcDbEntity
  8
0
  6
Continuous
 62
     7
370
    25
100
AcDbSpline
210
0.0
220
0.0
230
1.0
 70
     8
 71
     3
 72
    15
 73
    11
 74
     0
 42
0.000000001
 43
0.00000001
 40
0.0
 40
0.0
 40
0.0
 40
0.0
 40
0.1038470769322736
 40
0.1737992859881159
 40
0.2557706103176525
 40
0.3497610505187547
 40
0.4557706069859365
 40
0.573799279993188
 40
0.7038470697385366
 40
0.713589088925666
 40
0.713589088925666
 40
0.713589088925666
 40
0.713589088925666
 10
-4.078789470024643
 20
28.24109903244311
 30
0.0
 10
-4.132134460995109
 20
28.41358304720013
 30
0.0
 10
-4.237363534395752
 20
28.6970513591117
 30
0.0
 10
-4.418100374261851
 20
29.10336775207405
 30
0.0
 10
-4.610022038042956
 20
29.48544986018528
 30
0.0
 10
-4.850383570432196
 20
29.91275054487818
 30
0.0
 10
-5.143822071690949
 20
30.38142787984482
 30
0.0
 10
-5.494691072345736
 20
30.88731157280046
 30
0.0
 10
-5.767211149294618
 20
31.24323572501575
 30
0.0
 10
-5.919546448306951
 20
31.43253887809925
 30
0.0
 10
-5.930184815189021
 20
31.44571366748895
 30
0.0
  0
ARC
  5
12D
330
1F
100
AcDbEntity
  8
0
  6
Continuous
 62
     7
370
    25
100
AcDbCircle
 10
0.0
 20
0.0
 30
0.0
 40
32.0
100
AcDbArc
 50
100.6796891117
 51
103.3203108883
  0
SPLINE
  5
12E
330
1F
100
AcDbEntity
  8
0
  6
Continuous
 62
     7
370
    25
100
AcDbSpline
210
0.0
220
0.0
230
1.0
 70
     8
 71
     3
 72
    15
 73
    11
 74
     0
 42
0.000000001
 43
0.00000001
 40
0.2864109110743326
 40
0.2864109110743326
 40
0.2864109110743326
 40
0.2864109110743326
 40
0.2961529302614634
 40
0.426200720006812
 40
0.5442293930140635
 40
0.6502389494812453
 40
0.7442293896823475
 40
0.8262007140118841
 40
0.8961529230677264
 40
1.0
 40
1.0
 40
1.0
 40
1.0
 10
-7.372630615339419
 20
31.13911234781364
 30
0.0
 10
-7.376990577471672
 20
31.12274956517786
 30
0.0
 10
-7.439159268914178
 20
30.88785218141878
 30
0.0
 10
-7.543351352465605
 20
30.45185538762826
 30
0.0
 10
-7.658124699181831
 20
29.84699635834749
 30
0.0
 10
-7.735565863194191
 20
29.2994861169375
 30
0.0
 10
-7.781348203224425
 20
28.81136367458016
 30
0.0
 10
-7.801270573362389
 20
28.3842527270088
 30
0.0
 10
-7.801118126750579
 20
27.93955193632505
 30
0.0
 10
-7.781952719162408
 20
27.63779022752367
 30
0.0
 10
-7.760530224204963
 20
27.4585208767742
 30
0.0
  0
LINE
  5
12F
330
1F
100
AcDbEntity
  8
0
  6
Continuous
 62
     7
370
    25
100
AcDbLine
 10
-7.7605302242
 20
27.4585208768
 30
0.0
 11
-7.7549992936
 21
27.4005921564
 31
0.0
  0
SPLINE
  5
130
330
1F
100
AcDbEntity
  8
0
  6
Continuous
 62
     7
370
    25
100
AcDbSpline
210
0.0
220
0.0
230
1.0
 70
     8
 71
     3
 72
    15
 73
    11
 74
     0
 42
0.000000001
 43
0.00000001
 40
0.0
 40
0.0
 40
0.0
 40
0.0
 40
0.116824388060492
 40
0.1947561360372789
 40
0.2749300010688125
 40
0.3600226580694308
 40
0.4538017178728536
 40
0.5612445088623751
 40
0.6877527338530942
 40
1.0
 40
1.0
 40
1.0
 40
1.0
 10
-7.754999293637731
 20
27.40059215643969
 30
0.0
 10
-7.748319075959336
 20
27.34324530372879
 30
0.0
 10
-7.743329894638301
 20
27.24701883327523
 30
0.0
 10
-7.74605570586722
 20
27.11112280542557
 30
0.0
 10
-7.757617106669366
 20
26.99138112265146
 30
0.0
 10
-7.781356275050038
 20
26.86540248330298
 30
0.0
 10
-7.823063888337178
 20
26.72984467089308
 30
0.0
 10
-7.892395359479549
 20
26.58276616320483
 30
0.0
 10
-8.050611197450102
 20
26.36184939891461
 30
0.0
 10
-8.237651324665826
 20
26.23692044583902
 30
0.0
 10
-8.385677238687068
 20
26.19027333283418
 30
0.0
  0
ARC
  5
131
330
1F
100
AcDbEntity
  8
0
  6
Continuous
 62
     7
370
    25
100
AcDbCircle
 10
0.0
 20
0.0
 30
0.0
 40
27.5
100
AcDbArc
 50
107.7541762546
 51
108.2458237454
  0
SPLINE
  5
132
330
1F
100
AcDbEntity
  8
0
  6
Continuous
 62
     7
370
    25
100
AcDbSpline
210
0.0
220
0.0
230
1.0
 70
     8
 71
     3
 72
    15
 73
    11
 74
     0
 42
0.000000001
 43
0.00000001
 40
0.0
 40
0.0
 40
0.0
 40
0.0
 40
0.3122472661469057
 40
0.4387554911376247
 40
0.5461982821271463
 40
0.639977341930569
 40
0.7250699989311875
 40
0.8052438639627211
 40
0.883175611939508
 40
1.0
 40
1.0
 40
1.0
 40
1.0
 10
-8.610101023107102
 20
26.117353624973
 30
0.0
 10
-8.757274988244433
 20
26.06808448291364
 30
0.0
 10
-8.982025025994183
 20
26.05921470067697
 30
0.0
 10
-9.239875943725586
 20
26.14494318109188
 30
0.0
 10
-9.38241685987312
 20
26.22318017706177
 30
0.0
 10
-9.4958379107848
 20
26.30833363102317
 30
0.0
 10
-9.58909168775
 20
26.39629895810848
 30
0.0
 10
-9.66882745269702
 20
26.48637639352046
 30
0.0
 10
-9.750910361319827
 20
26.59471639787798
 30
0.0
 10
-9.803434529055854
 20
26.67549781498516
 30
0.0
 10
-9.831737753716755
 20
26.72581892683565
 30
0.0
  0
LINE
  5
133
330
1F
100
AcDbEntity
  8
0
  6
Continuous
 62
     7
370
    25
100
AcDbLine
 10
-9.8317377537
 20
26.7258189268
 30
0.0
 11
-9.8613127844
 21
26.7759352455
 31
0.0
  0
SPLINE
  5
134
330
1F
100
AcDbEntity
  8
0
  6
Continuous
 62
     7
370
    25
100
AcDbSpline
210
0.0
220
0.0
230
1.0
 70
     8
 71
     3
 72
    15
 73
    11
 74
     0
 42
0.000000001
 43
0.00000001
 40
0.0
 40
0.0
 40
0.0
 40
0.0
 40
0.1038470769322736
 40
0.1737992859881159
 40
0.2557706103176525
 40
0.3497610505187547
 40
0.4557706069859365
 40
0.573799279993188
 40
0.7038470697385366
 40
0.7135890889256653
 40
0.7135890889256653
 40
0.7135890889256653
 40
0.7135890889256653
 10
-9.861312784389959
 20
26.77593524546754
 30
0.0
 10
-9.949353502466055
 20
26.93355902339772
 30
0.0
 10
-10.11121944416312
 20
27.18895451800417
 30
0.0
 10
-10.37248467871014
 20
27.54881462094949
 30
0.0
 10
-10.63965173079508
 20
27.88264456066052
 30
0.0
 10
-10.96360159485241
 20
28.2506337275782
 30
0.0
 10
-11.34807125798246
 20
28.64806004334639
 30
0.0
 10
-11.79645206310434
 20
29.06993919667963
 30
0.0
 10
-12.13701771481364
 20
29.36142544223201
 30
0.0
 10
-12.32538246068435
 20
29.5149195776431
 30
0.0
 10
-12.33852754646395
 20
29.52559462542881
 30
0.0
  0
ARC
  5
135
330
1F
100
AcDbEntity
  8
0
  6
Continuous
 62
     7
370
    25
100
AcDbCircle
 10
0.0
 20
0.0
 30
0.0
 40
32.0
100
AcDbArc
 50
112.6796891117
 51
115.3203108883
  0
SPLINE
  5
136
330
1F
100
AcDbEntity
  8
0
  6
Continuous
 62
     7
370
    25
100
AcDbSpline
210
0.0
220
0.0
230
1.0
 70
     8
 71
     3
 72
    15
 73
    11
 74
     0
 42
0.000000001
 43
0.00000001
 40
0.2864109110743359
 40
0.2864109110743359
 40
0.2864109110743359
 40
0.2864109110743359
 40
0.2961529302614634
 40
0.426200720006812
 40
0.5442293930140635
 40
0.6502389494812453
 40
0.7442293896823475
 40
0.8262007140118841
 40
0.8961529230677264
 40
1.0
 40
1.0
 40
1.0
 40
1.0
 10
-13.68570644628897
 20
28.92579193498433
 30
0.0
 10
-13.68656911898363
 20
28.908880231309
 30
0.0
 10
-13.69854136313286
 20
28.66619032121267
 30
0.0
 10
-13.70980776908604
 20
28.21805835117785
 30
0.0
 10
-13.69631577932055
 20
27.6025542223281
 30
0.0
 10
-13.65823088806568
 20
27.05090746996702
 30
0.0
 10
-13.60152641180563
 20
26.5639329903856
 30
0.0
 10
-13.53221207108067
 20
26.14201334811104
 30
0.0
 10
-13.43960446249403
 20
25.70706203209212
 30
0.0
 10
-13.35811807794363
 20
25.41587925293159
 30
0.0
 10
-13.29989152207315
 20
25.24498135475902
 30
0.0
  0
LINE
  5
137
330
1F
100
AcDbEntity
  8
0
  6
Continuous
 62
     7
370
    25
100
AcDbLine
 10
-13.2998915221
 20
25.2449813548
 30
0.0
 11
-13.2824373974
 21
25.1894684611
 31
0.0
  0
SPLINE
  5
138
330
1F
100
AcDbEntity
  8
0
  6
Continuous
 62
     7
370
    25
100
AcDbSpline
210
0.0
220
0.0
230
1.0
 70
     8
 71
     3
 72
    15
 73
    11
 74
     0
 42
0.000000001
 43
0.00000001
 40
0.0
 40
0.0
 40
0.0
 40
0.0
 40
0.116824388060492
 40
0.1947561360372789
 40
0.2749300010688125
 40
0.3600226580694308
 40
0.4538017178728536
 40
0.5612445088623751
 40
0.6877527338530942
 40
1.0
 40
1.0
 40
1.0
 40
1.0
 10
-13.28243739741732
 20
25.18946846107627
 30
0.0
 10
-13.26398007741262
 20
25.13476367004001
 30
0.0
 10
-13.2390933135004
 20
25.04167728796303
 30
0.0
 10
-13.21350518628838
 20
24.90818418635119
 30
0.0
 10
-13.1999182470172
 20
24.78865539624886
 30
0.0
 10
-13.1969462256983
 20
24.6604940417898
 30
0.0
 10
-13.20955837358575
 20
24.51922699242183
 30
0.0
 10
-13.24679544452259
 20
24.36094767961497
 30
0.0
 10
-13.35562270883801
 20
24.11196355427601
 30
0.0
 10
-13.51260137064898
 20
23.95087676946275
 30
0.0
 10
-13.64769408315868
 20
23.8744726897269
 30
0.0
  0
ARC
  5
139
330
1F
100
AcDbEntity
  8
0
  6
Continuous
 62
     7
370
    25
100
AcDbCircle
 10
0.0
 20
0.0
 30
0.0
 40
27.5
100
AcDbArc
 50
119.7541762546
 51
120.2458237454
  0
SPLINE
  5
13A
330
1F
100
AcDbEntity
  8
0
  6
Continuous
 62
     7
370
    25
100
AcDbSpline
210
0.0
220
0.0
230
1.0
 70
     8
 71
     3
 72
    15
 73
    11
 74
     0
 42
0.000000001
 43
0.00000001
 40
0.0
 40
0.0
 40
0.0
 40
0.0
 40
0.3122472661469057
 40
0.4387554911376247
 40
0.5461982821271463
 40
0.639977341930569
 40
0.7250699989311875
 40
0.8052438639627211
 40
0.883175611939508
 40
1.0
 40
1.0
 40
1.0
 40
1.0
 10
-13.85205280968137
 20
23.75648612395777
 30
0.0
 10
-13.98576703994023
 20
23.67769444292614
 30
0.0
 10
-14.20376161870797
 20
23.62229032635241
 30
0.0
 10
-14.47380182854826
 20
23.65253521350036
 30
0.0
 10
-14.62949426980097
 20
23.69942662050998
 30
0.0
 10
-14.75814119721502
 20
23.75913770472715
 30
0.0
 10
-14.86764617530054
 20
23.82579222791943
 30
0.0
 10
-14.96436767437717
 20
23.89732325753912
 30
0.0
 10
-15.067182027997
 20
23.98622977654592
 30
0.0
 10
-15.13535381766594
 20
24.05432553735039
 30
0.0
 10
-15.1735008964097
 20
24.09766244087836
 30
0.0
  0
LINE
  5
13B
330
1F
100
AcDbEntity
  8
0
  6
Continuous
 62
     7
370
    25
100
AcDbLine
 10
-15.1735008964
 20
24.0976624409
 30
0.0
 11
-15.2128494102
 21
24.1405346031
 31
0.0
  0
SPLINE
  5
13C
330
1F
100
AcDbEntity
  8
0
  6
Continuous
 62
     7
370
    25
100
AcDbSpline
210
0.0
220
0.0
230
1.0
 70
     8
 71
     3
 72
    15
 73
    11
 74
     0
 42
0.000000001
 43
0.00000001
 40
0.0
 40
0.0
 40
0.0
 40
0.0
 40
0.1038470769322736
 40
0.1737992859881159
 40
0.2557706103176525
 40
0.3497610505187547
 40
0.4557706069859365
 40
0.573799279993188
 40
0.7038470697385366
 40
0.7135890889256674
 40
0.7135890889256674
 40
0.7135890889256674
 40
0.7135890889256674
 10
-15.21284941024864
 20
24.1405346030725
 30
0.0
 10
-15.3317380535842
 20
24.2764092287175
 30
0.0
 10
-15.54316654520657
 20
24.49256989738097
 30
0.0
 10
-15.8735416299951
 20
24.79024609701019
 30
0.0
 10
-16.20427758819802
 20
25.06123389806187
 30
0.0
 10
-16.59765762038021
 20
25.35382865480208
 30
0.0
 10
-17.05635527621265
 20
25.66263451430972
 30
0.0
 10
-17.58265149304799
 20
25.98207098461911
 30
0.0
 10
-17.9763783663227
 20
26.19637997587174
 30
0.0
 10
-18.19254011578289
 20
26.30735666334637
 30
0.0
 10
-18.20761741713434
 20
26.31506541871531
 30
0.0
  0
ARC
  5
13D
330
1F
100
AcDbEntity
  8
0
  6
Continuous
 62
     7
370
    25
100
AcDbCircle
 10
0.0
 20
0.0
 30
0.0
 40
32.0
100
AcDbArc
 50
124.6796891117
 51
127.3203108883
  0
SPLINE
  5
13E
330
1F
100
AcDbEntity
  8
0
  6
Continuous
 62
     7
370
    25
100
AcDbSpline
210
0.0
220
0.0
230
1.0
 70
     8
 71
     3
 72
    15
 73
    11
 74
     0
 42
0.000000001
 43
0.00000001
 40
0.2864109110743336
 40
0.2864109110743336
 40
0.2864109110743336
 40
0.2864109110743336
 40
0.2961529302614634
 40
0.426200720006812
 40
0.5442293930140635
 40
0.6502389494812453
 40
0.7442293896823475
 40
0.8262007140118841
 40
0.8961529230677264
 40
1.0
 40
1.0
 40
1.0
 40
1.0
 10
-19.40065123423003
 20
25.44827561324673
 30
0.0
 10
-19.39797891455079
 20
25.43155411113381
 30
0.0
 10
-19.35923146688822
 20
25.19167838832684
 30
0.0
 10
-19.27707979924078
 20
24.75099675951399
 30
0.0
 10
-19.13591213768808
 20
24.1517480150425
 30
0.0
 10
-18.9839656836654
 20
23.62007436190333
 30
0.0
 10
-18.82725264882589
 20
23.15553096661833
 30
0.0
 10
-18.6717309665348
 20
22.75724254260304
 30
0.0
 10
-18.49071559284918
 20
22.35105016088697
 30
0.0
 10
-18.35046957735645
 20
22.08317239606659
 30
0.0
 10
-18.25798374046649
 20
21.92811500868018
 30
0.0
  0
LINE
  5
13F
330
1F
100
AcDbEntity
  8
0
  6
Continuous
 62
     7
370
    25
100
AcDbLine
 10
-18.2579837405
 20
21.9281150087
 30
0.0
 11
-18.2293692507
 21
21.8774441215
 31
0.0
  0
SPLINE
  5
140
330
1F
100
AcDbEntity
  8
0
  6
Continuous
 62
     7
370
    25
100
AcDbSpline
210
0.0
220
0.0
230
1.0
 70
     8
 71
     3
 72
    15
 73
    11
 74
     0
 42
0.000000001
 43
0.00000001
 40
0.0
 40
0.0
 40
0.0
 40
0.0
 40
0.116824388060492
 40
0.1947561360372789
 40
0.2749300010688125
 40
0.3600226580694308
 40
0.4538017178728536
 40
0.5612445088623751
 40
0.6877527338530942
 40
1.0
 40
1.0
 40
1.0
 40
1.0
 10
-18.22936925072372
 20
21.87744412148353
 30
0.0
 10
-18.19994150184496
 20
21.82777225399292
 30
0.0
 10
-18.15624482634447
 20
21.74189428186731
 30
0.0
 10
-18.10346108463613
 20
21.61663839560467
 30
0.0
 10
-18.06531961973513
 20
21.50254647986438
 30
0.0
 10
-18.03576630030965
 20
21.37780367647101
 30
0.0
 10
-18.01873177141492
 20
21.23700143807686
 30
0.0
 10
-18.022247003463
 20
21.07443888562945
 30
0.0
 10
-18.07692942046155
 20
20.80826920027746
 30
0.0
 10
-18.19698589607942
 20
20.61806484920302
 30
0.0
 10
-18.31324120729415
 20
20.51524302764808
 30
0.0
  0
ARC
  5
141
330
1F
100
AcDbEntity
  8
0
  6
Continuous
 62
     7
370
    25
100
AcDbCircle
 10
0.0
 20
0.0
 30
0.0
 40
27.5
100
AcDbArc
 50
131.7541762546
 51
132.2458237454
  0
SPLINE
  5
142
330
1F
100
AcDbEntity
  8
0
  6
Continuous
 62
     7
370
    25
100
AcDbSpline
210
0.0
220
0.0
230
1.0
 70
     8
 71
     3
 72
    15
 73
    11
 74
     0
 42
0.000000001
 43
0.00000001
 40
0.0
 40
0.0
 40
0.0
 40
0.0
 40
0.3122472661469057
 40
0.4387554911376247
 40
0.5461982821271463
 40
0.639977341930569
 40
0.7250699989311875
 40
0.8052438639627211
 40
0.883175611939508
 40
1.0
 40
1.0
 40
1.0
 40
1.0
 10
-18.48860341894851
 20
20.35734618305749
 30
0.0
 10
-18.60301396083452
 20
20.2524755375991
 30
0.0
 10
-18.80472567147406
 20
20.15295851244102
 30
0.0
 10
-19.0751531204565
 20
20.12639795962258
 30
0.0
 10
-19.23719258003642
 20
20.13989439817568
 30
0.0
 10
-19.37544289590841
 20
20.17155345174275
 30
0.0
 10
-19.49641318210873
 20
20.21398404853462
 30
0.0
 10
-19.60589322168408
 20
20.26384242312368
 30
0.0
 10
-19.72494553968973
 20
20.32942981527835
 30
0.0
 10
-19.80578551695852
 20
20.38186380827324
 30
0.0
 10
-19.85210923939404
 20
20.41632247284099
 30
0.0
  0
LINE
  5
143
330
1F
100
AcDbEntity
  8
0
  6
Continuous
 62
     7
370
    25
100
AcDbLine
 10
-19.8521092394
 20
20.4163224728
 30
0.0
 11
-19.8995115175
 21
20.4500767594
 31
0.0
  0
SPLINE
  5
144
330
1F
100
AcDbEntity
  8
0
  6
Continuous
 62
     7
370
    25
100
AcDbSpline
210
0.0
220
0.0
230
1.0
 70
     8
 71
     3
 72
    15
 73
    11
 74
     0
 42
0.000000001
 43
0.00000001
 40
0.0
 40
0.0
 40
0.0
 40
0.0
 40
0.1038470769322736
 40
0.1737992859881159
 40
0.2557706103176525
 40
0.3497610505187547
 40
0.4557706069859365
 40
0.573799279993188
 40
0.7038470697385366
 40
0.7135890889256667
 40
0.7135890889256667
 40
0.7135890889256667
 40
0.7135890889256667
 10
-19.89951151752883
 20
20.45007675938603
 30
0.0
 10
-20.04405208191909
 20
20.55826385960636
 30
0.0
 10
-20.2958026838364
 20
20.7257424438523
 30
0.0
 10
-20.68084864234564
 20
20.94822486183273
 30
0.0
 10
-21.06069875824587
 20
21.14452705697535
 30
0.0
 10
-21.50631636349973
 20
21.34893960864315
 30
0.0
 10
-22.01919472339911
 20
21.55562871401482
 30
0.0
 10
-22.60040468182277
 20
21.7586615947216
 30
0.0
 10
-23.03008502298964
 20
21.88642700038811
 30
0.0
 10
-23.26459647032875
 20
21.9500360261584
 30
0.0
 10
-23.28094703683406
 20
21.95444157951023
 30
0.0
  0
ARC
  5
145
330
1F
100
AcDbEntity
  8
0
  6
Continuous
 62
     7
370
    25
100
AcDbCircle
 10
0.0
 20
0.0
 30
0.0
 40
32.00000000000001
100
AcDbArc
 50
136.6796891117
 51
139.3203108883
  0
SPLINE
  5
146
330
1F
100
AcDbEntity
  8
0
  6
Continuous
 62
     7
370
    25
100
AcDbSpline
210
0.0
220
0.0
230
1.0
 70
     8
 71
     3
 72
    15
 73
    11
 74
     0
 42
0.000000001
 43
0.00000001
 40
0.2864109110743333
 40
0.2864109110743333
 40
0.2864109110743333
 40
0.2864109110743333
 40
0.2961529302614634
 40
0.426200720006812
 40
0.5442293930140635
 40
0.6502389494812453
 40
0.7442293896823475
 40
0.8262007140118841
 40
0.8961529230677264
 40
1.0
 40
1.0
 40
1.0
 40
1.0
 10
-24.26769446858195
 20
20.85854753283549
 30
0.0
 10
-24.26160394972199
 20
20.84274704216599
 30
0.0
 10
-24.17383025964136
 20
20.61616922678646
 30
0.0
 10
-24.00185094047692
 20
20.20219784099978
 30
0.0
 10
-23.73917731134446
 20
19.64539452655445
 30
0.0
 10
-23.48001008371475
 20
19.15693066253262
 30
0.0
 10
-23.23013760191084
 20
18.73512112704452
 30
0.0
 10
-22.99520562184557
 20
18.37787103661789
 30
0.0
 10
-22.73369372349917
 20
18.01819014541294
 30
0.0
 10
-22.54081750091618
 20
17.7853249386755
 30
0.0
 10
-22.41811445787512
 20
17.65288481395192
 30
0.0
  0
LINE
  5
147
330
1F
100
AcDbEntity
  8
0
  6
Continuous
 62
     7
370
    25
100
AcDbLine
 10
-22.4181144579
 20
17.652884814
 30
0.0
 11
-22.3795901936
 21
17.6092704942
 31
0.0
  0
SPLINE
  5
148
330
1F
100
AcDbEntity
  8
0
  6
Continuous
 62
     7
370
    25
100
AcDbSpline
210
0.0
220
0.0
230
1.0
 70
     8
 71
     3
 72
    15
 73
    11
 74
     0
 42
0.000000001
 43
0.00000001
 40
0.0
 40
0.0
 40
0.0
 40
0.0
 40
0.116824388060492
 40
0.1947561360372789
 40
0.2749300010688125
 40
0.3600226580694308
 40
0.4538017178728536
 40
0.5612445088623751
 40
0.6877527338530942
 40
1.0
 40
1.0
 40
1.0
 40
1.0
 10
-22.37959019355471
 20
17.60927049415777
 30
0.0
 10
-22.34047814963792
 20
17.5668024491742
 30
0.0
 10
-22.27988131694842
 20
17.49188616647007
 30
0.0
 10
-22.20220886354092
 20
17.38034177883076
 30
0.0
 10
-22.14117983804933
 20
17.27667310164411
 30
0.0
 10
-22.08633684238871
 20
17.16080070840711
 30
0.0
 10
-22.04040012736525
 20
17.0266170144487
 30
0.0
 10
-22.01003988801611
 20
16.86687598596438
 30
0.0
 10
-22.0081875736796
 20
16.59515363307309
 30
0.0
 10
-22.086074819025
 20
16.38414455858115
 30
0.0
 10
-22.17841181398981
 20
16.25939880220291
 30
0.0
  0
ARC
  5
149
330
1F
100
AcDbEntity
  8
0
  6
Continuous
 62
     7
370
    25
100
AcDbCircle
 10
0.0
 20
0.0
 30
0.0
 40
27.49999999999999
100
AcDbArc
 50
143.7541762546
 51
144.2458237454
  0
SPLINE
  5
14A
330
1F
100
AcDbEntity
  8
0
  6
Continuous
 62
     7
370
    25
100
AcDbSpline
210
0.0
220
0.0
230
1.0
 70
     8
 71
     3
 72
    15
 73
    11
 74
     0
 42
0.000000001
 43
0.00000001
 40
0.0
 40
0.0
 40
0.0
 40
0.0
 40
0.3122472661469057
 40
0.4387554911376247
 40
0.5461982821271463
 40
0.639977341930569
 40
0.7250699989311875
 40
0.8052438639627211
 40
0.883175611939508
 40
1.0
 40
1.0
 40
1.0
 40
1.0
 10
-22.31711334064526
 20
16.06849252857258
 30
0.0
 10
-22.40721990447532
 20
15.94212626911916
 30
0.0
 10
-22.58383297731152
 20
15.80284570691181
 30
0.0
 10
-22.84282868826073
 20
15.72064053773681
 30
0.0
 10
-23.00413326423263
 20
15.70015214870552
 30
0.0
 10
-23.14594476636032
 20
15.70237551906462
 30
0.0
 10
-23.27309337868865
 20
15.71872776877167
 30
0.0
 10
-23.39054715568976
 20
15.74473443811354
 30
0.0
 10
-23.52063428050799
 20
15.78413621965569
 30
0.0
 10
-23.61060935045672
 20
15.81861682774091
 30
0.0
 10
-23.66308514762768
 20
15.8426912443558
 30
0.0
  0
LINE
  5
14B
330
1F
100
AcDbEntity
  8
0
  6
Continuous
 62
     7
370
    25
100
AcDbLine
 10
-23.6630851476
 20
15.8426912444
 30
0.0
 11
-23.716469483
 21
15.865852431
 31
0.0
  0
SPLINE
  5
14C
330
1F
100
AcDbEntity
  8
0
  6
Continuous
 62
     7
370
    25
100
AcDbSpline
210
0.0
220
0.0
230
1.0
 70
     8
 71
     3
 72
    15
 73
    11
 74
     0
 42
0.000000001
 43
0.00000001
 40
0.0
 40
0.0
 40
0.0
 40
0.0
 40
0.1038470769322736
 40
0.1737992859881159
 40
0.2557706103176525
 40
0.3497610505187547
 40
0.4557706069859365
 40
0.573799279993188
 40
0.7038470697385366
 40
0.713589088925666
 40
0.713589088925666
 40
0.713589088925666
 40
0.713589088925666
 10
-23.71646948304248
 20
15.8658524309587
 30
0.0
 10
-23.880344852241
 20
15.94162371033543
 30
0.0
 10
-24.16141485511604
 20
16.05310059238088
 30
0.0
 10
-24.58430333130364
 20
16.19066567945769
 30
0.0
 10
-24.99666633211325
 20
16.30370292080109
 30
0.0
 10
-25.47504588277868
 20
16.41099945800832
 30
0.0
 10
-26.01968970135398
 20
16.50653850353492
 30
0.0
 10
-26.63041173722802
 20
16.58429428349235
 30
0.0
 10
-27.07726645354301
 20
16.61993214225867
 30
0.0
 10
-27.31987832320155
 20
16.63339348666851
 30
0.0
 10
-27.33678755664574
 20
16.63430329418155
 30
0.0
  0
ARC
  5
14D
330
1F
100
AcDbEntity
  8
0
  6
Continuous
 62
     7
370
    25
100
AcDbCircle
 10
0.0
 20
0.0
 30
0.0
 40
32.0
100
AcDbArc
 50
148.6796891117
 51
151.3203108883
  0
SPLINE
  5
14E
330
1F
100
AcDbEntity
  8
0
  6
Continuous
 62
     7
370
    25
100
AcDbSpline
210
0.0
220
0.0
230
1.0
 70
     8
 71
     3
 72
    15
 73
    11
 74
     0
 42
0.000000001
 43
0.00000001
 40
0.2864109110743339
 40
0.2864109110743339
 40
0.2864109110743339
 40
0.2864109110743339
 40
0.2961529302614634
 40
0.426200720006812
 40
0.5442293930140635
 40
0.6502389494812453
 40
0.7442293896823475
 40
0.8262007140118841
 40
0.8961529230677264
 40
1.0
 40
1.0
 40
1.0
 40
1.0
 10
-28.0741230053389
 20
15.35720083482341
 30
0.0
 10
-28.06488047219797
 20
15.34301191285875
 30
0.0
 10
-27.93191667114069
 20
15.13963454267973
 30
0.0
 10
-27.67762602195509
 20
14.77046593593321
 30
0.0
 10
-27.30492652328387
 20
14.28044302819406
 30
0.0
 10
-26.94986537351688
 20
13.85653716805697
 30
0.0
 10
-26.6177540712246
 20
13.49589659313333
 30
0.0
 10
-26.31367944824272
 20
13.19529837952312
 30
0.0
 10
-25.98310035006658
 20
12.89784875971537
 30
0.0
 10
-25.74602353684303
 20
12.71017343800653
 30
0.0
 10
-25.59846599942628
 20
12.60613884491442
 30
0.0
  0
LINE
  5
14F
330
1F
100
AcDbEntity
  8
0
  6
Continuous
 62
     7
370
    25
100
AcDbLine
 10
-25.5984659994
 20
12.6061388449
 30
0.0
 11
-25.5517156557
 21
12.5714872476
 31
0.0
  0
SPLINE
  5
150
330
1F
100
AcDbEntity
  8
0
  6
Continuous
 62
     7
370
    25
100
AcDbSpline
210
0.0
220
0.0
230
1.0
 70
     8
 71
     3
 72
    15
 73
    11
 74
     0
 42
0.000000001
 43
0.00000001
 40
0.0
 40
0.0
 40
0.0
 40
0.0
 40
0.116824388060492
 40
0.1947561360372789
 40
0.2749300010688125
 40
0.3600226580694308
 40
0.4538017178728536
 40
0.5612445088623751
 40
0.6877527338530942
 40
1.0
 40
1.0
 40
1.0
 40
1.0
 10
-25.55171565573898
 20
12.57148724758251
 30
0.0
 10
-25.5046287007837
 20
12.53807908245605
 30
0.0
 10
-25.42978008326961
 20
12.47739869021579
 30
0.0
 10
-25.33061357709063
 20
12.38444082618899
 30
0.0
 10
-25.24936425227219
 20
12.29572620620653
 30
0.0
 10
-25.1716284824527
 20
12.19378840272778
 30
0.0
 10
-25.09879723617585
 20
12.07208772451592
 30
0.0
 10
-25.03588841357364
 20
11.92214966946193
 30
0.0
 10
-24.97758232292697
 20
11.6567502197212
 30
0.0
 10
-25.00989629163383
 20
11.43415853090095
 30
0.0
 10
-25.07427940058668
 20
11.29294082784969
 30
0.0
  0
ARC
  5
151
330
1F
100
AcDbEntity
  8
0
  6
Continuous
 62
     7
370
    25
100
AcDbCircle
 10
0.0
 20
0.0
 30
0.0
 40
27.5
100
AcDbArc
 50
155.7541762546
 51
156.2458237454
  0
SPLINE
  5
152
330
1F
100
AcDbEntity
  8
0
  6
Continuous
 62
     7
370
    25
100
AcDbSpline
210
0.0
220
0.0
230
1.0
 70
     8
 71
     3
 72
    15
 73
    11
 74
     0
 42
0.000000001
 43
0.00000001
 40
0.0
 40
0.0
 40
0.0
 40
0.0
 40
0.3122472661469057
 40
0.4387554911376247
 40
0.5461982821271463
 40
0.639977341930569
 40
0.7250699989311875
 40
0.8052438639627211
 40
0.883175611939508
 40
1.0
 40
1.0
 40
1.0
 40
1.0
 10
-25.17025831996465
 20
11.07736864540719
 30
0.0
 10
-25.2321228165201
 20
10.93502958386943
 30
0.0
 10
-25.37591841278648
 20
10.76207271352357
 30
0.0
 10
-25.61216303033466
 20
10.62781568834913
 30
0.0
 10
-25.76568293870332
 20
10.57423791264831
 30
0.0
 10
-25.90485778395666
 20
10.54692842784583
 30
0.0
 10
-26.03262771792751
 20
10.53648765868907
 30
0.0
 10
-26.15292193869368
 20
10.53750600653967
 30
0.0
 10
-26.28835843874265
 20
10.54900013054517
 30
0.0
 10
-26.38353625906629
 20
10.56402038569109
 30
0.0
 10
-26.43987068682951
 20
10.57665838682519
 30
0.0
  0
LINE
  5
153
330
1F
100
AcDbEntity
  8
0
  6
Continuous
 62
     7
370
    25
100
AcDbLine
 10
-26.4398706868
 20
10.5766583868
 30
0.0
 11
-26.4969039279
 21
10.5882142185
 31
0.0
  0
SPLINE
  5
154
330
1F
100
AcDbEntity
  8
0
  6
Continuous
 62
     7
370
    25
100
AcDbSpline
210
0.0
220
0.0
230
1.0
 70
     8
 71
     3
 72
    15
 73
    11
 74
     0
 42
0.000000001
 43
0.00000001
 40
0.0
 40
0.0
 40
0.0
 40
0.0
 40
0.1038470769322736
 40
0.1737992859881159
 40
0.2557706103176525
 40
0.3497610505187547
 40
0.4557706069859365
 40
0.573799279993188
 40
0.7038470697385366
 40
0.7135890889256671
 40
0.7135890889256671
 40
0.7135890889256671
 40
0.7135890889256671
 10
-26.49690392790021
 20
10.58821421849169
 30
0.0
 10
-26.67295196191176
 20
10.62825810852512
 30
0.0
 10
-26.97105725789538
 20
10.67886121369925
 30
0.0
 10
-27.41330599610789
 20
10.72549671545666
 30
0.0
 10
-27.84015963995428
 20
10.75032873314126
 30
0.0
 10
-28.33039365414744
 20
10.75581988234607
 30
0.0
 10
-28.88299938303592
 20
10.73603335329088
 30
0.0
 10
-29.49654201282317
 20
10.68511373180119
 30
0.0
 10
-29.9410414089365
 20
10.62706649822982
 30
0.0
 10
-30.18115039802947
 20
10.58979183593379
 30
0.0
 10
-30.1978792837715
 20
10.58716613465399
 30
0.0
  0
ARC
  5
155
330
1F
100
AcDbEntity
  8
0
  6
Continuous
 62
     7
370
    25
100
AcDbCircle
 10
0.0
 20
0.0
 30
0.0
 40
32.0
100
AcDbArc
 50
160.6796891117
 51
163.3203108883
  0
SPLINE
  5
156
330
1F
100
AcDbEntity
  8
0
  6
Continuous
 62
     7
370
    25
100
AcDbSpline
210
0.0
220
0.0
230
1.0
 70
     8
 71
     3
 72
    15
 73
    11
 74
     0
 42
0.000000001
 43
0.00000001
 40
0.2864109110743339
 40
0.2864109110743339
 40
0.2864109110743339
 40
0.2864109110743339
 40
0.2961529302614634
 40
0.426200720006812
 40
0.5442293930140635
 40
0.6502389494812453
 40
0.7442293896823475
 40
0.8262007140118841
 40
0.8961529230677264
 40
1.0
 40
1.0
 40
1.0
 40
1.0
 10
-30.65357765217404
 20
9.184670768303913
 30
0.0
 10
-30.64158704780098
 20
9.172713539019952
 30
0.0
 10
-30.46924429190437
 20
9.001425181031172
 30
0.0
 10
-30.14375603428892
 20
8.693193792907145
 30
0.0
 10
-29.67731942258149
 20
8.29136764433315
 30
0.0
 10
-29.24188222669447
 20
7.950546508294815
 30
0.0
 10
-28.84204696147083
 20
7.666836617605269
 30
0.0
 10
-28.48211921570856
 20
7.436027865176513
 30
0.0
 10
-28.0969208105875
 20
7.213809492473185
 30
0.0
 10
-27.82600480108202
 20
7.079526367917736
 30
0.0
 10
-27.66004174173431
 20
7.008444117388595
 30
0.0
  0
LINE
  5
157
330
1F
100
AcDbEntity
  8
0
  6
Continuous
 62
     7
370
    25
100
AcDbLine
 10
-27.6600417417
 20
7.0084441174
 30
0.0
 11
-27.607108533
 21
6.9842696836
 31
0.0
  0
SPLINE
  5
158
330
1F
100
AcDbEntity
  8
0
  6
Continuous
 62
     7
370
    25
100
AcDbSpline
210
0.0
220
0.0
230
1.0
 70
     8
 71
     3
 72
    15
 73
    11
 74
     0
 42
0.000000001
 43
0.00000001
 40
0.0
 40
0.0
 40
0.0
 40
0.0
 40
0.116824388060492
 40
0.1947561360372789
 40
0.2749300010688125
 40
0.3600226580694308
 40
0.4538017178728536
 40
0.5612445088623751
 40
0.6877527338530942
 40
1.0
 40
1.0
 40
1.0
 40
1.0
 10
-27.60710853303228
 20
6.984269683599127
 30
0.0
 10
-27.55410459291836
 20
6.96138149545598
 30
0.0
 10
-27.46827543432856
 20
6.917589017997305
 30
0.0
 10
-27.35194892755181
 20
6.847280382302309
 30
0.0
 10
-27.2540302887786
 20
6.777397074117261
 30
0.0
 10
-27.15679917095896
 20
6.693849031560644
 30
0.0
 10
-27.0602564683741
 20
6.589950272717812
 30
0.0
 10
-26.96754847993656
 20
6.456368203582646
 30
0.0
 10
-26.85533686892466
 20
6.208890886474
 30
0.0
 10
-26.84066528550086
 20
5.984444908240313
 30
0.0
 10
-26.87428065763609
 20
5.832927149777086
 30
0.0
  0
ARC
  5
159
330
1F
100
AcDbEntity
  8
0
  6
Continuous
 62
     7
370
    25
100
AcDbCircle
 10
0.0
 20
0.0
 30
0.0
 40
27.5
100
AcDbArc
 50
167.7541762546
 51
168.2458237454
  0
SPLINE
  5
15A
330
1F
100
AcDbEntity
  8
0
  6
Continuous
 62
     7
370
    25
100
AcDbSpline
210
0.0
220
0.0
230
1.0
 70
     8
 71
     3
 72
    15
 73
    11
 74
     0
 42
0.000000001
 43
0.00000001
 40
0.0
 40
0.0
 40
0.0
 40
0.0
 40
0.3122472661469057
 40
0.4387554911376247
 40
0.5461982821271463
 40
0.639977341930569
 40
0.7250699989311875
 40
0.8052438639627211
 40
0.883175611939508
 40
1.0
 40
1.0
 40
1.0
 40
1.0
 10
-26.92334223040177
 20
5.602110597325301
 30
0.0
 10
-26.95426088432437
 20
5.450019633711006
 30
0.0
 10
-27.05895444645626
 20
5.250945500399878
 30
0.0
 10
-27.2621229471891
 20
5.070504295462807
 30
0.0
 10
-27.40114863128858
 20
4.986178738985278
 30
0.0
 10
-27.53160421109498
 20
4.930529954552536
 30
0.0
 10
-27.65441130748567
 20
4.893752478244478
 30
0.0
 10
-27.77228853733369
 20
4.869737997916158
 30
0.0
 10
-27.90715518766483
 20
4.852822116011057
 30
0.0
 10
-28.00337603090137
 20
4.847725560992611
 30
0.0
 10
-28.06110700444102
 20
4.848374805352496
 30
0.0
  0
LINE
  5
15B
330
1F
100
AcDbEntity
  8
0
  6
Continuous
 62
     7
370
    25
100
AcDbLine
 10
-28.0611070044
 20
4.8483748054
 30
0.0
 11
-28.1192965249
 21
4.8478202368
 31
0.0
  0
SPLINE
  5
15C
330
1F
100
AcDbEntity
  8
0
  6
Continuous
 62
     7
370
    25
100
AcDbSpline
210
0.0
220
0.0
230
1.0
 70
     8
 71
     3
 72
    15
 73
    11
 74
     0
 42
0.000000001
 43
0.00000001
 40
0.0
 40
0.0
 40
0.0
 40
0.0
 40
0.1038470769322736
 40
0.1737992859881159
 40
0.2557706103176525
 40
0.3497610505187547
 40
0.4557706069859365
 40
0.573799279993188
 40
0.7038470697385366
 40
0.7135890889256645
 40
0.7135890889256645
 40
0.7135890889256645
 40
0.7135890889256645
 10
-28.11929652485699
 20
4.847820236787741
 30
0.0
 10
-28.29982307982306
 20
4.850386627331511
 30
0.0
 10
-28.60193503701287
 20
4.83790435711758
 30
0.0
 10
-29.0442156452455
 20
4.791572078346826
 30
0.0
 10
-29.46690437962155
 20
4.727113594042574
 30
0.0
 10
-29.9475672785184
 20
4.630559365675255
 30
0.0
 10
-30.48398339567114
 20
4.496312028304285
 30
0.0
 10
-31.07353186234574
 20
4.31894243716603
 30
0.0
 10
-31.49624918170249
 20
4.169747053905559
 30
0.0
 10
-31.72336137523576
 20
4.083365466509673
 30
0.0
 10
-31.73917878069461
 20
4.077319012182471
 30
0.0
  0
ARC
  5
15D
330
1F
100
AcDbEntity
  8
0
  6
Continuous
 62
     7
370
    25
100
AcDbCircle
 10
0.0
 20
0.0
 30
0.0
 40
32.0
100
AcDbArc
 50
172.6796891117
 51
175.3203108883
  0
SPLINE
  5
15E
330
1F
100
AcDbEntity
  8
0
  6
Continuous
 62
     7
370
    25
100
AcDbSpline
210
0.0
220
0.0
230
1.0
 70
     8
 71
     3
 72
    15
 73
    11
 74
     0
 42
0.000000001
 43
0.00000001
 40
0.2864109110743349
 40
0.2864109110743349
 40
0.2864109110743349
 40
0.2864109110743349
 40
0.2961529302614634
 40
0.426200720006812
 40
0.5442293930140635
 40
0.6502389494812453
 40
0.7442293896823475
 40
0.8262007140118841
 40
0.8961529230677264
 40
1.0
 40
1.0
 40
1.0
 40
1.0
 10
-31.89332386342396
 20
2.610726516269394
 30
0.0
 10
-31.87910923476717
 20
2.601523567962995
 30
0.0
 10
-31.67491972945621
 20
2.469810345341293
 30
0.0
 10
-31.29245926213466
 20
2.235987366559081
 30
0.0
 10
-30.75267105553383
 20
1.939919708018718
 30
0.0
 10
-30.25588850844652
 20
1.697078815165267
 30
0.0
 10
-29.80580400000427
 20
1.502699092324052
 30
0.0
 10
-29.40575370107638
 20
1.351767251101159
 30
0.0
 10
-28.9827710077012
 20
1.214492134711453
 30
0.0
 10
-28.68985613152842
 20
1.139470024214386
 30
0.0
 10
-28.51274093232238
 20
1.104446751686817
 30
0.0
  0
LINE
  5
15F
330
1F
100
AcDbEntity
  8
0
  6
Continuous
 62
     7
370
    25
100
AcDbLine
 10
-28.5127409323
 20
1.1044467517
 30
0.0
 11
-28.4559382938
 21
1.0918060202
 31
0.0
  0
SPLINE
  5
160
330
1F
100
AcDbEntity
  8
0
  6
Continuous
 62
     7
370
    25
100
AcDbSpline
210
0.0
220
0.0
230
1.0
 70
     8
 71
     3
 72
    15
 73
    11
 74
     0
 42
0.000000001
 43
0.00000001
 40
0.0
 40
0.0
 40
0.0
 40
0.0
 40
0.116824388060492
 40
0.1947561360372789
 40
0.2749300010688125
 40
0.3600226580694308
 40
0.4538017178728536
 40
0.5612445088623751
 40
0.6877527338530942
 40
1.0
 40
1.0
 40
1.0
 40
1.0
 10
-28.45593829382761
 20
1.091806020198199
 30
0.0
 10
-28.39933389507915
 20
1.080438132689923
 30
0.0
 10
-28.30627534149799
 20
1.055447511417404
 30
0.0
 10
-28.17787286066614
 20
1.010860928812355
 30
0.0
 10
-28.06756442231832
 20
0.9628631683297191
 30
0.0
 10
-27.95508742291391
 20
0.9013563370629408
 30
0.0
 10
-27.83905264338729
 20
0.8198003719121373
 30
0.0
 10
-27.72059727307142
 20
0.7084124661148814
 30
0.0
 10
-27.55938432754656
 20
0.4896732279238885
 30
0.0
 10
-27.49836841058979
 20
0.273182326536872
 30
0.0
 10
-27.49974689284063
 20
0.1179865657693993
 30
0.0
  0
ARC
  5
161
330
1F
100
AcDbEntity
  8
0
  6
Continuous
 62
     7
370
    25
100
AcDbCircle
 10
0.0
 20
0.0
 30
0.0
 40
27.5
100
AcDbArc
 50
179.7541762546
 51
180.2458237454
  0
SPLINE
  5
162
330
1F
100
AcDbEntity
  8
0
  6
Continuous
 62
     7
370
    25
100
AcDbSpline
210
0.0
220
0.0
230
1.0
 70
     8
 71
     3
 72
    15
 73
    11
 74
     0
 42
0.000000001
 43
0.00000001
 40
0.0
 40
0.0
 40
0.0
 40
0.0
 40
0.3122472661469057
 40
0.4387554911376247
 40
0.5461982821271463
 40
0.639977341930569
 40
0.7250699989311875
 40
0.8052438639627211
 40
0.883175611939508
 40
1.0
 40
1.0
 40
1.0
 40
1.0
 10
-27.49974689284063
 20
-0.1179865657688546
 30
0.0
 10
-27.49836841058979
 20
-0.273182326536326
 30
0.0
 10
-27.55938432754657
 20
-0.4896732279233429
 30
0.0
 10
-27.72059727307143
 20
-0.708412466114331
 30
0.0
 10
-27.83905264338732
 20
-0.8198003719115852
 30
0.0
 10
-27.95508742291392
 20
-0.9013563370623853
 30
0.0
 10
-28.06756442231834
 20
-0.9628631683291635
 30
0.0
 10
-28.17787286066616
 20
-1.010860928811796
 30
0.0
 10
-28.30627534149801
 20
-1.055447511416842
 30
0.0
 10
-28.39933389507918
 20
-1.080438132689362
 30
0.0
 10
-28.45593829382763
 20
-1.091806020197635
 30
0.0
  0
LINE
  5
163
330
1F
100
AcDbEntity
  8
0
  6
Continuous
 62
     7
370
    25
100
AcDbLine
 10
-28.4559382938
 20
-1.0918060202
 30
0.0
 11
-28.5127409323
 21
-1.1044467517
 31
0.0
  0
MTEXT
  5
165
330
1F
100
AcDbEntity
  8
0
  6
Continuous
 62
     7
100
AcDbMText
 10
-31.8933238634
 20
-33.0195663917
 30
0.0
 40
4.83362
 41
0.0
 71
     1
 72
     1
  1
SOLIDWORKS Educational Product.
  7
SLDTEXTSTYLE0
 73
     1
 44
1.0
  0
MTEXT
  5
166
330
1F
100
AcDbEntity
  8
0
  6
Continuous
 62
     7
100
AcDbMText
 10
-31.8933238634
 20
-40.2699963917
 30
0.0
 40
4.83362
 41
0.0
 71
     1
 72
     1
  1
For Instructional Use Only.
  7
SLDTEXTSTYLE0
 73
     1
 44
1.0
  0
ENDSEC
  0
SECTION
  2
OBJECTS
  0
DICTIONARY
  5
C
330
0
100
AcDbDictionary
281
     1
  3
ACAD_GROUP
350
D
  3
ACAD_LAYOUT
350
1A
  3
ACAD_MLINESTYLE
350
17
  3
ACAD_PLOTSETTINGS
350
19
  3
ACAD_PLOTSTYLENAME
350
E
  3
ACAD_SCALELIST
350
47
  0
DICTIONARY
  5
D
102
{ACAD_REACTORS
330
C
102
}
330
C
100
AcDbDictionary
281
     1
  0
DICTIONARY
  5
1A
102
{ACAD_REACTORS
330
C
102
}
330
C
100
AcDbDictionary
281
     1
  3
Layout1
350
1E
  3
Layout2
350
26
  3
Model
350
22
  0
DICTIONARY
  5
17
102
{ACAD_REACTORS
330
C
102
}
330
C
100
AcDbDictionary
281
     1
  3
Standard
350
18
  0
DICTIONARY
  5
19
102
{ACAD_REACTORS
330
C
102
}
330
C
100
AcDbDictionary
281
     1
  0
ACDBDICTIONARYWDFLT
  5
E
102
{ACAD_REACTORS
330
C
102
}
330
C
100
AcDbDictionary
281
     1
  3
Normal
350
F
100
AcDbDictionaryWithDefault
340
F
  0
DICTIONARY
  5
47
102
{ACAD_REACTORS
330
C
102
}
330
C
100
AcDbDictionary
281
     1
  3
A0
350
48
  3
A1
350
49
  3
A2
350
4A
  3
A3
350
4B
  3
A4
350
4C
  3
A5
350
4D
  3
A6
350
4E
  3
A7
350
4F
  3
A8
350
50
  3
A9
350
51
  3
B0
350
52
  3
B1
350
53
  3
B2
350
54
  3
B3
350
55
  3
B4
350
56
  3
B5
350
57
  3
B6
350
58
  3
B7
350
59
  3
B8
350
5A
  3
B9
350
5B
  3
C0
350
5C
  3
C1
350
5D
  3
C2
350
5E
  3
C3
350
5F
  3
C4
350
60
  3
C5
350
61
  3
C6
350
62
  3
C7
350
63
  3
C8
350
64
  3
C9
350
65
  3
D0
350
66
  3
D1
350
67
  3
D2
350
68
  0
LAYOUT
  5
1E
102
{ACAD_REACTORS
330
1A
102
}
330
1A
100
AcDbPlotSettings
  1

  2
none_device
  4

  6

 40
0.0
 41
0.0
 42
0.0
 43
0.0
 44
0.0
 45
0.0
 46
0.0
 47
0.0
 48
0.0
 49
0.0
140
0.0
141
0.0
142
1.0
143
1.0
 70
   688
 72
     1
 73
     0
 74
     5
  7

 75
    16
147
1.0
148
0.0
149
0.0
100
AcDbLayout
  1
Layout1
 70
     1
 71
     1
 10
0.0
 20
0.0
 11
420.0
 21
297.0
 12
0.0
 22
0.0
 32
0.0
 14
1.0000000000E+20
 24
1.0000000000E+20
 34
1.0000000000E+20
 15
-1.0000000000E+20
 25
-1.0000000000E+20
 35
-1.0000000000E+20
146
0.0
 13
0.0
 23
0.0
 33
0.0
 16
1.0
 26
0.0
 36
0.0
 17
0.0
 27
1.0
 37
0.0
 76
     0
330
1B
  0
LAYOUT
  5
26
102
{ACAD_REACTORS
330
1A
102
}
330
1A
100
AcDbPlotSettings
  1

  2
none_device
  4

  6

 40
0.0
 41
0.0
 42
0.0
 43
0.0
 44
0.0
 45
0.0
 46
0.0
 47
0.0
 48
0.0
 49
0.0
140
0.0
141
0.0
142
1.0
143
1.0
 70
   688
 72
     1
 73
     0
 74
     5
  7

 75
    16
147
1.0
148
0.0
149
0.0
100
AcDbLayout
  1
Layout2
 70
     1
 71
     2
 10
0.0
 20
0.0
 11
0.0
 21
0.0
 12
0.0
 22
0.0
 32
0.0
 14
0.0
 24
0.0
 34
0.0
 15
0.0
 25
0.0
 35
0.0
146
0.0
 13
0.0
 23
0.0
 33
0.0
 16
1.0
 26
0.0
 36
0.0
 17
0.0
 27
1.0
 37
0.0
 76
     0
330
23
  0
LAYOUT
  5
22
102
{ACAD_REACTORS
330
1A
102
}
330
1A
100
AcDbPlotSettings
  1

  2
none_device
  4
ANSI_A_(11.00_x_8.50_Inches)
  6

 40
6.35
 41
19.05
 42
6.35000508
 43
19.05000254
 44
279.4
 45
215.9
 46
133.34999746
 47
88.89999873
 48
0.0
 49
0.0
140
0.0
141
0.0
142
0.131484375
143
1.0
 70
  1696
 72
     0
 73
     0
 74
     0
  7

 75
     0
147
0.0179189148
148
-1300.4909072572
149
0.0
100
AcDbLayout
  1
Model
 70
     1
 71
     0
 10
0.0
 20
0.0
 11
420.0
 21
297.0
 12
0.0
 22
0.0
 32
0.0
 14
-31.8933238634
 24
-32.0
 34
0.0
 15
31.8933238634
 25
32.0
 35
0.0
146
0.0
 13
0.0
 23
0.0
 33
0.0
 16
1.0
 26
0.0
 36
0.0
 17
0.0
 27
1.0
 37
0.0
 76
     0
330
1F
331
29
  0
MLINESTYLE
  5
18
102
{ACAD_REACTORS
330
17
102
}
330
17
100
AcDbMlineStyle
  2
Standard
 70
     0
  3

 62
   256
 51
90.0
 52
90.0
 71
     2
 49
0.5
 62
   256
  6
BYLAYER
 49
-0.5
 62
   256
  6
BYLAYER
  0
ACDBPLACEHOLDER
  5
F
102
{ACAD_REACTORS
330
E
102
}
330
E
  0
SCALE
  5
48
102
{ACAD_REACTORS
330
47
102
}
330
47
100
AcDbScale
 70
     0
300
1:1
140
1.0
141
1.0
290
     1
  0
SCALE
  5
49
102
{ACAD_REACTORS
330
47
102
}
330
47
100
AcDbScale
 70
     0
300
1:2
140
1.0
141
2.0
290
     0
  0
SCALE
  5
4A
102
{ACAD_REACTORS
330
47
102
}
330
47
100
AcDbScale
 70
     0
300
1:4
140
1.0
141
4.0
290
     0
  0
SCALE
  5
4B
102
{ACAD_REACTORS
330
47
102
}
330
47
100
AcDbScale
 70
     0
300
1:5
140
1.0
141
5.0
290
     0
  0
SCALE
  5
4C
102
{ACAD_REACTORS
330
47
102
}
330
47
100
AcDbScale
 70
     0
300
1:8
140
1.0
141
8.0
290
     0
  0
SCALE
  5
4D
102
{ACAD_REACTORS
330
47
102
}
330
47
100
AcDbScale
 70
     0
300
1:10
140
1.0
141
10.0
290
     0
  0
SCALE
  5
4E
102
{ACAD_REACTORS
330
47
102
}
330
47
100
AcDbScale
 70
     0
300
1:16
140
1.0
141
16.0
290
     0
  0
SCALE
  5
4F
102
{ACAD_REACTORS
330
47
102
}
330
47
100
AcDbScale
 70
     0
300
1:20
140
1.0
141
20.0
290
     0
  0
SCALE
  5
50
102
{ACAD_REACTORS
330
47
102
}
330
47
100
AcDbScale
 70
     0
300
1:30
140
1.0
141
30.0
290
     0
  0
SCALE
  5
51
102
{ACAD_REACTORS
330
47
102
}
330
47
100
AcDbScale
 70
     0
300
1:40
140
1.0
141
40.0
290
     0
  0
SCALE
  5
52
102
{ACAD_REACTORS
330
47
102
}
330
47
100
AcDbScale
 70
     0
300
1:50
140
1.0
141
50.0
290
     0
  0
SCALE
  5
53
102
{ACAD_REACTORS
330
47
102
}
330
47
100
AcDbScale
 70
     0
300
1:100
140
1.0
141
100.0
290
     0
  0
SCALE
  5
54
102
{ACAD_REACTORS
330
47
102
}
330
47
100
AcDbScale
 70
     0
300
2:1
140
2.0
141
1.0
290
     0
  0
SCALE
  5
55
102
{ACAD_REACTORS
330
47
102
}
330
47
100
AcDbScale
 70
     0
300
4:1
140
4.0
141
1.0
290
     0
  0
SCALE
  5
56
102
{ACAD_REACTORS
330
47
102
}
330
47
100
AcDbScale
 70
     0
300
8:1
140
8.0
141
1.0
290
     0
  0
SCALE
  5
57
102
{ACAD_REACTORS
330
47
102
}
330
47
100
AcDbScale
 70
     0
300
10:1
140
10.0
141
1.0
290
     0
  0
SCALE
  5
58
102
{ACAD_REACTORS
330
47
102
}
330
47
100
AcDbScale
 70
     0
300
100:1
140
100.0
141
1.0
290
     0
  0
SCALE
  5
59
102
{ACAD_REACTORS
330
47
102
}
330
47
100
AcDbScale
 70
     0
300
1/128" = 1'-0"
140
0.0078125
141
12.0
290
     0
  0
SCALE
  5
5A
102
{ACAD_REACTORS
330
47
102
}
330
47
100
AcDbScale
 70
     0
300
1/64" = 1'-0"
140
0.015625
141
12.0
290
     0
  0
SCALE
  5
5B
102
{ACAD_REACTORS
330
47
102
}
330
47
100
AcDbScale
 70
     0
300
1/32" = 1'-0"
140
0.03125
141
12.0
290
     0
  0
SCALE
  5
5C
102
{ACAD_REACTORS
330
47
102
}
330
47
100
AcDbScale
 70
     0
300
1/16" = 1'-0"
140
0.0625
141
12.0
290
     0
  0
SCALE
  5
5D
102
{ACAD_REACTORS
330
47
102
}
330
47
100
AcDbScale
 70
     0
300
3/32" = 1'-0"
140
0.09375
141
12.0
290
     0
  0
SCALE
  5
5E
102
{ACAD_REACTORS
330
47
102
}
330
47
100
AcDbScale
 70
     0
300
1/8" = 1'-0"
140
0.125
141
12.0
290
     0
  0
SCALE
  5
5F
102
{ACAD_REACTORS
330
47
102
}
330
47
100
AcDbScale
 70
     0
300
3/16" = 1'-0"
140
0.1875
141
12.0
290
     0
  0
SCALE
  5
60
102
{ACAD_REACTORS
330
47
102
}
330
47
100
AcDbScale
 70
     0
300
1/4" = 1'-0"
140
0.25
141
12.0
290
     0
  0
SCALE
  5
61
102
{ACAD_REACTORS
330
47
102
}
330
47
100
AcDbScale
 70
     0
300
3/8" = 1'-0"
140
0.375
141
12.0
290
     0
  0
SCALE
  5
62
102
{ACAD_REACTORS
330
47
102
}
330
47
100
AcDbScale
 70
     0
300
1/2" = 1'-0"
140
0.5
141
12.0
290
     0
  0
SCALE
  5
63
102
{ACAD_REACTORS
330
47
102
}
330
47
100
AcDbScale
 70
     0
300
3/4" = 1'-0"
140
0.75
141
12.0
290
     0
  0
SCALE
  5
64
102
{ACAD_REACTORS
330
47
102
}
330
47
100
AcDbScale
 70
     0
300
1" = 1'-0"
140
1.0
141
12.0
290
     0
  0
SCALE
  5
65
102
{ACAD_REACTORS
330
47
102
}
330
47
100
AcDbScale
 70
     0
300
1-1/2" = 1'-0"
140
1.5
141
12.0
290
     0
  0
SCALE
  5
66
102
{ACAD_REACTORS
330
47
102
}
330
47
100
AcDbScale
 70
     0
300
3" = 1'-0"
140
3.0
141
12.0
290
     0
  0
SCALE
  5
67
102
{ACAD_REACTORS
330
47
102
}
330
47
100
AcDbScale
 70
     0
300
6" = 1'-0"
140
6.0
141
12.0
290
     0
  0
SCALE
  5
68
102
{ACAD_REACTORS
330
47
102
}
330
47
100
AcDbScale
 70
     0
300
1'-0" = 1'-0"
140
12.0
141
12.0
290
     0
  0
ENDSEC
  0
EOF
