  0
SECTION
  2
HEADER
  9
$ACADVER
  1
AC1015
  9
$ACADMAINTVER
 70
     6
  9
$DWGCODEPAGE
  3
ANSI_1252
  9
$INSBASE
 10
0.0
 20
0.0
 30
0.0
  9
$EXTMIN
 10
0.0
 20
0.0
 30
0.0
  9
$EXTMAX
 10
300.0
 20
300.0
 30
0.0
  9
$LIMMIN
 10
0.0
 20
0.0
  9
$LIMMAX
 10
300.0
 20
300.0
  9
$ORTHOMODE
 70
     0
  9
$REGENMODE
 70
     1
  9
$FILLMODE
 70
     1
  9
$QTEXTMODE
 70
     0
  9
$MIRRTEXT
 70
     1
  9
$LTSCALE
 40
1.0
  9
$ATTMODE
 70
     1
  9
$TEXTSIZE
 40
3.5
  9
$TRACEWID
 40
1.0
  9
$TEXTSTYLE
  7
Standard
  9
$CLAYER
  8
0
  9
$CELTYPE
  6
ByLayer
  9
$CECOLOR
 62
   256
  9
$CELTSCALE
 40
1.0
  9
$DISPSILH
 70
     0
  9
$DIMSCALE
 40
1.0
  9
$DIMASZ
 40
6.0
  9
$DIMEXO
 40
1.0
  9
$DIMDLI
 40
3.75
  9
$DIMRND
 40
0.0
  9
$DIMDLE
 40
0.0
  9
$DIMEXE
 40
1.0
  9
$DIMTP
 40
0.0
  9
$DIMTM
 40
0.0
  9
$DIMTXT
 40
3.5
  9
$DIMCEN
 40
2.5
  9
$DIMTSZ
 40
0.0
  9
$DIMTOL
 70
     0
  9
$DIMLIM
 70
     0
  9
$DIMTIH
 70
     1
  9
$DIMTOH
 70
     1
  9
$DIMSE1
 70
     0
  9
$DIMSE2
 70
     0
  9
$DIMTAD
 70
     1
  9
$DIMZIN
 70
     0
  9
$DIMBLK
  1

  9
$DIMASO
 70
     1
  9
$DIMSHO
 70
     1
  9
$DIMPOST
  1

  9
$DIMAPOST
  1

  9
$DIMALT
 70
     0
  9
$DIMALTD
 70
     3
  9
$DIMALTF
 40
0.0393700787
  9
$DIMLFAC
 40
1.0
  9
$DIMTOFL
 70
     1
  9
$DIMTVP
 40
0.0
  9
$DIMTIX
 70
     0
  9
$DIMSOXD
 70
     0
  9
$DIMSAH
 70
     0
  9
$DIMBLK1
  1

  9
$DIMBLK2
  1

  9
$DIMSTYLE
  2
ISO-25
  9
$DIMCLRD
 70
     0
  9
$DIMCLRE
 70
     0
  9
$DIMCLRT
 70
     0
  9
$DIMTFAC
 40
1.0
  9
$DIMGAP
 40
1.524
  9
$DIMJUST
 70
     0
  9
$DIMSD1
 70
     0
  9
$DIMSD2
 70
     0
  9
$DIMTOLJ
 70
     0
  9
$DIMTZIN
 70
     0
  9
$DIMALTZ
 70
     0
  9
$DIMALTTZ
 70
     0
  9
$DIMUPT
 70
     0
  9
$DIMDEC
 70
     3
  9
$DIMTDEC
 70
     3
  9
$DIMALTU
 70
     2
  9
$DIMALTTD
 70
     3
  9
$DIMTXSTY
  7
Standard
  9
$DIMAUNIT
 70
     0
  9
$DIMADEC
 70
     0
  9
$DIMALTRND
 40
0.0
  9
$DIMAZIN
 70
     0
  9
$DIMDSEP
 70
    44
  9
$DIMATFIT
 70
     3
  9
$DIMFRAC
 70
     0
  9
$DIMLDRBLK
  1

  9
$DIMLUNIT
 70
     2
  9
$DIMLWD
 70
    -2
  9
$DIMLWE
 70
    -2
  9
$DIMTMOVE
 70
     0
  9
$LUNITS
 70
     2
  9
$LUPREC
 70
     3
  9
$SKETCHINC
 40
1.0
  9
$FILLETRAD
 40
10.0
  9
$AUNITS
 70
     0
  9
$AUPREC
 70
     0
  9
$MENU
  1
.
  9
$ELEVATION
 40
0.0
  9
$PELEVATION
 40
0.0
  9
$THICKNESS
 40
0.0
  9
$LIMCHECK
 70
     0
  9
$CHAMFERA
 40
0.0
  9
$CHAMFERB
 40
0.0
  9
$CHAMFERC
 40
0.0
  9
$CHAMFERD
 40
0.0
  9
$SKPOLY
 70
     0
  9
$TDCREATE
 40
2457808.565961829
  9
$TDUCREATE
 40
2457808.774295162
  9
$TDUPDATE
 40
2457808.565962245
  9
$TDUUPDATE
 40
2457808.774295579
  9
$TDINDWG
 40
0.0000000116
  9
$TDUSRTIMER
 40
0.0000000116
  9
$USRTIMER
 70
     1
  9
$ANGBASE
 50
0.0
  9
$ANGDIR
 70
     0
  9
$PDMODE
 70
     0
  9
$PDSIZE
 40
-1.0
  9
$PLINEWID
 40
0.0
  9
$SPLFRAME
 70
     0
  9
$SPLINETYPE
 70
     6
  9
$SPLINESEGS
 70
     8
  9
$HANDSEED
  5
3BC
  9
$SURFTAB1
 70
     6
  9
$SURFTAB2
 70
     6
  9
$SURFTYPE
 70
     6
  9
$SURFU
 70
     6
  9
$SURFV
 70
     6
  9
$UCSBASE
  2

  9
$UCSNAME
  2

  9
$UCSORG
 10
0.0
 20
0.0
 30
0.0
  9
$UCSXDIR
 10
1.0
 20
0.0
 30
0.0
  9
$UCSYDIR
 10
0.0
 20
1.0
 30
0.0
  9
$UCSORTHOREF
  2

  9
$UCSORTHOVIEW
 70
     0
  9
$UCSORGTOP
 10
0.0
 20
0.0
 30
0.0
  9
$UCSORGBOTTOM
 10
0.0
 20
0.0
 30
0.0
  9
$UCSORGLEFT
 10
0.0
 20
0.0
 30
0.0
  9
$UCSORGRIGHT
 10
0.0
 20
0.0
 30
0.0
  9
$UCSORGFRONT
 10
0.0
 20
0.0
 30
0.0
  9
$UCSORGBACK
 10
0.0
 20
0.0
 30
0.0
  9
$PUCSBASE
  2

  9
$PUCSNAME
  2

  9
$PUCSORG
 10
0.0
 20
0.0
 30
0.0
  9
$PUCSXDIR
 10
1.0
 20
0.0
 30
0.0
  9
$PUCSYDIR
 10
0.0
 20
1.0
 30
0.0
  9
$PUCSORTHOREF
  2

  9
$PUCSORTHOVIEW
 70
     0
  9
$PUCSORGTOP
 10
0.0
 20
0.0
 30
0.0
  9
$PUCSORGBOTTOM
 10
0.0
 20
0.0
 30
0.0
  9
$PUCSORGLEFT
 10
0.0
 20
0.0
 30
0.0
  9
$PUCSORGRIGHT
 10
0.0
 20
0.0
 30
0.0
  9
$PUCSORGFRONT
 10
0.0
 20
0.0
 30
0.0
  9
$PUCSORGBACK
 10
0.0
 20
0.0
 30
0.0
  9
$USERI1
 70
     0
  9
$USERI2
 70
     0
  9
$USERI3
 70
     0
  9
$USERI4
 70
     0
  9
$USERI5
 70
     0
  9
$USERR1
 40
0.0
  9
$USERR2
 40
0.0
  9
$USERR3
 40
0.0
  9
$USERR4
 40
0.0
  9
$USERR5
 40
0.0
  9
$WORLDVIEW
 70
     1
  9
$SHADEDGE
 70
     3
  9
$SHADEDIF
 70
    70
  9
$TILEMODE
 70
     1
  9
$MAXACTVP
 70
    64
  9
$PINSBASE
 10
0.0
 20
0.0
 30
0.0
  9
$PLIMCHECK
 70
     0
  9
$PEXTMIN
 10
1.0000000000E+20
 20
1.0000000000E+20
 30
1.0000000000E+20
  9
$PEXTMAX
 10
-1.0000000000E+20
 20
-1.0000000000E+20
 30
-1.0000000000E+20
  9
$PLIMMIN
 10
0.0
 20
0.0
  9
$PLIMMAX
 10
420.0
 20
297.0
  9
$UNITMODE
 70
     0
  9
$VISRETAIN
 70
     1
  9
$PLINEGEN
 70
     0
  9
$PSLTSCALE
 70
     1
  9
$TREEDEPTH
 70
  3020
  9
$CMLSTYLE
  2
Standard
  9
$CMLJUST
 70
     0
  9
$CMLSCALE
 40
20.0
  9
$PROXYGRAPHICS
 70
     1
  9
$MEASUREMENT
 70
     1
  9
$CELWEIGHT
370
    -1
  9
$ENDCAPS
280
     0
  9
$JOINSTYLE
280
     0
  9
$LWDISPLAY
290
     1
  9
$INSUNITS
 70
     4
  9
$HYPERLINKBASE
  1

  9
$STYLESHEET
  1

  9
$XEDIT
290
     1
  9
$CEPSNTYPE
380
     0
  9
$PSTYLEMODE
290
     1
  9
$FINGERPRINTGUID
  2
{03487949-FC12-4666-B737-A119652C886D}
  9
$VERSIONGUID
  2
{FAEB1C32-E019-11D5-929B-00C0DF256EC4}
  9
$EXTNAMES
290
     1
  9
$PSVPSCALE
 40
0.0
  9
$OLESTARTUP
290
     0
  0
ENDSEC
  0
SECTION
  2
CLASSES
  0
CLASS
  1
ACDBDICTIONARYWDFLT
  2
AcDbDictionaryWithDefault
  3
ObjectDBX Classes
 90
        0
280
     0
281
     0
  0
CLASS
  1
VISUALSTYLE
  2
AcDbVisualStyle
  3
ObjectDBX Classes
 90
     4095
280
     0
281
     0
  0
CLASS
  1
MATERIAL
  2
AcDbMaterial
  3
ObjectDBX Classes
 90
     1153
280
     0
281
     0
  0
CLASS
  1
SCALE
  2
AcDbScale
  3
ObjectDBX Classes
 90
     1153
280
     0
281
     0
  0
CLASS
  1
TABLESTYLE
  2
AcDbTableStyle
  3
ObjectDBX Classes
 90
     4095
280
     0
281
     0
  0
CLASS
  1
MLEADERSTYLE
  2
AcDbMLeaderStyle
  3
ACDB_MLEADERSTYLE_CLASS
 90
     4095
280
     0
281
     0
  0
CLASS
  1
SUN
  2
AcDbSun
  3
SCENEOE
 90
     1153
280
     0
281
     0
  0
CLASS
  1
ACDBPLACEHOLDER
  2
AcDbPlaceHolder
  3
ObjectDBX Classes
 90
        0
280
     0
281
     0
  0
CLASS
  1
LAYOUT
  2
AcDbLayout
  3
ObjectDBX Classes
 90
        0
280
     0
281
     0
  0
ENDSEC
  0
SECTION
  2
TABLES
  0
TABLE
  2
VPORT
  5
8
330
0
100
AcDbSymbolTable
 70
     1
  0
VPORT
  5
29
330
8
100
AcDbSymbolTableRecord
100
AcDbViewportTableRecord
  2
*Active
 70
     0
 10
0.0
 20
0.0
 11
1.0
 21
1.0
 12
150.0
 22
150.0
 13
0.0
 23
0.0
 14
10.0
 24
10.0
 15
10.0
 25
10.0
 16
0.0
 26
0.0
 36
1.0
 17
0.0
 27
0.0
 37
0.0
 40
300.0
 41
1.0
 42
50.0
 43
0.0
 44
0.0
 50
0.0
 51
0.0
 71
     0
 72
  2000
 73
     1
 74
     3
 75
     0
 76
     0
 77
     0
 78
     0
281
     0
 65
     1
110
0.0
120
0.0
130
0.0
111
1.0
121
0.0
131
0.0
112
0.0
122
1.0
132
0.0
 79
     0
146
0.0
  0
ENDTAB
  0
TABLE
  2
LTYPE
  5
5
330
0
100
AcDbSymbolTable
 70
     6
  0
LTYPE
  5
14
330
5
100
AcDbSymbolTableRecord
100
AcDbLinetypeTableRecord
  2
ByBlock
 70
     0
  3

 72
    65
 73
     0
 40
0.0
  0
LTYPE
  5
15
330
5
100
AcDbSymbolTableRecord
100
AcDbLinetypeTableRecord
  2
ByLayer
 70
     0
  3

 72
    65
 73
     0
 40
0.0
  0
LTYPE
  5
16
330
5
100
AcDbSymbolTableRecord
100
AcDbLinetypeTableRecord
  2
Continuous
 70
     0
  3
Solid line
 72
    65
 73
     0
 40
0.0
  0
LTYPE
  5
6E
330
5
100
AcDbSymbolTableRecord
100
AcDbLinetypeTableRecord
  2
HIDDEN
 70
     0
  3
Hidden __ __ __ __ __ __ __ __ __ __ __ __ __ __
 72
    65
 73
     2
 40
1.905
 49
1.27
 74
     0
 49
-0.635
 74
     0
  0
LTYPE
  5
6F
330
5
100
AcDbSymbolTableRecord
100
AcDbLinetypeTableRecord
  2
PHANTOM
 70
     0
  3
Phantom ______  __  __  ______  __  __  ______
 72
    65
 73
     6
 40
12.7
 49
6.35
 74
     0
 49
-1.27
 74
     0
 49
1.27
 74
     0
 49
-1.27
 74
     0
 49
1.27
 74
     0
 49
-1.27
 74
     0
  0
LTYPE
  5
70
330
5
100
AcDbSymbolTableRecord
100
AcDbLinetypeTableRecord
  2
CENTER
 70
     0
  3
Center ____ _ ____ _ ____ _ ____ _ ____ _ ____
 72
    65
 73
     4
 40
10.16
 49
6.35
 74
     0
 49
-1.27
 74
     0
 49
1.27
 74
     0
 49
-1.27
 74
     0
  0
LTYPE
  5
71
330
5
100
AcDbSymbolTableRecord
100
AcDbLinetypeTableRecord
  2
CENTERX2
 70
     0
  3
Center (2x) ________  __  ________  __  _____
 72
    65
 73
     4
 40
20.32
 49
12.7
 74
     0
 49
-2.54
 74
     0
 49
2.54
 74
     0
 49
-2.54
 74
     0
  0
LTYPE
  5
72
330
5
100
AcDbSymbolTableRecord
100
AcDbLinetypeTableRecord
  2
DOT2
 70
     0
  3
Dot (.5x) ........................................
 72
    65
 73
     2
 40
0.635
 49
0.0
 74
     0
 49
-0.635
 74
     0
  0
ENDTAB
  0
TABLE
  2
LAYER
  5
2
330
0
100
AcDbSymbolTable
 70
     2
  0
LAYER
  5
10
330
2
100
AcDbSymbolTableRecord
100
AcDbLayerTableRecord
  2
0
 70
     0
 62
     7
  6
Continuous
370
    -3
390
F
  0
LAYER
  5
73
330
2
100
AcDbSymbolTableRecord
100
AcDbLayerTableRecord
  2
FORMAT
 70
     0
 62
     7
  6
Continuous
370
    -3
390
F
  0
ENDTAB
  0
TABLE
  2
STYLE
  5
3
330
0
100
AcDbSymbolTable
 70
     1
  0
STYLE
  5
11
330
3
100
AcDbSymbolTableRecord
100
AcDbTextStyleTableRecord
  2
Standard
 70
     0
 40
0.0
 41
1.0
 50
0.0
 71
     0
 42
3.5
  3
txt
  4

  0
ENDTAB
  0
TABLE
  2
VIEW
  5
6
330
0
100
AcDbSymbolTable
 70
     0
  0
ENDTAB
  0
TABLE
  2
UCS
  5
7
330
0
100
AcDbSymbolTable
 70
     0
  0
ENDTAB
  0
TABLE
  2
APPID
  5
9
330
0
100
AcDbSymbolTable
 70
     1
  0
APPID
  5
12
330
9
100
AcDbSymbolTableRecord
100
AcDbRegAppTableRecord
  2
ACAD
 70
     0
  0
ENDTAB
  0
TABLE
  2
DIMSTYLE
  5
A
330
0
100
AcDbSymbolTable
 70
     1
100
AcDbDimStyleTable
  0
DIMSTYLE
105
27
330
A
100
AcDbSymbolTableRecord
100
AcDbDimStyleTableRecord
  2
ISO-25
 70
     0
 41
2.5
 42
0.625
 43
3.75
 44
1.25
 73
     0
 74
     0
 77
     1
 78
     8
140
2.5
141
2.5
143
0.0393700787
147
0.625
171
     3
172
     1
178
     0
271
     2
272
     2
274
     3
278
    44
283
     0
284
     8
340
11
  0
ENDTAB
  0
TABLE
  2
BLOCK_RECORD
  5
1
330
0
100
AcDbSymbolTable
 70
     1
  0
BLOCK_RECORD
  5
1F
330
1
100
AcDbSymbolTableRecord
100
AcDbBlockTableRecord
  2
*Model_Space
340
22
  0
BLOCK_RECORD
  5
1B
330
1
100
AcDbSymbolTableRecord
100
AcDbBlockTableRecord
  2
*Paper_Space
340
1E
  0
BLOCK_RECORD
  5
23
330
1
100
AcDbSymbolTableRecord
100
AcDbBlockTableRecord
  2
*Paper_Space0
340
26
  0
ENDTAB
  0
ENDSEC
  0
SECTION
  2
BLOCKS
  0
BLOCK
  5
20
330
1F
100
AcDbEntity
  8
0
100
AcDbBlockBegin
  2
*Model_Space
 70
     0
 10
0.0
 20
0.0
 30
0.0
  3
*Model_Space
  1

  0
ENDBLK
  5
21
330
1F
100
AcDbEntity
  8
0
100
AcDbBlockEnd
  0
BLOCK
  5
1C
330
1B
100
AcDbEntity
 67
     1
  8
0
100
AcDbBlockBegin
  2
*Paper_Space
 70
     0
 10
0.0
 20
0.0
 30
0.0
  3
*Paper_Space
  1

  0
ENDBLK
  5
1D
330
1B
100
AcDbEntity
 67
     1
  8
0
100
AcDbBlockEnd
  0
BLOCK
  5
24
330
23
100
AcDbEntity
  8
0
100
AcDbBlockBegin
  2
*Paper_Space0
 70
     0
 10
0.0
 20
0.0
 30
0.0
  3
*Paper_Space0
  1

  0
ENDBLK
  5
25
330
23
100
AcDbEntity
  8
0
100
AcDbBlockEnd
  0
ENDSEC
  0
SECTION
  2
ENTITIES
  0
CIRCLE
  5
74
330
1F
100
AcDbEntity
  8
0
  6
Continuous
 62
     7
100
AcDbCircle
 10
52.8300180223
 20
249.6193055389
 30
0.0
 40
3.0
  0
LINE
  5
75
330
1F
100
AcDbEntity
  8
0
  6
Continuous
 62
     7
370
    35
100
AcDbLine
 10
89.5265898791
 20
254.7939353948
 30
0.0
 11
89.6154753056
 21
254.118767972
 31
0.0
  0
ARC
  5
76
330
1F
100
AcDbEntity
  8
0
  6
Continuous
 62
     7
370
    35
100
AcDbCircle
 10
89.9932166123
 20
254.1684985855
 30
0.0
 40
0.3809999999999997
100
AcDbArc
 50
187.5
 51
252.5
  0
LINE
  5
77
330
1F
100
AcDbEntity
  8
0
  6
Continuous
 62
     7
370
    35
100
AcDbLine
 10
89.8786484387
 20
253.8051325222
 30
0.0
 11
91.1996624556
 21
253.3886185241
 31
0.0
  0
ARC
  5
78
330
1F
100
AcDbEntity
  8
0
  6
Continuous
 62
     7
370
    35
100
AcDbCircle
 10
52.8300180223
 20
249.6193055389
 30
0.0
 40
38.55434132352777
100
AcDbArc
 50
1.8894449719
 51
5.6105550281
  0
LINE
  5
79
330
1F
100
AcDbEntity
  8
0
  6
Continuous
 62
     7
370
    35
100
AcDbLine
 10
90.1080518153
 20
250.3051055222
 30
0.0
 11
91.3633964148
 21
250.8904829714
 31
0.0
  0
ARC
  5
7A
330
1F
100
AcDbEntity
  8
0
  6
Continuous
 62
     7
370
    35
100
AcDbCircle
 10
90.2690691426
 20
249.959802272
 30
0.0
 40
0.3810000000000439
100
AcDbArc
 50
115.0
 51
180.0
  0
LINE
  5
7B
330
1F
100
AcDbEntity
  8
0
  6
Continuous
 62
     7
370
    35
100
AcDbLine
 10
89.8880696979
 20
249.9598022817
 30
0.0
 11
89.8880696979
 21
249.278808796
 31
0.0
  0
ARC
  5
7C
330
1F
100
AcDbEntity
  8
0
  6
Continuous
 62
     7
370
    35
100
AcDbCircle
 10
90.2690691426
 20
249.2788088057
 30
0.0
 40
0.3809999999999924
100
AcDbArc
 50
180.0
 51
245.0
  0
LINE
  5
7D
330
1F
100
AcDbEntity
  8
0
  6
Continuous
 62
     7
370
    35
100
AcDbLine
 10
90.1080518153
 20
248.9335055555
 30
0.0
 11
91.3633964148
 21
248.3481281064
 31
0.0
  0
ARC
  5
7E
330
1F
100
AcDbEntity
  8
0
  6
Continuous
 62
     7
370
    35
100
AcDbCircle
 10
52.8300180223
 20
249.6193055389
 30
0.0
 40
38.55434132352777
100
AcDbArc
 50
354.3894449719
 51
358.1105550281
  0
LINE
  5
7F
330
1F
100
AcDbEntity
  8
0
  6
Continuous
 62
     7
370
    35
100
AcDbLine
 10
89.8786484387
 20
245.4334785556
 30
0.0
 11
91.1996624556
 21
245.8499925536
 31
0.0
  0
ARC
  5
80
330
1F
100
AcDbEntity
  8
0
  6
Continuous
 62
     7
370
    35
100
AcDbCircle
 10
89.9932166123
 20
245.0701124922
 30
0.0
 40
0.380999999999996
100
AcDbArc
 50
107.5
 51
172.5
  0
LINE
  5
81
330
1F
100
AcDbEntity
  8
0
  6
Continuous
 62
     7
370
    35
100
AcDbLine
 10
89.6154753056
 20
245.1198431057
 30
0.0
 11
89.5265898791
 21
244.444675683
 31
0.0
  0
ARC
  5
82
330
1F
100
AcDbEntity
  8
0
  6
Continuous
 62
     7
370
    35
100
AcDbCircle
 10
89.9043291282
 20
244.3949450194
 30
0.0
 40
0.3809999999999997
100
AcDbArc
 50
172.5
 51
237.5
  0
LINE
  5
83
330
1F
100
AcDbEntity
  8
0
  6
Continuous
 62
     7
370
    35
100
AcDbLine
 10
89.6996184376
 20
244.0736130205
 30
0.0
 11
90.8678173211
 21
243.3293880289
 31
0.0
  0
ARC
  5
84
330
1F
100
AcDbEntity
  8
0
  6
Continuous
 62
     7
370
    35
100
AcDbCircle
 10
52.8300180223
 20
249.6193055389
 30
0.0
 40
38.55434132352777
100
AcDbArc
 50
346.8894449719
 51
350.6105550281
  0
LINE
  5
85
330
1F
100
AcDbEntity
  8
0
  6
Continuous
 62
     7
370
    35
100
AcDbLine
 10
89.0153310385
 20
240.633472274
 30
0.0
 11
90.3794094112
 21
240.8739965734
 31
0.0
  0
ARC
  5
86
330
1F
100
AcDbEntity
  8
0
  6
Continuous
 62
     7
370
    35
100
AcDbCircle
 10
89.0814914505
 20
240.2582606667
 30
0.0
 40
0.3809999999999922
100
AcDbArc
 50
100.0
 51
165.0
  0
LINE
  5
87
330
1F
100
AcDbEntity
  8
0
  6
Continuous
 62
     7
370
    35
100
AcDbLine
 10
88.7134744909
 20
240.3568704006
 30
0.0
 11
88.537219831
 21
239.6990819228
 31
0.0
  0
ARC
  5
88
330
1F
100
AcDbEntity
  8
0
  6
Continuous
 62
     7
370
    35
100
AcDbCircle
 10
88.9052373718
 20
239.6004714901
 30
0.0
 40
0.3810000000000032
100
AcDbArc
 50
165.0
 51
230.0
  0
LINE
  5
89
330
1F
100
AcDbEntity
  8
0
  6
Continuous
 62
     7
370
    35
100
AcDbLine
 10
88.6603369501
 20
239.3086081696
 30
0.0
 11
89.72140021
 21
238.4182703075
 31
0.0
  0
ARC
  5
8A
330
1F
100
AcDbEntity
  8
0
  6
Continuous
 62
     7
370
    35
100
AcDbCircle
 10
52.8300180223
 20
249.6193055389
 30
0.0
 40
38.55434132352778
100
AcDbArc
 50
339.3894449719
 51
343.1105550281
  0
LINE
  5
8B
330
1F
100
AcDbEntity
  8
0
  6
Continuous
 62
     7
370
    35
100
AcDbLine
 10
87.532874116
 20
235.9872166393
 30
0.0
 11
88.9166779008
 21
236.0476343286
 31
0.0
  0
ARC
  5
8C
330
1F
100
AcDbEntity
  8
0
  6
Continuous
 62
     7
370
    35
100
AcDbCircle
 10
87.5494935275
 20
235.6065789143
 30
0.0
 40
0.3809999999999953
100
AcDbArc
 50
92.5
 51
157.5
  0
LINE
  5
8D
330
1F
100
AcDbEntity
  8
0
  6
Continuous
 62
     7
370
    35
100
AcDbLine
 10
87.197493681
 20
235.7523808581
 30
0.0
 11
86.9368909982
 21
235.1232249615
 31
0.0
  0
ARC
  5
8E
330
1F
100
AcDbEntity
  8
0
  6
Continuous
 62
     7
370
    35
100
AcDbCircle
 10
87.2888886104
 20
234.977422989
 30
0.0
 40
0.381000000000002
100
AcDbArc
 50
157.5
 51
222.5
  0
LINE
  5
8F
330
1F
100
AcDbEntity
  8
0
  6
Continuous
 62
     7
370
    35
100
AcDbLine
 10
87.0079844382
 20
234.7200228227
 30
0.0
 11
87.9437587348
 21
233.6988043365
 31
0.0
  0
ARC
  5
90
330
1F
100
AcDbEntity
  8
0
  6
Continuous
 62
     7
370
    35
100
AcDbCircle
 10
52.8300180223
 20
249.6193055389
 30
0.0
 40
38.55434132352778
100
AcDbArc
 50
331.8894449719
 51
335.6105550281
  0
LINE
  5
91
330
1F
100
AcDbEntity
  8
0
  6
Continuous
 62
     7
370
    35
100
AcDbLine
 10
85.4566431728
 20
231.574209812
 30
0.0
 11
86.8364906993
 21
231.4534880546
 31
0.0
  0
ARC
  5
92
330
1F
100
AcDbEntity
  8
0
  6
Continuous
 62
     7
370
    35
100
AcDbCircle
 10
85.4234357526
 20
231.1946587995
 30
0.0
 40
0.3810000000000122
100
AcDbArc
 50
85.0
 51
150.0
  0
LINE
  5
93
330
1F
100
AcDbEntity
  8
0
  6
Continuous
 62
     7
370
    35
100
AcDbLine
 10
85.0934795228
 20
231.38515878
 30
0.0
 11
84.7529842642
 21
230.7954006222
 31
0.0
  0
ARC
  5
94
330
1F
100
AcDbEntity
  8
0
  6
Continuous
 62
     7
370
    35
100
AcDbCircle
 10
85.0829390195
 20
230.6049011579
 30
0.0
 40
0.3810000000000117
100
AcDbArc
 50
150.0
 51
215.0
  0
LINE
  5
95
330
1F
100
AcDbEntity
  8
0
  6
Continuous
 62
     7
370
    35
100
AcDbLine
 10
84.7708433059
 20
230.3863693354
 30
0.0
 11
85.5653136161
 21
229.2517446307
 31
0.0
  0
ARC
  5
96
330
1F
100
AcDbEntity
  8
0
  6
Continuous
 62
     7
370
    35
100
AcDbCircle
 10
52.8300180223
 20
249.6193055389
 30
0.0
 40
38.55434132352776
100
AcDbArc
 50
324.3894449719
 51
328.1105550281
  0
LINE
  5
97
330
1F
100
AcDbEntity
  8
0
  6
Continuous
 62
     7
370
    35
100
AcDbLine
 10
82.8221588519
 20
227.46995877
 30
0.0
 11
84.1744466808
 21
227.170162308
 31
0.0
  0
ARC
  5
98
330
1F
100
AcDbEntity
  8
0
  6
Continuous
 62
     7
370
    35
100
AcDbCircle
 10
82.7396955638
 20
227.0979894988
 30
0.0
 40
0.3810000000000003
100
AcDbArc
 50
77.5
 51
142.5
  0
LINE
  5
99
330
1F
100
AcDbEntity
  8
0
  6
Continuous
 62
     7
370
    35
100
AcDbLine
 10
82.4374276337
 20
227.3299269703
 30
0.0
 11
82.0228661534
 21
226.7896592942
 31
0.0
  0
ARC
  5
9A
330
1F
100
AcDbEntity
  8
0
  6
Continuous
 62
     7
370
    35
100
AcDbCircle
 10
82.3251330081
 20
226.5577210576
 30
0.0
 40
0.3810000000000162
100
AcDbArc
 50
142.5
 51
207.5
  0
LINE
  5
9B
330
1F
100
AcDbEntity
  8
0
  6
Continuous
 62
     7
370
    35
100
AcDbLine
 10
81.9871815976
 20
226.3817940233
 30
0.0
 11
82.6267599252
 21
225.153176519
 31
0.0
  0
ARC
  5
9C
330
1F
100
AcDbEntity
  8
0
  6
Continuous
 62
     7
370
    35
100
AcDbCircle
 10
52.8300180223
 20
249.6193055389
 30
0.0
 40
38.55434132352778
100
AcDbArc
 50
316.8894449719
 51
320.6105550281
  0
LINE
  5
9D
330
1F
100
AcDbEntity
  8
0
  6
Continuous
 62
     7
370
    35
100
AcDbLine
 10
79.6745027539
 20
223.7446889606
 30
0.0
 11
80.9760893819
 21
223.2709493813
 31
0.0
  0
ARC
  5
9E
330
1F
100
AcDbEntity
  8
0
  6
Continuous
 62
     7
370
    35
100
AcDbCircle
 10
79.5441924996
 20
223.3866661595
 30
0.0
 40
0.3809999999999966
100
AcDbArc
 50
70.0
 51
135.0
  0
LINE
  5
9F
330
1F
100
AcDbEntity
  8
0
  6
Continuous
 62
     7
370
    35
100
AcDbLine
 10
79.2747846928
 20
223.6560736177
 30
0.0
 11
78.7932499435
 21
223.1745388684
 31
0.0
  0
ARC
  5
A0
330
1F
100
AcDbEntity
  8
0
  6
Continuous
 62
     7
370
    35
100
AcDbCircle
 10
79.0626574017
 20
222.9051310616
 30
0.0
 40
0.3809999999999966
100
AcDbArc
 50
135.0
 51
200.0
  0
LINE
  5
A1
330
1F
100
AcDbEntity
  8
0
  6
Continuous
 62
     7
370
    35
100
AcDbLine
 10
78.7046346006
 20
222.7748208073
 30
0.0
 11
79.1783741799
 21
221.4732341794
 31
0.0
  0
ARC
  5
A2
330
1F
100
AcDbEntity
  8
0
  6
Continuous
 62
     7
370
    35
100
AcDbCircle
 10
52.8300180223
 20
249.6193055389
 30
0.0
 40
38.55434132352778
100
AcDbArc
 50
309.3894449719
 51
313.1105550281
  0
LINE
  5
A3
330
1F
100
AcDbEntity
  8
0
  6
Continuous
 62
     7
370
    35
100
AcDbLine
 10
76.067529538
 20
220.4621419636
 30
0.0
 11
77.2961470422
 21
219.822563636
 31
0.0
  0
ARC
  5
A4
330
1F
100
AcDbEntity
  8
0
  6
Continuous
 62
     7
370
    35
100
AcDbCircle
 10
75.8916025036
 20
220.1241905531
 30
0.0
 40
0.3810000000000288
100
AcDbArc
 50
62.5
 51
127.5
  0
LINE
  5
A5
330
1F
100
AcDbEntity
  8
0
  6
Continuous
 62
     7
370
    35
100
AcDbLine
 10
75.659664267
 20
220.4264574078
 30
0.0
 11
75.1193965909
 21
220.0118959275
 31
0.0
  0
ARC
  5
A6
330
1F
100
AcDbEntity
  8
0
  6
Continuous
 62
     7
370
    35
100
AcDbCircle
 10
75.3513340625
 20
219.7096279974
 30
0.0
 40
0.3809999999999985
100
AcDbArc
 50
127.5
 51
192.5
  0
LINE
  5
A7
330
1F
100
AcDbEntity
  8
0
  6
Continuous
 62
     7
370
    35
100
AcDbLine
 10
74.9793647912
 20
219.6271647093
 30
0.0
 11
75.2791612533
 21
218.2748768804
 31
0.0
  0
ARC
  5
A8
330
1F
100
AcDbEntity
  8
0
  6
Continuous
 62
     7
370
    35
100
AcDbCircle
 10
52.8300180223
 20
249.6193055389
 30
0.0
 40
38.55434132352778
100
AcDbArc
 50
301.8894449719
 51
305.6105550281
  0
LINE
  5
A9
330
1F
100
AcDbEntity
  8
0
  6
Continuous
 62
     7
370
    35
100
AcDbLine
 10
72.0629542258
 20
217.6784802553
 30
0.0
 11
73.1975789305
 21
216.8840099451
 31
0.0
  0
ARC
  5
AA
330
1F
100
AcDbEntity
  8
0
  6
Continuous
 62
     7
370
    35
100
AcDbCircle
 10
71.8444224033
 20
217.3663845417
 30
0.0
 40
0.3809999999999965
100
AcDbArc
 50
55.0
 51
120.0
  0
LINE
  5
AB
330
1F
100
AcDbEntity
  8
0
  6
Continuous
 62
     7
370
    35
100
AcDbLine
 10
71.653922939
 20
217.696339297
 30
0.0
 11
71.0641647813
 21
217.3558440385
 31
0.0
  0
ARC
  5
AC
330
1F
100
AcDbEntity
  8
0
  6
Continuous
 62
     7
370
    35
100
AcDbCircle
 10
71.2546647617
 20
217.0258878086
 30
0.0
 40
0.3810000000000041
100
AcDbArc
 50
120.0
 51
185.0
  0
LINE
  5
AD
330
1F
100
AcDbEntity
  8
0
  6
Continuous
 62
     7
370
    35
100
AcDbLine
 10
70.8751137492
 20
216.9926803884
 30
0.0
 11
70.9958355066
 21
215.6128328619
 31
0.0
  0
ARC
  5
AE
330
1F
100
AcDbEntity
  8
0
  6
Continuous
 62
     7
370
    35
100
AcDbCircle
 10
52.8300180223
 20
249.6193055389
 30
0.0
 40
38.55434132352778
100
AcDbArc
 50
294.3894449719
 51
298.1105550281
  0
LINE
  5
AF
330
1F
100
AcDbEntity
  8
0
  6
Continuous
 62
     7
370
    35
100
AcDbLine
 10
67.7293007386
 20
215.441339123
 30
0.0
 11
68.7505192247
 21
214.5055648265
 31
0.0
  0
ARC
  5
B0
330
1F
100
AcDbEntity
  8
0
  6
Continuous
 62
     7
370
    35
100
AcDbCircle
 10
67.4719005722
 20
215.1604349508
 30
0.0
 40
0.3809999999999886
100
AcDbArc
 50
47.5
 51
112.5
  0
LINE
  5
B1
330
1F
100
AcDbEntity
  8
0
  6
Continuous
 62
     7
370
    35
100
AcDbLine
 10
67.3260985997
 20
215.512432563
 30
0.0
 11
66.6969427031
 21
215.2518298802
 31
0.0
  0
ARC
  5
B2
330
1F
100
AcDbEntity
  8
0
  6
Continuous
 62
     7
370
    35
100
AcDbCircle
 10
66.8427446469
 20
214.8998300337
 30
0.0
 40
0.3810000000000042
100
AcDbArc
 50
112.5
 51
177.5
  0
LINE
  5
B3
330
1F
100
AcDbEntity
  8
0
  6
Continuous
 62
     7
370
    35
100
AcDbLine
 10
66.462106922
 20
214.9164494452
 30
0.0
 11
66.4016892326
 21
213.5326456604
 31
0.0
  0
ARC
  5
B4
330
1F
100
AcDbEntity
  8
0
  6
Continuous
 62
     7
370
    35
100
AcDbCircle
 10
52.8300180223
 20
249.6193055389
 30
0.0
 40
38.55434132352777
100
AcDbArc
 50
286.8894449719
 51
290.6105550281
  0
LINE
  5
B5
330
1F
100
AcDbEntity
  8
0
  6
Continuous
 62
     7
370
    35
100
AcDbLine
 10
63.1407153916
 20
213.7889866111
 30
0.0
 11
64.0310532537
 21
212.7279233513
 31
0.0
  0
ARC
  5
B6
330
1F
100
AcDbEntity
  8
0
  6
Continuous
 62
     7
370
    35
100
AcDbCircle
 10
62.8488520711
 20
213.5440861894
 30
0.0
 40
0.3809999999999978
100
AcDbArc
 50
40.0
 51
105.0
  0
LINE
  5
B7
330
1F
100
AcDbEntity
  8
0
  6
Continuous
 62
     7
370
    35
100
AcDbLine
 10
62.7502416384
 20
213.9121037302
 30
0.0
 11
62.0924531606
 21
213.7358490703
 31
0.0
  0
ARC
  5
B8
330
1F
100
AcDbEntity
  8
0
  6
Continuous
 62
     7
370
    35
100
AcDbCircle
 10
62.1910628945
 20
213.3678321107
 30
0.0
 40
0.3810000000000306
100
AcDbArc
 50
105.0
 51
170.0
  0
LINE
  5
B9
330
1F
100
AcDbEntity
  8
0
  6
Continuous
 62
     7
370
    35
100
AcDbLine
 10
61.8158512872
 20
213.4339925227
 30
0.0
 11
61.5753269878
 21
212.06991415
 31
0.0
  0
ARC
  5
BA
330
1F
100
AcDbEntity
  8
0
  6
Continuous
 62
     7
370
    35
100
AcDbCircle
 10
52.8300180223
 20
249.6193055389
 30
0.0
 40
38.55434132352777
100
AcDbArc
 50
279.3894449719
 51
283.1105550281
  0
LINE
  5
BB
330
1F
100
AcDbEntity
  8
0
  6
Continuous
 62
     7
370
    35
100
AcDbLine
 10
58.3757105407
 20
212.7497051236
 30
0.0
 11
59.1199355324
 21
211.5815062401
 31
0.0
  0
ARC
  5
BC
330
1F
100
AcDbEntity
  8
0
  6
Continuous
 62
     7
370
    35
100
AcDbCircle
 10
58.0543785418
 20
212.544994433
 30
0.0
 40
0.3809999999999978
100
AcDbArc
 50
32.5
 51
97.5
  0
LINE
  5
BD
330
1F
100
AcDbEntity
  8
0
  6
Continuous
 62
     7
370
    35
100
AcDbLine
 10
58.0046478782
 20
212.9227336821
 30
0.0
 11
57.3294804555
 21
212.8338482556
 31
0.0
  0
ARC
  5
BE
330
1F
100
AcDbEntity
  8
0
  6
Continuous
 62
     7
370
    35
100
AcDbCircle
 10
57.379211069
 20
212.4561069489
 30
0.0
 40
0.3809999999999978
100
AcDbArc
 50
97.5
 51
162.5
  0
LINE
  5
BF
330
1F
100
AcDbEntity
  8
0
  6
Continuous
 62
     7
370
    35
100
AcDbLine
 10
57.0158450057
 20
212.5706751225
 30
0.0
 11
56.5993310076
 21
211.2496611056
 31
0.0
  0
ARC
  5
C0
330
1F
100
AcDbEntity
  8
0
  6
Continuous
 62
     7
370
    35
100
AcDbCircle
 10
52.8300180223
 20
249.6193055389
 30
0.0
 40
38.55434132352777
100
AcDbArc
 50
271.8894449719
 51
275.6105550281
  0
LINE
  5
C1
330
1F
100
AcDbEntity
  8
0
  6
Continuous
 62
     7
370
    35
100
AcDbLine
 10
53.5158180057
 20
212.3412717459
 30
0.0
 11
54.1011954548
 21
211.0859271464
 31
0.0
  0
ARC
  5
C2
330
1F
100
AcDbEntity
  8
0
  6
Continuous
 62
     7
370
    35
100
AcDbCircle
 10
53.1705147555
 20
212.1802544186
 30
0.0
 40
0.3809999999999928
100
AcDbArc
 50
25.0
 51
90.0
  0
LINE
  5
C3
330
1F
100
AcDbEntity
  8
0
  6
Continuous
 62
     7
370
    35
100
AcDbLine
 10
53.1705147652
 20
212.5612538633
 30
0.0
 11
52.4895212795
 21
212.5612538633
 31
0.0
  0
ARC
  5
C4
330
1F
100
AcDbEntity
  8
0
  6
Continuous
 62
     7
370
    35
100
AcDbCircle
 10
52.4895212892
 20
212.1802544186
 30
0.0
 40
0.3809999999999993
100
AcDbArc
 50
90.0
 51
155.0
  0
LINE
  5
C5
330
1F
100
AcDbEntity
  8
0
  6
Continuous
 62
     7
370
    35
100
AcDbLine
 10
52.144218039
 20
212.3412717459
 30
0.0
 11
51.5588405898
 21
211.0859271464
 31
0.0
  0
ARC
  5
C6
330
1F
100
AcDbEntity
  8
0
  6
Continuous
 62
     7
370
    35
100
AcDbCircle
 10
52.8300180223
 20
249.6193055389
 30
0.0
 40
38.55434132352778
100
AcDbArc
 50
264.3894449719
 51
268.1105550281
  0
LINE
  5
C7
330
1F
100
AcDbEntity
  8
0
  6
Continuous
 62
     7
370
    35
100
AcDbLine
 10
48.644191039
 20
212.5706751225
 30
0.0
 11
49.0607050371
 21
211.2496611056
 31
0.0
  0
ARC
  5
C8
330
1F
100
AcDbEntity
  8
0
  6
Continuous
 62
     7
370
    35
100
AcDbCircle
 10
48.2808249757
 20
212.4561069489
 30
0.0
 40
0.3809999999999978
100
AcDbArc
 50
17.5
 51
82.5
  0
LINE
  5
C9
330
1F
100
AcDbEntity
  8
0
  6
Continuous
 62
     7
370
    35
100
AcDbLine
 10
48.3305555892
 20
212.8338482556
 30
0.0
 11
47.6553881664
 21
212.9227336821
 31
0.0
  0
ARC
  5
CA
330
1F
100
AcDbEntity
  8
0
  6
Continuous
 62
     7
370
    35
100
AcDbCircle
 10
47.6056575029
 20
212.544994433
 30
0.0
 40
0.3809999999999978
100
AcDbArc
 50
82.5
 51
147.5
  0
LINE
  5
CB
330
1F
100
AcDbEntity
  8
0
  6
Continuous
 62
     7
370
    35
100
AcDbLine
 10
47.284325504
 20
212.7497051236
 30
0.0
 11
46.5401005123
 21
211.5815062401
 31
0.0
  0
ARC
  5
CC
330
1F
100
AcDbEntity
  8
0
  6
Continuous
 62
     7
370
    35
100
AcDbCircle
 10
52.8300180223
 20
249.6193055389
 30
0.0
 40
38.55434132352778
100
AcDbArc
 50
256.8894449719
 51
260.6105550281
  0
LINE
  5
CD
330
1F
100
AcDbEntity
  8
0
  6
Continuous
 62
     7
370
    35
100
AcDbLine
 10
43.8441847575
 20
213.4339925227
 30
0.0
 11
44.0847090569
 21
212.06991415
 31
0.0
  0
ARC
  5
CE
330
1F
100
AcDbEntity
  8
0
  6
Continuous
 62
     7
370
    35
100
AcDbCircle
 10
43.4689731502
 20
213.3678321107
 30
0.0
 40
0.3810000000000031
100
AcDbArc
 50
10.0
 51
75.0
  0
LINE
  5
CF
330
1F
100
AcDbEntity
  8
0
  6
Continuous
 62
     7
370
    35
100
AcDbLine
 10
43.5675828841
 20
213.7358490703
 30
0.0
 11
42.9097944063
 21
213.9121037302
 31
0.0
  0
ARC
  5
D0
330
1F
100
AcDbEntity
  8
0
  6
Continuous
 62
     7
370
    35
100
AcDbCircle
 10
42.8111839736
 20
213.5440861894
 30
0.0
 40
0.3809999999999978
100
AcDbArc
 50
75.0
 51
140.0
  0
LINE
  5
D1
330
1F
100
AcDbEntity
  8
0
  6
Continuous
 62
     7
370
    35
100
AcDbLine
 10
42.5193206531
 20
213.7889866111
 30
0.0
 11
41.628982791
 21
212.7279233513
 31
0.0
  0
ARC
  5
D2
330
1F
100
AcDbEntity
  8
0
  6
Continuous
 62
     7
370
    35
100
AcDbCircle
 10
52.8300180223
 20
249.6193055389
 30
0.0
 40
38.55434132352778
100
AcDbArc
 50
249.3894449719
 51
253.1105550281
  0
LINE
  5
D3
330
1F
100
AcDbEntity
  8
0
  6
Continuous
 62
     7
370
    35
100
AcDbLine
 10
39.1979291227
 20
214.9164494452
 30
0.0
 11
39.2583468121
 21
213.5326456604
 31
0.0
  0
ARC
  5
D4
330
1F
100
AcDbEntity
  8
0
  6
Continuous
 62
     7
370
    35
100
AcDbCircle
 10
38.8172913978
 20
214.8998300337
 30
0.0
 40
0.3810000000000042
100
AcDbArc
 50
2.5
 51
67.5
  0
LINE
  5
D5
330
1F
100
AcDbEntity
  8
0
  6
Continuous
 62
     7
370
    35
100
AcDbLine
 10
38.9630933416
 20
215.2518298802
 30
0.0
 11
38.333937445
 21
215.512432563
 31
0.0
  0
ARC
  5
D6
330
1F
100
AcDbEntity
  8
0
  6
Continuous
 62
     7
370
    35
100
AcDbCircle
 10
38.1881354725
 20
215.1604349508
 30
0.0
 40
0.3810000000000144
100
AcDbArc
 50
67.5
 51
132.5
  0
LINE
  5
D7
330
1F
100
AcDbEntity
  8
0
  6
Continuous
 62
     7
370
    35
100
AcDbLine
 10
37.9307353061
 20
215.441339123
 30
0.0
 11
36.90951682
 21
214.5055648265
 31
0.0
  0
ARC
  5
D8
330
1F
100
AcDbEntity
  8
0
  6
Continuous
 62
     7
370
    35
100
AcDbCircle
 10
52.8300180223
 20
249.6193055389
 30
0.0
 40
38.55434132352779
100
AcDbArc
 50
241.8894449719
 51
245.6105550281
  0
LINE
  5
D9
330
1F
100
AcDbEntity
  8
0
  6
Continuous
 62
     7
370
    35
100
AcDbLine
 10
34.7849222955
 20
216.9926803884
 30
0.0
 11
34.6642005381
 21
215.6128328619
 31
0.0
  0
ARC
  5
DA
330
1F
100
AcDbEntity
  8
0
  6
Continuous
 62
     7
370
    35
100
AcDbCircle
 10
34.405371283
 20
217.0258878086
 30
0.0
 40
0.3809999999999943
100
AcDbArc
 50
355.0
 51
60.0
  0
LINE
  5
DB
330
1F
100
AcDbEntity
  8
0
  6
Continuous
 62
     7
370
    35
100
AcDbLine
 10
34.5958712634
 20
217.3558440385
 30
0.0
 11
34.0061131057
 21
217.696339297
 31
0.0
  0
ARC
  5
DC
330
1F
100
AcDbEntity
  8
0
  6
Continuous
 62
     7
370
    35
100
AcDbCircle
 10
33.8156136414
 20
217.3663845417
 30
0.0
 40
0.3809999999999883
100
AcDbArc
 50
60.0
 51
125.0
  0
LINE
  5
DD
330
1F
100
AcDbEntity
  8
0
  6
Continuous
 62
     7
370
    35
100
AcDbLine
 10
33.5970818189
 20
217.6784802553
 30
0.0
 11
32.4624571141
 21
216.8840099451
 31
0.0
  0
ARC
  5
DE
330
1F
100
AcDbEntity
  8
0
  6
Continuous
 62
     7
370
    35
100
AcDbCircle
 10
52.8300180223
 20
249.6193055389
 30
0.0
 40
38.55434132352779
100
AcDbArc
 50
234.3894449719
 51
238.1105550281
  0
LINE
  5
DF
330
1F
100
AcDbEntity
  8
0
  6
Continuous
 62
     7
370
    35
100
AcDbLine
 10
30.6806712535
 20
219.6271647093
 30
0.0
 11
30.3808747914
 21
218.2748768804
 31
0.0
  0
ARC
  5
E0
330
1F
100
AcDbEntity
  8
0
  6
Continuous
 62
     7
370
    35
100
AcDbCircle
 10
30.3087019822
 20
219.7096279974
 30
0.0
 40
0.3809999999999985
100
AcDbArc
 50
347.5
 51
52.5
  0
LINE
  5
E1
330
1F
100
AcDbEntity
  8
0
  6
Continuous
 62
     7
370
    35
100
AcDbLine
 10
30.5406394538
 20
220.0118959275
 30
0.0
 11
30.0003717777
 21
220.4264574078
 31
0.0
  0
ARC
  5
E2
330
1F
100
AcDbEntity
  8
0
  6
Continuous
 62
     7
370
    35
100
AcDbCircle
 10
29.7684335411
 20
220.1241905531
 30
0.0
 40
0.3810000000000239
100
AcDbArc
 50
52.5
 51
117.5
  0
LINE
  5
E3
330
1F
100
AcDbEntity
  8
0
  6
Continuous
 62
     7
370
    35
100
AcDbLine
 10
29.5925065067
 20
220.4621419636
 30
0.0
 11
28.3638890025
 21
219.822563636
 31
0.0
  0
ARC
  5
E4
330
1F
100
AcDbEntity
  8
0
  6
Continuous
 62
     7
370
    35
100
AcDbCircle
 10
52.8300180223
 20
249.6193055389
 30
0.0
 40
38.55434132352777
100
AcDbArc
 50
226.8894449719
 51
230.6105550281
  0
LINE
  5
E5
330
1F
100
AcDbEntity
  8
0
  6
Continuous
 62
     7
370
    35
100
AcDbLine
 10
26.9554014441
 20
222.7748208073
 30
0.0
 11
26.4816618648
 21
221.4732341794
 31
0.0
  0
ARC
  5
E6
330
1F
100
AcDbEntity
  8
0
  6
Continuous
 62
     7
370
    35
100
AcDbCircle
 10
26.597378643
 20
222.9051310616
 30
0.0
 40
0.381
100
AcDbArc
 50
340.0
 51
45.0
  0
LINE
  5
E7
330
1F
100
AcDbEntity
  8
0
  6
Continuous
 62
     7
370
    35
100
AcDbLine
 10
26.8667861012
 20
223.1745388684
 30
0.0
 11
26.3852513519
 21
223.6560736177
 31
0.0
  0
ARC
  5
E8
330
1F
100
AcDbEntity
  8
0
  6
Continuous
 62
     7
370
    35
100
AcDbCircle
 10
26.1158435451
 20
223.3866661595
 30
0.0
 40
0.3809999999999926
100
AcDbArc
 50
45.0
 51
110.0
  0
LINE
  5
E9
330
1F
100
AcDbEntity
  8
0
  6
Continuous
 62
     7
370
    35
100
AcDbLine
 10
25.9855332908
 20
223.7446889606
 30
0.0
 11
24.6839466628
 21
223.2709493813
 31
0.0
  0
ARC
  5
EA
330
1F
100
AcDbEntity
  8
0
  6
Continuous
 62
     7
370
    35
100
AcDbCircle
 10
52.8300180223
 20
249.6193055389
 30
0.0
 40
38.55434132352777
100
AcDbArc
 50
219.3894449719
 51
223.1105550281
  0
LINE
  5
EB
330
1F
100
AcDbEntity
  8
0
  6
Continuous
 62
     7
370
    35
100
AcDbLine
 10
23.6728544471
 20
226.3817940233
 30
0.0
 11
23.0332761195
 21
225.153176519
 31
0.0
  0
ARC
  5
EC
330
1F
100
AcDbEntity
  8
0
  6
Continuous
 62
     7
370
    35
100
AcDbCircle
 10
23.3349030366
 20
226.5577210576
 30
0.0
 40
0.3810000000000004
100
AcDbArc
 50
332.5
 51
37.5
  0
LINE
  5
ED
330
1F
100
AcDbEntity
  8
0
  6
Continuous
 62
     7
370
    35
100
AcDbLine
 10
23.6371698913
 20
226.7896592942
 30
0.0
 11
23.222608411
 21
227.3299269703
 31
0.0
  0
ARC
  5
EE
330
1F
100
AcDbEntity
  8
0
  6
Continuous
 62
     7
370
    35
100
AcDbCircle
 10
22.9203404809
 20
227.0979894988
 30
0.0
 40
0.3810000000000039
100
AcDbArc
 50
37.5
 51
102.5
  0
LINE
  5
EF
330
1F
100
AcDbEntity
  8
0
  6
Continuous
 62
     7
370
    35
100
AcDbLine
 10
22.8378771928
 20
227.46995877
 30
0.0
 11
21.4855893639
 21
227.170162308
 31
0.0
  0
ARC
  5
F0
330
1F
100
AcDbEntity
  8
0
  6
Continuous
 62
     7
370
    35
100
AcDbCircle
 10
52.8300180223
 20
249.6193055389
 30
0.0
 40
38.55434132352777
100
AcDbArc
 50
211.8894449719
 51
215.6105550281
  0
LINE
  5
F1
330
1F
100
AcDbEntity
  8
0
  6
Continuous
 62
     7
370
    35
100
AcDbLine
 10
20.8891927388
 20
230.3863693354
 30
0.0
 11
20.0947224286
 21
229.2517446307
 31
0.0
  0
ARC
  5
F2
330
1F
100
AcDbEntity
  8
0
  6
Continuous
 62
     7
370
    35
100
AcDbCircle
 10
20.5770970252
 20
230.6049011579
 30
0.0
 40
0.3810000000000029
100
AcDbArc
 50
325.0
 51
30.0
  0
LINE
  5
F3
330
1F
100
AcDbEntity
  8
0
  6
Continuous
 62
     7
370
    35
100
AcDbLine
 10
20.9070517805
 20
230.7954006222
 30
0.0
 11
20.5665565219
 21
231.38515878
 31
0.0
  0
ARC
  5
F4
330
1F
100
AcDbEntity
  8
0
  6
Continuous
 62
     7
370
    35
100
AcDbCircle
 10
20.2366002921
 20
231.1946587995
 30
0.0
 40
0.381000000000011
100
AcDbArc
 50
30.0
 51
95.0
  0
LINE
  5
F5
330
1F
100
AcDbEntity
  8
0
  6
Continuous
 62
     7
370
    35
100
AcDbLine
 10
20.2033928719
 20
231.574209812
 30
0.0
 11
18.8235453454
 21
231.4534880546
 31
0.0
  0
ARC
  5
F6
330
1F
100
AcDbEntity
  8
0
  6
Continuous
 62
     7
370
    35
100
AcDbCircle
 10
52.8300180223
 20
249.6193055389
 30
0.0
 40
38.55434132352777
100
AcDbArc
 50
204.3894449719
 51
208.1105550281
  0
LINE
  5
F7
330
1F
100
AcDbEntity
  8
0
  6
Continuous
 62
     7
370
    35
100
AcDbLine
 10
18.6520516065
 20
234.7200228227
 30
0.0
 11
17.7162773099
 21
233.6988043365
 31
0.0
  0
ARC
  5
F8
330
1F
100
AcDbEntity
  8
0
  6
Continuous
 62
     7
370
    35
100
AcDbCircle
 10
18.3711474342
 20
234.977422989
 30
0.0
 40
0.3809999999999938
100
AcDbArc
 50
317.5
 51
22.5
  0
LINE
  5
F9
330
1F
100
AcDbEntity
  8
0
  6
Continuous
 62
     7
370
    35
100
AcDbLine
 10
18.7231450465
 20
235.1232249615
 30
0.0
 11
18.4625423637
 21
235.7523808581
 31
0.0
  0
ARC
  5
FA
330
1F
100
AcDbEntity
  8
0
  6
Continuous
 62
     7
370
    35
100
AcDbCircle
 10
18.1105425172
 20
235.6065789143
 30
0.0
 40
0.3809999999999955
100
AcDbArc
 50
22.5
 51
87.5
  0
LINE
  5
FB
330
1F
100
AcDbEntity
  8
0
  6
Continuous
 62
     7
370
    35
100
AcDbLine
 10
18.1271619287
 20
235.9872166393
 30
0.0
 11
16.7433581439
 21
236.0476343286
 31
0.0
  0
ARC
  5
FC
330
1F
100
AcDbEntity
  8
0
  6
Continuous
 62
     7
370
    35
100
AcDbCircle
 10
52.8300180223
 20
249.6193055389
 30
0.0
 40
38.55434132352778
100
AcDbArc
 50
196.8894449719
 51
200.6105550281
  0
LINE
  5
FD
330
1F
100
AcDbEntity
  8
0
  6
Continuous
 62
     7
370
    35
100
AcDbLine
 10
16.9996990946
 20
239.3086081696
 30
0.0
 11
15.9386358347
 21
238.4182703075
 31
0.0
  0
ARC
  5
FE
330
1F
100
AcDbEntity
  8
0
  6
Continuous
 62
     7
370
    35
100
AcDbCircle
 10
16.7547986729
 20
239.6004714901
 30
0.0
 40
0.3810000000000009
100
AcDbArc
 50
310.0
 51
15.0
  0
LINE
  5
FF
330
1F
100
AcDbEntity
  8
0
  6
Continuous
 62
     7
370
    35
100
AcDbLine
 10
17.1228162137
 20
239.6990819228
 30
0.0
 11
16.9465615538
 21
240.3568704006
 31
0.0
  0
ARC
  5
100
330
1F
100
AcDbEntity
  8
0
  6
Continuous
 62
     7
370
    35
100
AcDbCircle
 10
16.5785445942
 20
240.2582606667
 30
0.0
 40
0.3809999999999947
100
AcDbArc
 50
15.0
 51
80.0
  0
LINE
  5
101
330
1F
100
AcDbEntity
  8
0
  6
Continuous
 62
     7
370
    35
100
AcDbLine
 10
16.6447050062
 20
240.633472274
 30
0.0
 11
15.2806266335
 21
240.8739965734
 31
0.0
  0
ARC
  5
102
330
1F
100
AcDbEntity
  8
0
  6
Continuous
 62
     7
370
    35
100
AcDbCircle
 10
52.8300180223
 20
249.6193055389
 30
0.0
 40
38.55434132352777
100
AcDbArc
 50
189.3894449719
 51
193.1105550281
  0
LINE
  5
103
330
1F
100
AcDbEntity
  8
0
  6
Continuous
 62
     7
370
    35
100
AcDbLine
 10
15.9604176071
 20
244.0736130205
 30
0.0
 11
14.7922187236
 21
243.3293880289
 31
0.0
  0
ARC
  5
104
330
1F
100
AcDbEntity
  8
0
  6
Continuous
 62
     7
370
    35
100
AcDbCircle
 10
15.7557069165
 20
244.3949450194
 30
0.0
 40
0.3810000000000194
100
AcDbArc
 50
302.5
 51
7.5
  0
LINE
  5
105
330
1F
100
AcDbEntity
  8
0
  6
Continuous
 62
     7
370
    35
100
AcDbLine
 10
16.1334461656
 20
244.444675683
 30
0.0
 11
16.0445607391
 21
245.1198431057
 31
0.0
  0
ARC
  5
106
330
1F
100
AcDbEntity
  8
0
  6
Continuous
 62
     7
370
    35
100
AcDbCircle
 10
15.6668194324
 20
245.0701124922
 30
0.0
 40
0.3809999999999943
100
AcDbArc
 50
7.5
 51
72.5
  0
LINE
  5
107
330
1F
100
AcDbEntity
  8
0
  6
Continuous
 62
     7
370
    35
100
AcDbLine
 10
15.781387606
 20
245.4334785556
 30
0.0
 11
14.4603735891
 21
245.8499925536
 31
0.0
  0
ARC
  5
108
330
1F
100
AcDbEntity
  8
0
  6
Continuous
 62
     7
370
    35
100
AcDbCircle
 10
52.8300180223
 20
249.6193055389
 30
0.0
 40
38.55434132352777
100
AcDbArc
 50
181.8894449719
 51
185.6105550281
  0
LINE
  5
109
330
1F
100
AcDbEntity
  8
0
  6
Continuous
 62
     7
370
    35
100
AcDbLine
 10
15.5519842294
 20
248.9335055555
 30
0.0
 11
14.2966396299
 21
248.3481281064
 31
0.0
  0
ARC
  5
10A
330
1F
100
AcDbEntity
  8
0
  6
Continuous
 62
     7
370
    35
100
AcDbCircle
 10
15.3909669021
 20
249.2788088057
 30
0.0
 40
0.3809999999999913
100
AcDbArc
 50
295.0
 51
0.0
  0
LINE
  5
10B
330
1F
100
AcDbEntity
  8
0
  6
Continuous
 62
     7
370
    35
100
AcDbLine
 10
15.7719663468
 20
249.278808796
 30
0.0
 11
15.7719663468
 21
249.9598022817
 31
0.0
  0
ARC
  5
10C
330
1F
100
AcDbEntity
  8
0
  6
Continuous
 62
     7
370
    35
100
AcDbCircle
 10
15.3909669021
 20
249.959802272
 30
0.0
 40
0.3810000000000417
100
AcDbArc
 50
0.0
 51
65.0
  0
LINE
  5
10D
330
1F
100
AcDbEntity
  8
0
  6
Continuous
 62
     7
370
    35
100
AcDbLine
 10
15.5519842294
 20
250.3051055222
 30
0.0
 11
14.2966396299
 21
250.8904829714
 31
0.0
  0
ARC
  5
10E
330
1F
100
AcDbEntity
  8
0
  6
Continuous
 62
     7
370
    35
100
AcDbCircle
 10
52.8300180223
 20
249.6193055389
 30
0.0
 40
38.55434132352777
100
AcDbArc
 50
174.3894449719
 51
178.1105550281
  0
LINE
  5
10F
330
1F
100
AcDbEntity
  8
0
  6
Continuous
 62
     7
370
    35
100
AcDbLine
 10
15.781387606
 20
253.8051325222
 30
0.0
 11
14.4603735891
 21
253.3886185241
 31
0.0
  0
ARC
  5
110
330
1F
100
AcDbEntity
  8
0
  6
Continuous
 62
     7
370
    35
100
AcDbCircle
 10
15.6668194324
 20
254.1684985855
 30
0.0
 40
0.381000000000046
100
AcDbArc
 50
287.5
 51
352.5
  0
LINE
  5
111
330
1F
100
AcDbEntity
  8
0
  6
Continuous
 62
     7
370
    35
100
AcDbLine
 10
16.0445607391
 20
254.118767972
 30
0.0
 11
16.1334461656
 21
254.7939353948
 31
0.0
  0
ARC
  5
112
330
1F
100
AcDbEntity
  8
0
  6
Continuous
 62
     7
370
    35
100
AcDbCircle
 10
15.7557069165
 20
254.8436660583
 30
0.0
 40
0.3809999999999927
100
AcDbArc
 50
352.5
 51
57.5
  0
LINE
  5
113
330
1F
100
AcDbEntity
  8
0
  6
Continuous
 62
     7
370
    35
100
AcDbLine
 10
15.9604176071
 20
255.1649980572
 30
0.0
 11
14.7922187236
 21
255.9092230489
 31
0.0
  0
ARC
  5
114
330
1F
100
AcDbEntity
  8
0
  6
Continuous
 62
     7
370
    35
100
AcDbCircle
 10
52.8300180223
 20
249.6193055389
 30
0.0
 40
38.55434132352777
100
AcDbArc
 50
166.8894449719
 51
170.6105550281
  0
LINE
  5
115
330
1F
100
AcDbEntity
  8
0
  6
Continuous
 62
     7
370
    35
100
AcDbLine
 10
16.6447050062
 20
258.6051388038
 30
0.0
 11
15.2806266335
 21
258.3646145043
 31
0.0
  0
ARC
  5
116
330
1F
100
AcDbEntity
  8
0
  6
Continuous
 62
     7
370
    35
100
AcDbCircle
 10
16.5785445942
 20
258.9803504111
 30
0.0
 40
0.3809999999999922
100
AcDbArc
 50
280.0
 51
345.0
  0
LINE
  5
117
330
1F
100
AcDbEntity
  8
0
  6
Continuous
 62
     7
370
    35
100
AcDbLine
 10
16.9465615538
 20
258.8817406771
 30
0.0
 11
17.1228162137
 21
259.5395291549
 31
0.0
  0
ARC
  5
118
330
1F
100
AcDbEntity
  8
0
  6
Continuous
 62
     7
370
    35
100
AcDbCircle
 10
16.7547986729
 20
259.6381395877
 30
0.0
 40
0.3810000000000101
100
AcDbArc
 50
345.0
 51
50.0
  0
LINE
  5
119
330
1F
100
AcDbEntity
  8
0
  6
Continuous
 62
     7
370
    35
100
AcDbLine
 10
16.9996990946
 20
259.9300029081
 30
0.0
 11
15.9386358347
 21
260.8203407702
 31
0.0
  0
ARC
  5
11A
330
1F
100
AcDbEntity
  8
0
  6
Continuous
 62
     7
370
    35
100
AcDbCircle
 10
52.8300180223
 20
249.6193055389
 30
0.0
 40
38.55434132352778
100
AcDbArc
 50
159.3894449719
 51
163.1105550281
  0
LINE
  5
11B
330
1F
100
AcDbEntity
  8
0
  6
Continuous
 62
     7
370
    35
100
AcDbLine
 10
18.1271619287
 20
263.2513944385
 30
0.0
 11
16.7433581439
 21
263.1909767491
 31
0.0
  0
ARC
  5
11C
330
1F
100
AcDbEntity
  8
0
  6
Continuous
 62
     7
370
    35
100
AcDbCircle
 10
18.1105425172
 20
263.6320321634
 30
0.0
 40
0.380999999999977
100
AcDbArc
 50
272.5
 51
337.5
  0
LINE
  5
11D
330
1F
100
AcDbEntity
  8
0
  6
Continuous
 62
     7
370
    35
100
AcDbLine
 10
18.4625423637
 20
263.4862302196
 30
0.0
 11
18.7231450465
 21
264.1153861162
 31
0.0
  0
ARC
  5
11E
330
1F
100
AcDbEntity
  8
0
  6
Continuous
 62
     7
370
    35
100
AcDbCircle
 10
18.3711474342
 20
264.2611880887
 30
0.0
 40
0.3809999999999987
100
AcDbArc
 50
337.5
 51
42.5
  0
LINE
  5
11F
330
1F
100
AcDbEntity
  8
0
  6
Continuous
 62
     7
370
    35
100
AcDbLine
 10
18.6520516065
 20
264.5185882551
 30
0.0
 11
17.7162773099
 21
265.5398067412
 31
0.0
  0
ARC
  5
120
330
1F
100
AcDbEntity
  8
0
  6
Continuous
 62
     7
370
    35
100
AcDbCircle
 10
52.8300180223
 20
249.6193055389
 30
0.0
 40
38.55434132352778
100
AcDbArc
 50
151.8894449719
 51
155.6105550281
  0
LINE
  5
121
330
1F
100
AcDbEntity
  8
0
  6
Continuous
 62
     7
370
    35
100
AcDbLine
 10
20.2033928719
 20
267.6644012657
 30
0.0
 11
18.8235453454
 21
267.7851230231
 31
0.0
  0
ARC
  5
122
330
1F
100
AcDbEntity
  8
0
  6
Continuous
 62
     7
370
    35
100
AcDbCircle
 10
20.2366002921
 20
268.0439522782
 30
0.0
 40
0.3810000000000682
100
AcDbArc
 50
265.0
 51
330.0
  0
LINE
  5
123
330
1F
100
AcDbEntity
  8
0
  6
Continuous
 62
     7
370
    35
100
AcDbLine
 10
20.5665565219
 20
267.8534522978
 30
0.0
 11
20.9070517805
 21
268.4432104555
 31
0.0
  0
ARC
  5
124
330
1F
100
AcDbEntity
  8
0
  6
Continuous
 62
     7
370
    35
100
AcDbCircle
 10
20.5770970252
 20
268.6337099198
 30
0.0
 40
0.3809999999999887
100
AcDbArc
 50
330.0
 51
35.0
  0
LINE
  5
125
330
1F
100
AcDbEntity
  8
0
  6
Continuous
 62
     7
370
    35
100
AcDbLine
 10
20.8891927388
 20
268.8522417423
 30
0.0
 11
20.0947224286
 21
269.9868664471
 31
0.0
  0
ARC
  5
126
330
1F
100
AcDbEntity
  8
0
  6
Continuous
 62
     7
370
    35
100
AcDbCircle
 10
52.8300180223
 20
249.6193055389
 30
0.0
 40
38.55434132352778
100
AcDbArc
 50
144.3894449719
 51
148.1105550281
  0
LINE
  5
127
330
1F
100
AcDbEntity
  8
0
  6
Continuous
 62
     7
370
    35
100
AcDbLine
 10
22.8378771928
 20
271.7686523077
 30
0.0
 11
21.4855893639
 21
272.0684487698
 31
0.0
  0
ARC
  5
128
330
1F
100
AcDbEntity
  8
0
  6
Continuous
 62
     7
370
    35
100
AcDbCircle
 10
22.9203404809
 20
272.140621579
 30
0.0
 40
0.3810000000000047
100
AcDbArc
 50
257.5
 51
322.5
  0
LINE
  5
129
330
1F
100
AcDbEntity
  8
0
  6
Continuous
 62
     7
370
    35
100
AcDbLine
 10
23.222608411
 20
271.9086841074
 30
0.0
 11
23.6371698913
 21
272.4489517835
 31
0.0
  0
ARC
  5
12A
330
1F
100
AcDbEntity
  8
0
  6
Continuous
 62
     7
370
    35
100
AcDbCircle
 10
23.3349030366
 20
272.6808900202
 30
0.0
 40
0.3810000000000036
100
AcDbArc
 50
322.5
 51
27.5
  0
LINE
  5
12B
330
1F
100
AcDbEntity
  8
0
  6
Continuous
 62
     7
370
    35
100
AcDbLine
 10
23.6728544471
 20
272.8568170545
 30
0.0
 11
23.0332761195
 21
274.0854345587
 31
0.0
  0
ARC
  5
12C
330
1F
100
AcDbEntity
  8
0
  6
Continuous
 62
     7
370
    35
100
AcDbCircle
 10
52.8300180223
 20
249.6193055389
 30
0.0
 40
38.55434132352779
100
AcDbArc
 50
136.8894449719
 51
140.6105550281
  0
LINE
  5
12D
330
1F
100
AcDbEntity
  8
0
  6
Continuous
 62
     7
370
    35
100
AcDbLine
 10
25.9855332908
 20
275.4939221171
 30
0.0
 11
24.6839466628
 21
275.9676616964
 31
0.0
  0
ARC
  5
12E
330
1F
100
AcDbEntity
  8
0
  6
Continuous
 62
     7
370
    35
100
AcDbCircle
 10
26.1158435451
 20
275.8519449182
 30
0.0
 40
0.3809999999999991
100
AcDbArc
 50
250.0
 51
315.0
  0
LINE
  5
12F
330
1F
100
AcDbEntity
  8
0
  6
Continuous
 62
     7
370
    35
100
AcDbLine
 10
26.3852513519
 20
275.5825374601
 30
0.0
 11
26.8667861012
 21
276.0640722093
 31
0.0
  0
ARC
  5
130
330
1F
100
AcDbEntity
  8
0
  6
Continuous
 62
     7
370
    35
100
AcDbCircle
 10
26.597378643
 20
276.3334800162
 30
0.0
 40
0.3810000000000102
100
AcDbArc
 50
315.0
 51
20.0
  0
LINE
  5
131
330
1F
100
AcDbEntity
  8
0
  6
Continuous
 62
     7
370
    35
100
AcDbLine
 10
26.9554014441
 20
276.4637902704
 30
0.0
 11
26.4816618648
 21
277.7653768984
 31
0.0
  0
ARC
  5
132
330
1F
100
AcDbEntity
  8
0
  6
Continuous
 62
     7
370
    35
100
AcDbCircle
 10
52.8300180223
 20
249.6193055389
 30
0.0
 40
38.55434132352779
100
AcDbArc
 50
129.3894449719
 51
133.1105550281
  0
LINE
  5
133
330
1F
100
AcDbEntity
  8
0
  6
Continuous
 62
     7
370
    35
100
AcDbLine
 10
29.5925065067
 20
278.7764691142
 30
0.0
 11
28.3638890025
 21
279.4160474417
 31
0.0
  0
ARC
  5
134
330
1F
100
AcDbEntity
  8
0
  6
Continuous
 62
     7
370
    35
100
AcDbCircle
 10
29.7684335411
 20
279.1144205246
 30
0.0
 40
0.3809999999999938
100
AcDbArc
 50
242.5
 51
307.5
  0
LINE
  5
135
330
1F
100
AcDbEntity
  8
0
  6
Continuous
 62
     7
370
    35
100
AcDbLine
 10
30.0003717777
 20
278.8121536699
 30
0.0
 11
30.5406394538
 21
279.2267151502
 31
0.0
  0
ARC
  5
136
330
1F
100
AcDbEntity
  8
0
  6
Continuous
 62
     7
370
    35
100
AcDbCircle
 10
30.3087019822
 20
279.5289830803
 30
0.0
 40
0.3809999999999985
100
AcDbArc
 50
307.5
 51
12.5
  0
LINE
  5
137
330
1F
100
AcDbEntity
  8
0
  6
Continuous
 62
     7
370
    35
100
AcDbLine
 10
30.6806712535
 20
279.6114463684
 30
0.0
 11
30.3808747914
 21
280.9637341974
 31
0.0
  0
ARC
  5
138
330
1F
100
AcDbEntity
  8
0
  6
Continuous
 62
     7
370
    35
100
AcDbCircle
 10
52.8300180223
 20
249.6193055389
 30
0.0
 40
38.55434132352777
100
AcDbArc
 50
121.8894449719
 51
125.6105550281
  0
LINE
  5
139
330
1F
100
AcDbEntity
  8
0
  6
Continuous
 62
     7
370
    35
100
AcDbLine
 10
33.5970818189
 20
281.5601308224
 30
0.0
 11
32.4624571141
 21
282.3546011326
 31
0.0
  0
ARC
  5
13A
330
1F
100
AcDbEntity
  8
0
  6
Continuous
 62
     7
370
    35
100
AcDbCircle
 10
33.8156136414
 20
281.872226536
 30
0.0
 40
0.3810000000000471
100
AcDbArc
 50
235.0
 51
300.0
  0
LINE
  5
13B
330
1F
100
AcDbEntity
  8
0
  6
Continuous
 62
     7
370
    35
100
AcDbLine
 10
34.0061131057
 20
281.5422717807
 30
0.0
 11
34.5958712634
 21
281.8827670393
 31
0.0
  0
ARC
  5
13C
330
1F
100
AcDbEntity
  8
0
  6
Continuous
 62
     7
370
    35
100
AcDbCircle
 10
34.405371283
 20
282.2127232692
 30
0.0
 40
0.3809999999999993
100
AcDbArc
 50
300.0
 51
5.0
  0
LINE
  5
13D
330
1F
100
AcDbEntity
  8
0
  6
Continuous
 62
     7
370
    35
100
AcDbLine
 10
34.7849222955
 20
282.2459306893
 30
0.0
 11
34.6642005381
 21
283.6257782159
 31
0.0
  0
ARC
  5
13E
330
1F
100
AcDbEntity
  8
0
  6
Continuous
 62
     7
370
    35
100
AcDbCircle
 10
52.8300180223
 20
249.6193055389
 30
0.0
 40
38.55434132352781
100
AcDbArc
 50
114.3894449719
 51
118.1105550281
  0
LINE
  5
13F
330
1F
100
AcDbEntity
  8
0
  6
Continuous
 62
     7
370
    35
100
AcDbLine
 10
37.9307353061
 20
283.7972719547
 30
0.0
 11
36.90951682
 21
284.7330462513
 31
0.0
  0
ARC
  5
140
330
1F
100
AcDbEntity
  8
0
  6
Continuous
 62
     7
370
    35
100
AcDbCircle
 10
38.1881354725
 20
284.078176127
 30
0.0
 40
0.3810000000000144
100
AcDbArc
 50
227.5
 51
292.5
  0
LINE
  5
141
330
1F
100
AcDbEntity
  8
0
  6
Continuous
 62
     7
370
    35
100
AcDbLine
 10
38.333937445
 20
283.7261785147
 30
0.0
 11
38.9630933416
 21
283.9867811975
 31
0.0
  0
ARC
  5
142
330
1F
100
AcDbEntity
  8
0
  6
Continuous
 62
     7
370
    35
100
AcDbCircle
 10
38.8172913978
 20
284.3387810441
 30
0.0
 40
0.3810000000000015
100
AcDbArc
 50
292.5
 51
357.5
  0
LINE
  5
143
330
1F
100
AcDbEntity
  8
0
  6
Continuous
 62
     7
370
    35
100
AcDbLine
 10
39.1979291227
 20
284.3221616325
 30
0.0
 11
39.2583468121
 21
285.7059654174
 31
0.0
  0
ARC
  5
144
330
1F
100
AcDbEntity
  8
0
  6
Continuous
 62
     7
370
    35
100
AcDbCircle
 10
52.8300180223
 20
249.6193055389
 30
0.0
 40
38.55434132352778
100
AcDbArc
 50
106.8894449719
 51
110.6105550281
  0
LINE
  5
145
330
1F
100
AcDbEntity
  8
0
  6
Continuous
 62
     7
370
    35
100
AcDbLine
 10
42.5193206531
 20
285.4496244666
 30
0.0
 11
41.628982791
 21
286.5106877265
 31
0.0
  0
ARC
  5
146
330
1F
100
AcDbEntity
  8
0
  6
Continuous
 62
     7
370
    35
100
AcDbCircle
 10
42.8111839736
 20
285.6945248883
 30
0.0
 40
0.3809999999999612
100
AcDbArc
 50
220.0
 51
285.0
  0
LINE
  5
147
330
1F
100
AcDbEntity
  8
0
  6
Continuous
 62
     7
370
    35
100
AcDbLine
 10
42.9097944063
 20
285.3265073476
 30
0.0
 11
43.5675828841
 21
285.5027620074
 31
0.0
  0
ARC
  5
148
330
1F
100
AcDbEntity
  8
0
  6
Continuous
 62
     7
370
    35
100
AcDbCircle
 10
43.4689731502
 20
285.870778967
 30
0.0
 40
0.3810000000000091
100
AcDbArc
 50
285.0
 51
350.0
  0
LINE
  5
149
330
1F
100
AcDbEntity
  8
0
  6
Continuous
 62
     7
370
    35
100
AcDbLine
 10
43.8441847575
 20
285.804618555
 30
0.0
 11
44.0847090569
 21
287.1686969278
 31
0.0
  0
ARC
  5
14A
330
1F
100
AcDbEntity
  8
0
  6
Continuous
 62
     7
370
    35
100
AcDbCircle
 10
52.8300180223
 20
249.6193055389
 30
0.0
 40
38.55434132352779
100
AcDbArc
 50
99.3894449719
 51
103.1105550281
  0
LINE
  5
14B
330
1F
100
AcDbEntity
  8
0
  6
Continuous
 62
     7
370
    35
100
AcDbLine
 10
47.284325504
 20
286.4889059541
 30
0.0
 11
46.5401005123
 21
287.6571048376
 31
0.0
  0
ARC
  5
14C
330
1F
100
AcDbEntity
  8
0
  6
Continuous
 62
     7
370
    35
100
AcDbCircle
 10
47.6056575029
 20
286.6936166447
 30
0.0
 40
0.3810000000000129
100
AcDbArc
 50
212.5
 51
277.5
  0
LINE
  5
14D
330
1F
100
AcDbEntity
  8
0
  6
Continuous
 62
     7
370
    35
100
AcDbLine
 10
47.6553881664
 20
286.3158773956
 30
0.0
 11
48.3305555892
 21
286.4047628221
 31
0.0
  0
ARC
  5
14E
330
1F
100
AcDbEntity
  8
0
  6
Continuous
 62
     7
370
    35
100
AcDbCircle
 10
48.2808249757
 20
286.7825041288
 30
0.0
 40
0.381000000000009
100
AcDbArc
 50
277.5
 51
342.5
  0
LINE
  5
14F
330
1F
100
AcDbEntity
  8
0
  6
Continuous
 62
     7
370
    35
100
AcDbLine
 10
48.644191039
 20
286.6679359553
 30
0.0
 11
49.0607050371
 21
287.9889499721
 31
0.0
  0
ARC
  5
150
330
1F
100
AcDbEntity
  8
0
  6
Continuous
 62
     7
370
    35
100
AcDbCircle
 10
52.8300180223
 20
249.6193055389
 30
0.0
 40
38.55434132352777
100
AcDbArc
 50
91.8894449719
 51
95.6105550281
  0
LINE
  5
151
330
1F
100
AcDbEntity
  8
0
  6
Continuous
 62
     7
370
    35
100
AcDbLine
 10
52.144218039
 20
286.8973393318
 30
0.0
 11
51.5588405898
 21
288.1526839313
 31
0.0
  0
ARC
  5
152
330
1F
100
AcDbEntity
  8
0
  6
Continuous
 62
     7
370
    35
100
AcDbCircle
 10
52.4895212892
 20
287.0583566591
 30
0.0
 40
0.3809999999999993
100
AcDbArc
 50
205.0
 51
270.0
  0
LINE
  5
153
330
1F
100
AcDbEntity
  8
0
  6
Continuous
 62
     7
370
    35
100
AcDbLine
 10
52.4895212795
 20
286.6773572144
 30
0.0
 11
53.1705147652
 21
286.6773572144
 31
0.0
  0
ARC
  5
154
330
1F
100
AcDbEntity
  8
0
  6
Continuous
 62
     7
370
    35
100
AcDbCircle
 10
53.1705147555
 20
287.0583566591
 30
0.0
 40
0.3810000000000286
100
AcDbArc
 50
270.0
 51
335.0
  0
LINE
  5
155
330
1F
100
AcDbEntity
  8
0
  6
Continuous
 62
     7
370
    35
100
AcDbLine
 10
53.5158180057
 20
286.8973393318
 30
0.0
 11
54.1011954548
 21
288.1526839313
 31
0.0
  0
ARC
  5
156
330
1F
100
AcDbEntity
  8
0
  6
Continuous
 62
     7
370
    35
100
AcDbCircle
 10
52.8300180223
 20
249.6193055389
 30
0.0
 40
38.55434132352779
100
AcDbArc
 50
84.3894449719
 51
88.1105550281
  0
LINE
  5
157
330
1F
100
AcDbEntity
  8
0
  6
Continuous
 62
     7
370
    35
100
AcDbLine
 10
57.0158450057
 20
286.6679359553
 30
0.0
 11
56.5993310076
 21
287.9889499721
 31
0.0
  0
ARC
  5
158
330
1F
100
AcDbEntity
  8
0
  6
Continuous
 62
     7
370
    35
100
AcDbCircle
 10
57.379211069
 20
286.7825041288
 30
0.0
 40
0.3810000000000022
100
AcDbArc
 50
197.5
 51
262.5
  0
LINE
  5
159
330
1F
100
AcDbEntity
  8
0
  6
Continuous
 62
     7
370
    35
100
AcDbLine
 10
57.3294804555
 20
286.4047628221
 30
0.0
 11
58.0046478782
 21
286.3158773956
 31
0.0
  0
ARC
  5
15A
330
1F
100
AcDbEntity
  8
0
  6
Continuous
 62
     7
370
    35
100
AcDbCircle
 10
58.0543785418
 20
286.6936166447
 30
0.0
 40
0.3810000000000129
100
AcDbArc
 50
262.5
 51
327.5
  0
LINE
  5
15B
330
1F
100
AcDbEntity
  8
0
  6
Continuous
 62
     7
370
    35
100
AcDbLine
 10
58.3757105407
 20
286.4889059541
 30
0.0
 11
59.1199355324
 21
287.6571048376
 31
0.0
  0
ARC
  5
15C
330
1F
100
AcDbEntity
  8
0
  6
Continuous
 62
     7
370
    35
100
AcDbCircle
 10
52.8300180223
 20
249.6193055389
 30
0.0
 40
38.55434132352775
100
AcDbArc
 50
76.8894449719
 51
80.6105550281
  0
LINE
  5
15D
330
1F
100
AcDbEntity
  8
0
  6
Continuous
 62
     7
370
    35
100
AcDbLine
 10
61.8158512872
 20
285.804618555
 30
0.0
 11
61.5753269878
 21
287.1686969278
 31
0.0
  0
ARC
  5
15E
330
1F
100
AcDbEntity
  8
0
  6
Continuous
 62
     7
370
    35
100
AcDbCircle
 10
62.1910628945
 20
285.870778967
 30
0.0
 40
0.3809999999999992
100
AcDbArc
 50
190.0
 51
255.0
  0
LINE
  5
15F
330
1F
100
AcDbEntity
  8
0
  6
Continuous
 62
     7
370
    35
100
AcDbLine
 10
62.0924531606
 20
285.5027620074
 30
0.0
 11
62.7502416384
 21
285.3265073476
 31
0.0
  0
ARC
  5
160
330
1F
100
AcDbEntity
  8
0
  6
Continuous
 62
     7
370
    35
100
AcDbCircle
 10
62.8488520711
 20
285.6945248883
 30
0.0
 40
0.3810000000000031
100
AcDbArc
 50
255.0
 51
320.0
  0
LINE
  5
161
330
1F
100
AcDbEntity
  8
0
  6
Continuous
 62
     7
370
    35
100
AcDbLine
 10
63.1407153916
 20
285.4496244666
 30
0.0
 11
64.0310532537
 21
286.5106877265
 31
0.0
  0
ARC
  5
162
330
1F
100
AcDbEntity
  8
0
  6
Continuous
 62
     7
370
    35
100
AcDbCircle
 10
52.8300180223
 20
249.6193055389
 30
0.0
 40
38.55434132352778
100
AcDbArc
 50
69.3894449719
 51
73.1105550281
  0
LINE
  5
163
330
1F
100
AcDbEntity
  8
0
  6
Continuous
 62
     7
370
    35
100
AcDbLine
 10
66.462106922
 20
284.3221616325
 30
0.0
 11
66.4016892326
 21
285.7059654174
 31
0.0
  0
ARC
  5
164
330
1F
100
AcDbEntity
  8
0
  6
Continuous
 62
     7
370
    35
100
AcDbCircle
 10
66.8427446469
 20
284.3387810441
 30
0.0
 40
0.3810000000000071
100
AcDbArc
 50
182.5
 51
247.5
  0
LINE
  5
165
330
1F
100
AcDbEntity
  8
0
  6
Continuous
 62
     7
370
    35
100
AcDbLine
 10
66.6969427031
 20
283.9867811975
 30
0.0
 11
67.3260985997
 21
283.7261785147
 31
0.0
  0
ARC
  5
166
330
1F
100
AcDbEntity
  8
0
  6
Continuous
 62
     7
370
    35
100
AcDbCircle
 10
67.4719005722
 20
284.078176127
 30
0.0
 40
0.3810000000000097
100
AcDbArc
 50
247.5
 51
312.5
  0
LINE
  5
167
330
1F
100
AcDbEntity
  8
0
  6
Continuous
 62
     7
370
    35
100
AcDbLine
 10
67.7293007386
 20
283.7972719547
 30
0.0
 11
68.7505192247
 21
284.7330462513
 31
0.0
  0
ARC
  5
168
330
1F
100
AcDbEntity
  8
0
  6
Continuous
 62
     7
370
    35
100
AcDbCircle
 10
52.8300180223
 20
249.6193055389
 30
0.0
 40
38.55434132352779
100
AcDbArc
 50
61.8894449719
 51
65.6105550281
  0
LINE
  5
169
330
1F
100
AcDbEntity
  8
0
  6
Continuous
 62
     7
370
    35
100
AcDbLine
 10
70.8751137492
 20
282.2459306893
 30
0.0
 11
70.9958355066
 21
283.6257782159
 31
0.0
  0
ARC
  5
16A
330
1F
100
AcDbEntity
  8
0
  6
Continuous
 62
     7
370
    35
100
AcDbCircle
 10
71.2546647617
 20
282.2127232692
 30
0.0
 40
0.3810000000000134
100
AcDbArc
 50
175.0
 51
240.0
  0
LINE
  5
16B
330
1F
100
AcDbEntity
  8
0
  6
Continuous
 62
     7
370
    35
100
AcDbLine
 10
71.0641647813
 20
281.8827670393
 30
0.0
 11
71.653922939
 21
281.5422717807
 31
0.0
  0
ARC
  5
16C
330
1F
100
AcDbEntity
  8
0
  6
Continuous
 62
     7
370
    35
100
AcDbCircle
 10
71.8444224033
 20
281.872226536
 30
0.0
 40
0.3809999999999965
100
AcDbArc
 50
240.0
 51
305.0
  0
LINE
  5
16D
330
1F
100
AcDbEntity
  8
0
  6
Continuous
 62
     7
370
    35
100
AcDbLine
 10
72.0629542258
 20
281.5601308224
 30
0.0
 11
73.1975789305
 21
282.3546011326
 31
0.0
  0
ARC
  5
16E
330
1F
100
AcDbEntity
  8
0
  6
Continuous
 62
     7
370
    35
100
AcDbCircle
 10
52.8300180223
 20
249.6193055389
 30
0.0
 40
38.55434132352777
100
AcDbArc
 50
54.3894449719
 51
58.1105550281
  0
LINE
  5
16F
330
1F
100
AcDbEntity
  8
0
  6
Continuous
 62
     7
370
    35
100
AcDbLine
 10
74.9793647912
 20
279.6114463684
 30
0.0
 11
75.2791612533
 21
280.9637341974
 31
0.0
  0
ARC
  5
170
330
1F
100
AcDbEntity
  8
0
  6
Continuous
 62
     7
370
    35
100
AcDbCircle
 10
75.3513340625
 20
279.5289830803
 30
0.0
 40
0.3810000000000003
100
AcDbArc
 50
167.5
 51
232.5
  0
LINE
  5
171
330
1F
100
AcDbEntity
  8
0
  6
Continuous
 62
     7
370
    35
100
AcDbLine
 10
75.1193965909
 20
279.2267151502
 30
0.0
 11
75.659664267
 21
278.8121536699
 31
0.0
  0
ARC
  5
172
330
1F
100
AcDbEntity
  8
0
  6
Continuous
 62
     7
370
    35
100
AcDbCircle
 10
75.8916025036
 20
279.1144205246
 30
0.0
 40
0.3810000000000003
100
AcDbArc
 50
232.5
 51
297.5
  0
LINE
  5
173
330
1F
100
AcDbEntity
  8
0
  6
Continuous
 62
     7
370
    35
100
AcDbLine
 10
76.067529538
 20
278.7764691142
 30
0.0
 11
77.2961470422
 21
279.4160474417
 31
0.0
  0
ARC
  5
174
330
1F
100
AcDbEntity
  8
0
  6
Continuous
 62
     7
370
    35
100
AcDbCircle
 10
52.8300180223
 20
249.6193055389
 30
0.0
 40
38.55434132352776
100
AcDbArc
 50
46.8894449719
 51
50.6105550281
  0
LINE
  5
175
330
1F
100
AcDbEntity
  8
0
  6
Continuous
 62
     7
370
    35
100
AcDbLine
 10
78.7046346006
 20
276.4637902704
 30
0.0
 11
79.1783741799
 21
277.7653768984
 31
0.0
  0
ARC
  5
176
330
1F
100
AcDbEntity
  8
0
  6
Continuous
 62
     7
370
    35
100
AcDbCircle
 10
79.0626574017
 20
276.3334800162
 30
0.0
 40
0.3810000000000161
100
AcDbArc
 50
160.0
 51
225.0
  0
LINE
  5
177
330
1F
100
AcDbEntity
  8
0
  6
Continuous
 62
     7
370
    35
100
AcDbLine
 10
78.7932499435
 20
276.0640722093
 30
0.0
 11
79.2747846928
 21
275.5825374601
 31
0.0
  0
ARC
  5
178
330
1F
100
AcDbEntity
  8
0
  6
Continuous
 62
     7
370
    35
100
AcDbCircle
 10
79.5441924996
 20
275.8519449182
 30
0.0
 40
0.3809999999999966
100
AcDbArc
 50
225.0
 51
290.0
  0
LINE
  5
179
330
1F
100
AcDbEntity
  8
0
  6
Continuous
 62
     7
370
    35
100
AcDbLine
 10
79.6745027539
 20
275.4939221171
 30
0.0
 11
80.9760893819
 21
275.9676616964
 31
0.0
  0
ARC
  5
17A
330
1F
100
AcDbEntity
  8
0
  6
Continuous
 62
     7
370
    35
100
AcDbCircle
 10
52.8300180223
 20
249.6193055389
 30
0.0
 40
38.55434132352778
100
AcDbArc
 50
39.3894449719
 51
43.1105550281
  0
LINE
  5
17B
330
1F
100
AcDbEntity
  8
0
  6
Continuous
 62
     7
370
    35
100
AcDbLine
 10
81.9871815976
 20
272.8568170545
 30
0.0
 11
82.6267599252
 21
274.0854345587
 31
0.0
  0
ARC
  5
17C
330
1F
100
AcDbEntity
  8
0
  6
Continuous
 62
     7
370
    35
100
AcDbCircle
 10
82.3251330081
 20
272.6808900202
 30
0.0
 40
0.3810000000000299
100
AcDbArc
 50
152.5
 51
217.5
  0
LINE
  5
17D
330
1F
100
AcDbEntity
  8
0
  6
Continuous
 62
     7
370
    35
100
AcDbLine
 10
82.0228661534
 20
272.4489517835
 30
0.0
 11
82.4374276337
 21
271.9086841074
 31
0.0
  0
ARC
  5
17E
330
1F
100
AcDbEntity
  8
0
  6
Continuous
 62
     7
370
    35
100
AcDbCircle
 10
82.7396955638
 20
272.140621579
 30
0.0
 40
0.3810000000000177
100
AcDbArc
 50
217.5
 51
282.5
  0
LINE
  5
17F
330
1F
100
AcDbEntity
  8
0
  6
Continuous
 62
     7
370
    35
100
AcDbLine
 10
82.8221588519
 20
271.7686523077
 30
0.0
 11
84.1744466808
 21
272.0684487698
 31
0.0
  0
ARC
  5
180
330
1F
100
AcDbEntity
  8
0
  6
Continuous
 62
     7
370
    35
100
AcDbCircle
 10
52.8300180223
 20
249.6193055389
 30
0.0
 40
38.55434132352778
100
AcDbArc
 50
31.8894449719
 51
35.6105550281
  0
LINE
  5
181
330
1F
100
AcDbEntity
  8
0
  6
Continuous
 62
     7
370
    35
100
AcDbLine
 10
84.7708433059
 20
268.8522417423
 30
0.0
 11
85.5653136161
 21
269.9868664471
 31
0.0
  0
ARC
  5
182
330
1F
100
AcDbEntity
  8
0
  6
Continuous
 62
     7
370
    35
100
AcDbCircle
 10
85.0829390195
 20
268.6337099198
 30
0.0
 40
0.3810000000000047
100
AcDbArc
 50
145.0
 51
210.0
  0
LINE
  5
183
330
1F
100
AcDbEntity
  8
0
  6
Continuous
 62
     7
370
    35
100
AcDbLine
 10
84.7529842642
 20
268.4432104555
 30
0.0
 11
85.0934795228
 21
267.8534522978
 31
0.0
  0
ARC
  5
184
330
1F
100
AcDbEntity
  8
0
  6
Continuous
 62
     7
370
    35
100
AcDbCircle
 10
85.4234357526
 20
268.0439522782
 30
0.0
 40
0.3809999999999918
100
AcDbArc
 50
210.0
 51
275.0
  0
LINE
  5
185
330
1F
100
AcDbEntity
  8
0
  6
Continuous
 62
     7
370
    35
100
AcDbLine
 10
85.4566431728
 20
267.6644012657
 30
0.0
 11
86.8364906993
 21
267.7851230231
 31
0.0
  0
ARC
  5
186
330
1F
100
AcDbEntity
  8
0
  6
Continuous
 62
     7
370
    35
100
AcDbCircle
 10
52.8300180223
 20
249.6193055389
 30
0.0
 40
38.55434132352777
100
AcDbArc
 50
24.3894449719
 51
28.1105550281
  0
LINE
  5
187
330
1F
100
AcDbEntity
  8
0
  6
Continuous
 62
     7
370
    35
100
AcDbLine
 10
87.0079844382
 20
264.5185882551
 30
0.0
 11
87.9437587348
 21
265.5398067412
 31
0.0
  0
ARC
  5
188
330
1F
100
AcDbEntity
  8
0
  6
Continuous
 62
     7
370
    35
100
AcDbCircle
 10
87.2888886104
 20
264.2611880887
 30
0.0
 40
0.3810000000000271
100
AcDbArc
 50
137.5
 51
202.5
  0
LINE
  5
189
330
1F
100
AcDbEntity
  8
0
  6
Continuous
 62
     7
370
    35
100
AcDbLine
 10
86.9368909982
 20
264.1153861162
 30
0.0
 11
87.197493681
 21
263.4862302196
 31
0.0
  0
ARC
  5
18A
330
1F
100
AcDbEntity
  8
0
  6
Continuous
 62
     7
370
    35
100
AcDbCircle
 10
87.5494935275
 20
263.6320321634
 30
0.0
 40
0.3810000000000237
100
AcDbArc
 50
202.5
 51
267.5
  0
LINE
  5
18B
330
1F
100
AcDbEntity
  8
0
  6
Continuous
 62
     7
370
    35
100
AcDbLine
 10
87.532874116
 20
263.2513944385
 30
0.0
 11
88.9166779008
 21
263.1909767491
 31
0.0
  0
ARC
  5
18C
330
1F
100
AcDbEntity
  8
0
  6
Continuous
 62
     7
370
    35
100
AcDbCircle
 10
52.8300180223
 20
249.6193055389
 30
0.0
 40
38.55434132352778
100
AcDbArc
 50
16.8894449719
 51
20.6105550281
  0
LINE
  5
18D
330
1F
100
AcDbEntity
  8
0
  6
Continuous
 62
     7
370
    35
100
AcDbLine
 10
88.6603369501
 20
259.9300029081
 30
0.0
 11
89.72140021
 21
260.8203407702
 31
0.0
  0
ARC
  5
18E
330
1F
100
AcDbEntity
  8
0
  6
Continuous
 62
     7
370
    35
100
AcDbCircle
 10
88.9052373718
 20
259.6381395877
 30
0.0
 40
0.3810000000000123
100
AcDbArc
 50
130.0
 51
195.0
  0
LINE
  5
18F
330
1F
100
AcDbEntity
  8
0
  6
Continuous
 62
     7
370
    35
100
AcDbLine
 10
88.537219831
 20
259.5395291549
 30
0.0
 11
88.7134744909
 21
258.8817406771
 31
0.0
  0
ARC
  5
190
330
1F
100
AcDbEntity
  8
0
  6
Continuous
 62
     7
370
    35
100
AcDbCircle
 10
89.0814914505
 20
258.9803504111
 30
0.0
 40
0.3809999999999947
100
AcDbArc
 50
195.0
 51
260.0
  0
LINE
  5
191
330
1F
100
AcDbEntity
  8
0
  6
Continuous
 62
     7
370
    35
100
AcDbLine
 10
89.0153310385
 20
258.6051388038
 30
0.0
 11
90.3794094112
 21
258.3646145043
 31
0.0
  0
ARC
  5
192
330
1F
100
AcDbEntity
  8
0
  6
Continuous
 62
     7
370
    35
100
AcDbCircle
 10
52.8300180223
 20
249.6193055389
 30
0.0
 40
38.55434132352778
100
AcDbArc
 50
9.3894449719
 51
13.1105550281
  0
LINE
  5
193
330
1F
100
AcDbEntity
  8
0
  6
Continuous
 62
     7
370
    35
100
AcDbLine
 10
89.6996184376
 20
255.1649980572
 30
0.0
 11
90.8678173211
 21
255.9092230489
 31
0.0
  0
ARC
  5
194
330
1F
100
AcDbEntity
  8
0
  6
Continuous
 62
     7
370
    35
100
AcDbCircle
 10
89.9043291282
 20
254.8436660583
 30
0.0
 40
0.3810000000000233
100
AcDbArc
 50
122.5
 51
187.5
  0
CIRCLE
  5
195
330
1F
100
AcDbEntity
  8
0
  6
Continuous
 62
     7
370
    35
100
AcDbCircle
 10
52.8300180223
 20
249.6193055389
 30
0.0
 40
3.0
  0
CIRCLE
  5
196
330
1F
100
AcDbEntity
  8
0
  6
Continuous
 62
     7
370
    35
100
AcDbCircle
 10
32.8300180223
 20
249.6193055389
 30
0.0
 40
0.75
  0
CIRCLE
  5
197
330
1F
100
AcDbEntity
  8
0
  6
Continuous
 62
     7
370
    35
100
AcDbCircle
 10
52.8300180223
 20
229.6193055389
 30
0.0
 40
0.75
  0
CIRCLE
  5
198
330
1F
100
AcDbEntity
  8
0
  6
Continuous
 62
     7
370
    35
100
AcDbCircle
 10
52.8300180223
 20
269.6193055389
 30
0.0
 40
0.75
  0
CIRCLE
  5
199
330
1F
100
AcDbEntity
  8
0
  6
Continuous
 62
     7
370
    35
100
AcDbCircle
 10
72.8300180223
 20
249.6193055389
 30
0.0
 40
0.75
  0
CIRCLE
  5
19A
330
1F
100
AcDbEntity
  8
0
  6
Continuous
 62
     7
100
AcDbCircle
 10
133.4878385198
 20
250.5428571429
 30
0.0
 40
2.999999999999984
  0
LINE
  5
19B
330
1F
100
AcDbEntity
  8
0
  6
Continuous
 62
     7
370
    35
100
AcDbLine
 10
170.1844103765
 20
255.7174869988
 30
0.0
 11
170.273295803
 21
255.042319576
 31
0.0
  0
ARC
  5
19C
330
1F
100
AcDbEntity
  8
0
  6
Continuous
 62
     7
370
    35
100
AcDbCircle
 10
170.6510371097
 20
255.0920501895
 30
0.0
 40
0.381000000000004
100
AcDbArc
 50
187.5
 51
252.5
  0
LINE
  5
19D
330
1F
100
AcDbEntity
  8
0
  6
Continuous
 62
     7
370
    35
100
AcDbLine
 10
170.5364689362
 20
254.7286841262
 30
0.0
 11
171.857482953
 21
254.3121701281
 31
0.0
  0
ARC
  5
19E
330
1F
100
AcDbEntity
  8
0
  6
Continuous
 62
     7
370
    35
100
AcDbCircle
 10
133.4878385198
 20
250.5428571429
 30
0.0
 40
38.55434132352779
100
AcDbArc
 50
1.8894449719
 51
5.6105550281
  0
LINE
  5
19F
330
1F
100
AcDbEntity
  8
0
  6
Continuous
 62
     7
370
    35
100
AcDbLine
 10
170.7658723127
 20
251.2286571262
 30
0.0
 11
172.0212169122
 21
251.8140345754
 31
0.0
  0
ARC
  5
1A0
330
1F
100
AcDbEntity
  8
0
  6
Continuous
 62
     7
370
    35
100
AcDbCircle
 10
170.92688964
 20
250.883353876
 30
0.0
 40
0.3810000000000379
100
AcDbArc
 50
115.0
 51
180.0
  0
LINE
  5
1A1
330
1F
100
AcDbEntity
  8
0
  6
Continuous
 62
     7
370
    35
100
AcDbLine
 10
170.5458901953
 20
250.8833538857
 30
0.0
 11
170.5458901953
 21
250.2023604
 31
0.0
  0
ARC
  5
1A2
330
1F
100
AcDbEntity
  8
0
  6
Continuous
 62
     7
370
    35
100
AcDbCircle
 10
170.92688964
 20
250.2023604097
 30
0.0
 40
0.3810000000000379
100
AcDbArc
 50
180.0
 51
245.0
  0
LINE
  5
1A3
330
1F
100
AcDbEntity
  8
0
  6
Continuous
 62
     7
370
    35
100
AcDbLine
 10
170.7658723127
 20
249.8570571595
 30
0.0
 11
172.0212169122
 21
249.2716797104
 31
0.0
  0
ARC
  5
1A4
330
1F
100
AcDbEntity
  8
0
  6
Continuous
 62
     7
370
    35
100
AcDbCircle
 10
133.4878385198
 20
250.5428571429
 30
0.0
 40
38.55434132352778
100
AcDbArc
 50
354.3894449719
 51
358.1105550281
  0
LINE
  5
1A5
330
1F
100
AcDbEntity
  8
0
  6
Continuous
 62
     7
370
    35
100
AcDbLine
 10
170.5364689362
 20
246.3570301596
 30
0.0
 11
171.857482953
 21
246.7735441576
 31
0.0
  0
ARC
  5
1A6
330
1F
100
AcDbEntity
  8
0
  6
Continuous
 62
     7
370
    35
100
AcDbCircle
 10
170.6510371097
 20
245.9936640962
 30
0.0
 40
0.3809999999999997
100
AcDbArc
 50
107.5
 51
172.5
  0
LINE
  5
1A7
330
1F
100
AcDbEntity
  8
0
  6
Continuous
 62
     7
370
    35
100
AcDbLine
 10
170.273295803
 20
246.0433947097
 30
0.0
 11
170.1844103765
 21
245.368227287
 31
0.0
  0
ARC
  5
1A8
330
1F
100
AcDbEntity
  8
0
  6
Continuous
 62
     7
370
    35
100
AcDbCircle
 10
170.5621496256
 20
245.3184966234
 30
0.0
 40
0.3809999999999997
100
AcDbArc
 50
172.5
 51
237.5
  0
LINE
  5
1A9
330
1F
100
AcDbEntity
  8
0
  6
Continuous
 62
     7
370
    35
100
AcDbLine
 10
170.357438935
 20
244.9971646245
 30
0.0
 11
171.5256378185
 21
244.2529396329
 31
0.0
  0
ARC
  5
1AA
330
1F
100
AcDbEntity
  8
0
  6
Continuous
 62
     7
370
    35
100
AcDbCircle
 10
133.4878385198
 20
250.5428571429
 30
0.0
 40
38.55434132352778
100
AcDbArc
 50
346.8894449719
 51
350.6105550281
  0
LINE
  5
1AB
330
1F
100
AcDbEntity
  8
0
  6
Continuous
 62
     7
370
    35
100
AcDbLine
 10
169.6731515359
 20
241.557023878
 30
0.0
 11
171.0372299087
 21
241.7975481774
 31
0.0
  0
ARC
  5
1AC
330
1F
100
AcDbEntity
  8
0
  6
Continuous
 62
     7
370
    35
100
AcDbCircle
 10
169.7393119479
 20
241.1818122707
 30
0.0
 40
0.3809999999999922
100
AcDbArc
 50
100.0
 51
165.0
  0
LINE
  5
1AD
330
1F
100
AcDbEntity
  8
0
  6
Continuous
 62
     7
370
    35
100
AcDbLine
 10
169.3712949883
 20
241.2804220046
 30
0.0
 11
169.1950403285
 21
240.6226335268
 31
0.0
  0
ARC
  5
1AE
330
1F
100
AcDbEntity
  8
0
  6
Continuous
 62
     7
370
    35
100
AcDbCircle
 10
169.5630578692
 20
240.5240230941
 30
0.0
 40
0.3810000000000068
100
AcDbArc
 50
165.0
 51
230.0
  0
LINE
  5
1AF
330
1F
100
AcDbEntity
  8
0
  6
Continuous
 62
     7
370
    35
100
AcDbLine
 10
169.3181574475
 20
240.2321597736
 30
0.0
 11
170.3792207074
 21
239.3418219115
 31
0.0
  0
ARC
  5
1B0
330
1F
100
AcDbEntity
  8
0
  6
Continuous
 62
     7
370
    35
100
AcDbCircle
 10
133.4878385198
 20
250.5428571429
 30
0.0
 40
38.55434132352778
100
AcDbArc
 50
339.3894449719
 51
343.1105550281
  0
LINE
  5
1B1
330
1F
100
AcDbEntity
  8
0
  6
Continuous
 62
     7
370
    35
100
AcDbLine
 10
168.1906946134
 20
236.9107682432
 30
0.0
 11
169.5744983983
 21
236.9711859326
 31
0.0
  0
ARC
  5
1B2
330
1F
100
AcDbEntity
  8
0
  6
Continuous
 62
     7
370
    35
100
AcDbCircle
 10
168.207314025
 20
236.5301305183
 30
0.0
 40
0.3809999999999941
100
AcDbArc
 50
92.5
 51
157.5
  0
LINE
  5
1B3
330
1F
100
AcDbEntity
  8
0
  6
Continuous
 62
     7
370
    35
100
AcDbLine
 10
167.8553141784
 20
236.6759324621
 30
0.0
 11
167.5947114956
 21
236.0467765655
 31
0.0
  0
ARC
  5
1B4
330
1F
100
AcDbEntity
  8
0
  6
Continuous
 62
     7
370
    35
100
AcDbCircle
 10
167.9467091079
 20
235.900974593
 30
0.0
 40
0.3810000000000078
100
AcDbArc
 50
157.5
 51
222.5
  0
LINE
  5
1B5
330
1F
100
AcDbEntity
  8
0
  6
Continuous
 62
     7
370
    35
100
AcDbLine
 10
167.6658049356
 20
235.6435744266
 30
0.0
 11
168.6015792322
 21
234.6223559405
 31
0.0
  0
ARC
  5
1B6
330
1F
100
AcDbEntity
  8
0
  6
Continuous
 62
     7
370
    35
100
AcDbCircle
 10
133.4878385198
 20
250.5428571429
 30
0.0
 40
38.55434132352779
100
AcDbArc
 50
331.8894449719
 51
335.6105550281
  0
LINE
  5
1B7
330
1F
100
AcDbEntity
  8
0
  6
Continuous
 62
     7
370
    35
100
AcDbLine
 10
166.1144636702
 20
232.497761416
 30
0.0
 11
167.4943111968
 21
232.3770396586
 31
0.0
  0
ARC
  5
1B8
330
1F
100
AcDbEntity
  8
0
  6
Continuous
 62
     7
370
    35
100
AcDbCircle
 10
166.0812562501
 20
232.1182104035
 30
0.0
 40
0.3810000000000134
100
AcDbArc
 50
85.0
 51
150.0
  0
LINE
  5
1B9
330
1F
100
AcDbEntity
  8
0
  6
Continuous
 62
     7
370
    35
100
AcDbLine
 10
165.7513000202
 20
232.3087103839
 30
0.0
 11
165.4108047616
 21
231.7189522262
 31
0.0
  0
ARC
  5
1BA
330
1F
100
AcDbEntity
  8
0
  6
Continuous
 62
     7
370
    35
100
AcDbCircle
 10
165.7407595169
 20
231.5284527619
 30
0.0
 40
0.3809999999999883
100
AcDbArc
 50
150.0
 51
215.0
  0
LINE
  5
1BB
330
1F
100
AcDbEntity
  8
0
  6
Continuous
 62
     7
370
    35
100
AcDbLine
 10
165.4286638033
 20
231.3099209394
 30
0.0
 11
166.2231341135
 21
230.1752962347
 31
0.0
  0
ARC
  5
1BC
330
1F
100
AcDbEntity
  8
0
  6
Continuous
 62
     7
370
    35
100
AcDbCircle
 10
133.4878385198
 20
250.5428571429
 30
0.0
 40
38.55434132352779
100
AcDbArc
 50
324.3894449719
 51
328.1105550281
  0
LINE
  5
1BD
330
1F
100
AcDbEntity
  8
0
  6
Continuous
 62
     7
370
    35
100
AcDbLine
 10
163.4799793493
 20
228.393510374
 30
0.0
 11
164.8322671783
 21
228.0937139119
 31
0.0
  0
ARC
  5
1BE
330
1F
100
AcDbEntity
  8
0
  6
Continuous
 62
     7
370
    35
100
AcDbCircle
 10
163.3975160612
 20
228.0215411028
 30
0.0
 40
0.3810000000000003
100
AcDbArc
 50
77.5
 51
142.5
  0
LINE
  5
1BF
330
1F
100
AcDbEntity
  8
0
  6
Continuous
 62
     7
370
    35
100
AcDbLine
 10
163.0952481311
 20
228.2534785743
 30
0.0
 11
162.6806866508
 21
227.7132108982
 31
0.0
  0
ARC
  5
1C0
330
1F
100
AcDbEntity
  8
0
  6
Continuous
 62
     7
370
    35
100
AcDbCircle
 10
162.9829535055
 20
227.4812726616
 30
0.0
 40
0.3810000000000288
100
AcDbArc
 50
142.5
 51
207.5
  0
LINE
  5
1C1
330
1F
100
AcDbEntity
  8
0
  6
Continuous
 62
     7
370
    35
100
AcDbLine
 10
162.6450020951
 20
227.3053456272
 30
0.0
 11
163.2845804226
 21
226.076728123
 31
0.0
  0
ARC
  5
1C2
330
1F
100
AcDbEntity
  8
0
  6
Continuous
 62
     7
370
    35
100
AcDbCircle
 10
133.4878385198
 20
250.5428571429
 30
0.0
 40
38.55434132352778
100
AcDbArc
 50
316.8894449719
 51
320.6105550281
  0
LINE
  5
1C3
330
1F
100
AcDbEntity
  8
0
  6
Continuous
 62
     7
370
    35
100
AcDbLine
 10
160.3323232513
 20
224.6682405646
 30
0.0
 11
161.6339098793
 21
224.1945009853
 31
0.0
  0
ARC
  5
1C4
330
1F
100
AcDbEntity
  8
0
  6
Continuous
 62
     7
370
    35
100
AcDbCircle
 10
160.2020129971
 20
224.3102177635
 30
0.0
 40
0.3809999999999966
100
AcDbArc
 50
70.0
 51
135.0
  0
LINE
  5
1C5
330
1F
100
AcDbEntity
  8
0
  6
Continuous
 62
     7
370
    35
100
AcDbLine
 10
159.9326051902
 20
224.5796252217
 30
0.0
 11
159.451070441
 21
224.0980904724
 31
0.0
  0
ARC
  5
1C6
330
1F
100
AcDbEntity
  8
0
  6
Continuous
 62
     7
370
    35
100
AcDbCircle
 10
159.7204778991
 20
223.8286826656
 30
0.0
 40
0.3810000000000331
100
AcDbArc
 50
135.0
 51
200.0
  0
LINE
  5
1C7
330
1F
100
AcDbEntity
  8
0
  6
Continuous
 62
     7
370
    35
100
AcDbLine
 10
159.362455098
 20
223.6983724113
 30
0.0
 11
159.8361946773
 21
222.3967857833
 31
0.0
  0
ARC
  5
1C8
330
1F
100
AcDbEntity
  8
0
  6
Continuous
 62
     7
370
    35
100
AcDbCircle
 10
133.4878385198
 20
250.5428571429
 30
0.0
 40
38.55434132352782
100
AcDbArc
 50
309.3894449719
 51
313.1105550281
  0
LINE
  5
1C9
330
1F
100
AcDbEntity
  8
0
  6
Continuous
 62
     7
370
    35
100
AcDbLine
 10
156.7253500354
 20
221.3856935676
 30
0.0
 11
157.9539675396
 21
220.74611524
 31
0.0
  0
ARC
  5
1CA
330
1F
100
AcDbEntity
  8
0
  6
Continuous
 62
     7
370
    35
100
AcDbCircle
 10
156.5494230011
 20
221.0477421571
 30
0.0
 40
0.3810000000000036
100
AcDbArc
 50
62.5
 51
127.5
  0
LINE
  5
1CB
330
1F
100
AcDbEntity
  8
0
  6
Continuous
 62
     7
370
    35
100
AcDbLine
 10
156.3174847644
 20
221.3500090118
 30
0.0
 11
155.7772170883
 21
220.9354475315
 31
0.0
  0
ARC
  5
1CC
330
1F
100
AcDbEntity
  8
0
  6
Continuous
 62
     7
370
    35
100
AcDbCircle
 10
156.0091545599
 20
220.6331796014
 30
0.0
 40
0.3810000000000324
100
AcDbArc
 50
127.5
 51
192.5
  0
LINE
  5
1CD
330
1F
100
AcDbEntity
  8
0
  6
Continuous
 62
     7
370
    35
100
AcDbLine
 10
155.6371852886
 20
220.5507163133
 30
0.0
 11
155.9369817507
 21
219.1984284844
 31
0.0
  0
ARC
  5
1CE
330
1F
100
AcDbEntity
  8
0
  6
Continuous
 62
     7
370
    35
100
AcDbCircle
 10
133.4878385198
 20
250.5428571429
 30
0.0
 40
38.55434132352778
100
AcDbArc
 50
301.8894449719
 51
305.6105550281
  0
LINE
  5
1CF
330
1F
100
AcDbEntity
  8
0
  6
Continuous
 62
     7
370
    35
100
AcDbLine
 10
152.7207747232
 20
218.6020318593
 30
0.0
 11
153.855399428
 21
217.8075615491
 31
0.0
  0
ARC
  5
1D0
330
1F
100
AcDbEntity
  8
0
  6
Continuous
 62
     7
370
    35
100
AcDbCircle
 10
152.5022429007
 20
218.2899361457
 30
0.0
 40
0.3810000000000041
100
AcDbArc
 50
55.0
 51
120.0
  0
LINE
  5
1D1
330
1F
100
AcDbEntity
  8
0
  6
Continuous
 62
     7
370
    35
100
AcDbLine
 10
152.3117434364
 20
218.619890901
 30
0.0
 11
151.7219852787
 21
218.2793956425
 31
0.0
  0
ARC
  5
1D2
330
1F
100
AcDbEntity
  8
0
  6
Continuous
 62
     7
370
    35
100
AcDbCircle
 10
151.9124852591
 20
217.9494394126
 30
0.0
 40
0.3810000000000041
100
AcDbArc
 50
120.0
 51
185.0
  0
LINE
  5
1D3
330
1F
100
AcDbEntity
  8
0
  6
Continuous
 62
     7
370
    35
100
AcDbLine
 10
151.5329342466
 20
217.9162319924
 30
0.0
 11
151.653656004
 21
216.5363844659
 31
0.0
  0
ARC
  5
1D4
330
1F
100
AcDbEntity
  8
0
  6
Continuous
 62
     7
370
    35
100
AcDbCircle
 10
133.4878385198
 20
250.5428571429
 30
0.0
 40
38.55434132352781
100
AcDbArc
 50
294.3894449719
 51
298.1105550281
  0
LINE
  5
1D5
330
1F
100
AcDbEntity
  8
0
  6
Continuous
 62
     7
370
    35
100
AcDbLine
 10
148.387121236
 20
216.364890727
 30
0.0
 11
149.4083397221
 21
215.4291164305
 31
0.0
  0
ARC
  5
1D6
330
1F
100
AcDbEntity
  8
0
  6
Continuous
 62
     7
370
    35
100
AcDbCircle
 10
148.1297210696
 20
216.0839865548
 30
0.0
 40
0.3809999999999886
100
AcDbArc
 50
47.5
 51
112.5
  0
LINE
  5
1D7
330
1F
100
AcDbEntity
  8
0
  6
Continuous
 62
     7
370
    35
100
AcDbLine
 10
147.9839190971
 20
216.435984167
 30
0.0
 11
147.3547632005
 21
216.1753814842
 31
0.0
  0
ARC
  5
1D8
330
1F
100
AcDbEntity
  8
0
  6
Continuous
 62
     7
370
    35
100
AcDbCircle
 10
147.5005651443
 20
215.8233816377
 30
0.0
 40
0.381000000000025
100
AcDbArc
 50
112.5
 51
177.5
  0
LINE
  5
1D9
330
1F
100
AcDbEntity
  8
0
  6
Continuous
 62
     7
370
    35
100
AcDbLine
 10
147.1199274194
 20
215.8400010492
 30
0.0
 11
147.05950973
 21
214.4561972644
 31
0.0
  0
ARC
  5
1DA
330
1F
100
AcDbEntity
  8
0
  6
Continuous
 62
     7
370
    35
100
AcDbCircle
 10
133.4878385198
 20
250.5428571429
 30
0.0
 40
38.55434132352779
100
AcDbArc
 50
286.8894449719
 51
290.6105550281
  0
LINE
  5
1DB
330
1F
100
AcDbEntity
  8
0
  6
Continuous
 62
     7
370
    35
100
AcDbLine
 10
143.798535889
 20
214.7125382151
 30
0.0
 11
144.6888737511
 21
213.6514749553
 31
0.0
  0
ARC
  5
1DC
330
1F
100
AcDbEntity
  8
0
  6
Continuous
 62
     7
370
    35
100
AcDbCircle
 10
143.5066725686
 20
214.4676377934
 30
0.0
 40
0.381000000000025
100
AcDbArc
 50
40.0
 51
105.0
  0
LINE
  5
1DD
330
1F
100
AcDbEntity
  8
0
  6
Continuous
 62
     7
370
    35
100
AcDbLine
 10
143.4080621358
 20
214.8356553342
 30
0.0
 11
142.750273658
 21
214.6594006743
 31
0.0
  0
ARC
  5
1DE
330
1F
100
AcDbEntity
  8
0
  6
Continuous
 62
     7
370
    35
100
AcDbCircle
 10
142.8488833919
 20
214.2913837147
 30
0.0
 40
0.3810000000000252
100
AcDbArc
 50
105.0
 51
170.0
  0
LINE
  5
1DF
330
1F
100
AcDbEntity
  8
0
  6
Continuous
 62
     7
370
    35
100
AcDbLine
 10
142.4736717847
 20
214.3575441267
 30
0.0
 11
142.2331474852
 21
212.993465754
 31
0.0
  0
ARC
  5
1E0
330
1F
100
AcDbEntity
  8
0
  6
Continuous
 62
     7
370
    35
100
AcDbCircle
 10
133.4878385198
 20
250.5428571429
 30
0.0
 40
38.5543413235278
100
AcDbArc
 50
279.3894449719
 51
283.1105550281
  0
LINE
  5
1E1
330
1F
100
AcDbEntity
  8
0
  6
Continuous
 62
     7
370
    35
100
AcDbLine
 10
139.0335310381
 20
213.6732567276
 30
0.0
 11
139.7777560298
 21
212.5050578441
 31
0.0
  0
ARC
  5
1E2
330
1F
100
AcDbEntity
  8
0
  6
Continuous
 62
     7
370
    35
100
AcDbCircle
 10
138.7121990392
 20
213.468546037
 30
0.0
 40
0.3809999999999997
100
AcDbArc
 50
32.5
 51
97.5
  0
LINE
  5
1E3
330
1F
100
AcDbEntity
  8
0
  6
Continuous
 62
     7
370
    35
100
AcDbLine
 10
138.6624683757
 20
213.8462852861
 30
0.0
 11
137.9873009529
 21
213.7573998596
 31
0.0
  0
ARC
  5
1E4
330
1F
100
AcDbEntity
  8
0
  6
Continuous
 62
     7
370
    35
100
AcDbCircle
 10
138.0370315664
 20
213.3796585529
 30
0.0
 40
0.3809999999999997
100
AcDbArc
 50
97.5
 51
162.5
  0
LINE
  5
1E5
330
1F
100
AcDbEntity
  8
0
  6
Continuous
 62
     7
370
    35
100
AcDbLine
 10
137.6736655031
 20
213.4942267265
 30
0.0
 11
137.257151505
 21
212.1732127096
 31
0.0
  0
ARC
  5
1E6
330
1F
100
AcDbEntity
  8
0
  6
Continuous
 62
     7
370
    35
100
AcDbCircle
 10
133.4878385198
 20
250.5428571429
 30
0.0
 40
38.55434132352779
100
AcDbArc
 50
271.8894449719
 51
275.6105550281
  0
LINE
  5
1E7
330
1F
100
AcDbEntity
  8
0
  6
Continuous
 62
     7
370
    35
100
AcDbLine
 10
134.1736385031
 20
213.2648233499
 30
0.0
 11
134.7590159523
 21
212.0094787504
 31
0.0
  0
ARC
  5
1E8
330
1F
100
AcDbEntity
  8
0
  6
Continuous
 62
     7
370
    35
100
AcDbCircle
 10
133.8283352529
 20
213.1038060226
 30
0.0
 40
0.3810000000000122
100
AcDbArc
 50
25.0
 51
90.0
  0
LINE
  5
1E9
330
1F
100
AcDbEntity
  8
0
  6
Continuous
 62
     7
370
    35
100
AcDbLine
 10
133.8283352626
 20
213.4848054673
 30
0.0
 11
133.1473417769
 21
213.4848054673
 31
0.0
  0
ARC
  5
1EA
330
1F
100
AcDbEntity
  8
0
  6
Continuous
 62
     7
370
    35
100
AcDbCircle
 10
133.1473417866
 20
213.1038060226
 30
0.0
 40
0.3810000000000002
100
AcDbArc
 50
90.0
 51
155.0
  0
LINE
  5
1EB
330
1F
100
AcDbEntity
  8
0
  6
Continuous
 62
     7
370
    35
100
AcDbLine
 10
132.8020385364
 20
213.2648233499
 30
0.0
 11
132.2166610873
 21
212.0094787504
 31
0.0
  0
ARC
  5
1EC
330
1F
100
AcDbEntity
  8
0
  6
Continuous
 62
     7
370
    35
100
AcDbCircle
 10
133.4878385198
 20
250.5428571429
 30
0.0
 40
38.55434132352781
100
AcDbArc
 50
264.3894449719
 51
268.1105550281
  0
LINE
  5
1ED
330
1F
100
AcDbEntity
  8
0
  6
Continuous
 62
     7
370
    35
100
AcDbLine
 10
129.3020115365
 20
213.4942267265
 30
0.0
 11
129.7185255345
 21
212.1732127096
 31
0.0
  0
ARC
  5
1EE
330
1F
100
AcDbEntity
  8
0
  6
Continuous
 62
     7
370
    35
100
AcDbCircle
 10
128.9386454731
 20
213.3796585529
 30
0.0
 40
0.381000000000014
100
AcDbArc
 50
17.5
 51
82.5
  0
LINE
  5
1EF
330
1F
100
AcDbEntity
  8
0
  6
Continuous
 62
     7
370
    35
100
AcDbLine
 10
128.9883760866
 20
213.7573998596
 30
0.0
 11
128.3132086639
 21
213.8462852861
 31
0.0
  0
ARC
  5
1F0
330
1F
100
AcDbEntity
  8
0
  6
Continuous
 62
     7
370
    35
100
AcDbCircle
 10
128.2634780003
 20
213.468546037
 30
0.0
 40
0.3810000000000037
100
AcDbArc
 50
82.5
 51
147.5
  0
LINE
  5
1F1
330
1F
100
AcDbEntity
  8
0
  6
Continuous
 62
     7
370
    35
100
AcDbLine
 10
127.9421460014
 20
213.6732567276
 30
0.0
 11
127.1979210098
 21
212.5050578441
 31
0.0
  0
ARC
  5
1F2
330
1F
100
AcDbEntity
  8
0
  6
Continuous
 62
     7
370
    35
100
AcDbCircle
 10
133.4878385198
 20
250.5428571429
 30
0.0
 40
38.55434132352781
100
AcDbArc
 50
256.8894449719
 51
260.6105550281
  0
LINE
  5
1F3
330
1F
100
AcDbEntity
  8
0
  6
Continuous
 62
     7
370
    35
100
AcDbLine
 10
124.5020052549
 20
214.3575441267
 30
0.0
 11
124.7425295543
 21
212.993465754
 31
0.0
  0
ARC
  5
1F4
330
1F
100
AcDbEntity
  8
0
  6
Continuous
 62
     7
370
    35
100
AcDbCircle
 10
124.1267936476
 20
214.2913837147
 30
0.0
 40
0.3810000000000062
100
AcDbArc
 50
10.0
 51
75.0
  0
LINE
  5
1F5
330
1F
100
AcDbEntity
  8
0
  6
Continuous
 62
     7
370
    35
100
AcDbLine
 10
124.2254033815
 20
214.6594006743
 30
0.0
 11
123.5676149037
 21
214.8356553342
 31
0.0
  0
ARC
  5
1F6
330
1F
100
AcDbEntity
  8
0
  6
Continuous
 62
     7
370
    35
100
AcDbCircle
 10
123.469004471
 20
214.4676377934
 30
0.0
 40
0.3810000000000032
100
AcDbArc
 50
75.0
 51
140.0
  0
LINE
  5
1F7
330
1F
100
AcDbEntity
  8
0
  6
Continuous
 62
     7
370
    35
100
AcDbLine
 10
123.1771411505
 20
214.7125382151
 30
0.0
 11
122.2868032884
 21
213.6514749553
 31
0.0
  0
ARC
  5
1F8
330
1F
100
AcDbEntity
  8
0
  6
Continuous
 62
     7
370
    35
100
AcDbCircle
 10
133.4878385198
 20
250.5428571429
 30
0.0
 40
38.5543413235278
100
AcDbArc
 50
249.3894449719
 51
253.1105550281
  0
LINE
  5
1F9
330
1F
100
AcDbEntity
  8
0
  6
Continuous
 62
     7
370
    35
100
AcDbLine
 10
119.8557496202
 20
215.8400010492
 30
0.0
 11
119.9161673095
 21
214.4561972644
 31
0.0
  0
ARC
  5
1FA
330
1F
100
AcDbEntity
  8
0
  6
Continuous
 62
     7
370
    35
100
AcDbCircle
 10
119.4751118952
 20
215.8233816377
 30
0.0
 40
0.3810000000000095
100
AcDbArc
 50
2.5
 51
67.5
  0
LINE
  5
1FB
330
1F
100
AcDbEntity
  8
0
  6
Continuous
 62
     7
370
    35
100
AcDbLine
 10
119.620913839
 20
216.1753814842
 30
0.0
 11
118.9917579424
 21
216.435984167
 31
0.0
  0
ARC
  5
1FC
330
1F
100
AcDbEntity
  8
0
  6
Continuous
 62
     7
370
    35
100
AcDbCircle
 10
118.8459559699
 20
216.0839865548
 30
0.0
 40
0.381
100
AcDbArc
 50
67.5
 51
132.5
  0
LINE
  5
1FD
330
1F
100
AcDbEntity
  8
0
  6
Continuous
 62
     7
370
    35
100
AcDbLine
 10
118.5885558036
 20
216.364890727
 30
0.0
 11
117.5673373174
 21
215.4291164305
 31
0.0
  0
ARC
  5
1FE
330
1F
100
AcDbEntity
  8
0
  6
Continuous
 62
     7
370
    35
100
AcDbCircle
 10
133.4878385198
 20
250.5428571429
 30
0.0
 40
38.55434132352782
100
AcDbArc
 50
241.8894449719
 51
245.6105550281
  0
LINE
  5
1FF
330
1F
100
AcDbEntity
  8
0
  6
Continuous
 62
     7
370
    35
100
AcDbLine
 10
115.4427427929
 20
217.9162319924
 30
0.0
 11
115.3220210355
 21
216.5363844659
 31
0.0
  0
ARC
  5
200
330
1F
100
AcDbEntity
  8
0
  6
Continuous
 62
     7
370
    35
100
AcDbCircle
 10
115.0631917804
 20
217.9494394126
 30
0.0
 40
0.3810000000000112
100
AcDbArc
 50
355.0
 51
60.0
  0
LINE
  5
201
330
1F
100
AcDbEntity
  8
0
  6
Continuous
 62
     7
370
    35
100
AcDbLine
 10
115.2536917609
 20
218.2793956425
 30
0.0
 11
114.6639336031
 21
218.619890901
 31
0.0
  0
ARC
  5
202
330
1F
100
AcDbEntity
  8
0
  6
Continuous
 62
     7
370
    35
100
AcDbCircle
 10
114.4734341388
 20
218.2899361457
 30
0.0
 40
0.3809999999999883
100
AcDbArc
 50
60.0
 51
125.0
  0
LINE
  5
203
330
1F
100
AcDbEntity
  8
0
  6
Continuous
 62
     7
370
    35
100
AcDbLine
 10
114.2549023163
 20
218.6020318593
 30
0.0
 11
113.1202776116
 21
217.8075615491
 31
0.0
  0
ARC
  5
204
330
1F
100
AcDbEntity
  8
0
  6
Continuous
 62
     7
370
    35
100
AcDbCircle
 10
133.4878385198
 20
250.5428571429
 30
0.0
 40
38.5543413235278
100
AcDbArc
 50
234.3894449719
 51
238.1105550281
  0
LINE
  5
205
330
1F
100
AcDbEntity
  8
0
  6
Continuous
 62
     7
370
    35
100
AcDbLine
 10
111.3384917509
 20
220.5507163133
 30
0.0
 11
111.0386952888
 21
219.1984284844
 31
0.0
  0
ARC
  5
206
330
1F
100
AcDbEntity
  8
0
  6
Continuous
 62
     7
370
    35
100
AcDbCircle
 10
110.9665224797
 20
220.6331796014
 30
0.0
 40
0.3809999999999985
100
AcDbArc
 50
347.5
 51
52.5
  0
LINE
  5
207
330
1F
100
AcDbEntity
  8
0
  6
Continuous
 62
     7
370
    35
100
AcDbLine
 10
111.1984599512
 20
220.9354475315
 30
0.0
 11
110.6581922751
 21
221.3500090118
 31
0.0
  0
ARC
  5
208
330
1F
100
AcDbEntity
  8
0
  6
Continuous
 62
     7
370
    35
100
AcDbCircle
 10
110.4262540385
 20
221.0477421571
 30
0.0
 40
0.380999999999997
100
AcDbArc
 50
52.5
 51
117.5
  0
LINE
  5
209
330
1F
100
AcDbEntity
  8
0
  6
Continuous
 62
     7
370
    35
100
AcDbLine
 10
110.2503270041
 20
221.3856935676
 30
0.0
 11
109.0217094999
 21
220.74611524
 31
0.0
  0
ARC
  5
20A
330
1F
100
AcDbEntity
  8
0
  6
Continuous
 62
     7
370
    35
100
AcDbCircle
 10
133.4878385198
 20
250.5428571429
 30
0.0
 40
38.55434132352779
100
AcDbArc
 50
226.8894449719
 51
230.6105550281
  0
LINE
  5
20B
330
1F
100
AcDbEntity
  8
0
  6
Continuous
 62
     7
370
    35
100
AcDbLine
 10
107.6132219415
 20
223.6983724113
 30
0.0
 11
107.1394823622
 21
222.3967857833
 31
0.0
  0
ARC
  5
20C
330
1F
100
AcDbEntity
  8
0
  6
Continuous
 62
     7
370
    35
100
AcDbCircle
 10
107.2551991404
 20
223.8286826656
 30
0.0
 40
0.3809999999999966
100
AcDbArc
 50
340.0
 51
45.0
  0
LINE
  5
20D
330
1F
100
AcDbEntity
  8
0
  6
Continuous
 62
     7
370
    35
100
AcDbLine
 10
107.5246065986
 20
224.0980904724
 30
0.0
 11
107.0430718493
 21
224.5796252217
 31
0.0
  0
ARC
  5
20E
330
1F
100
AcDbEntity
  8
0
  6
Continuous
 62
     7
370
    35
100
AcDbCircle
 10
106.7736640425
 20
224.3102177635
 30
0.0
 40
0.38099999999999
100
AcDbArc
 50
45.0
 51
110.0
  0
LINE
  5
20F
330
1F
100
AcDbEntity
  8
0
  6
Continuous
 62
     7
370
    35
100
AcDbLine
 10
106.6433537882
 20
224.6682405646
 30
0.0
 11
105.3417671602
 21
224.1945009853
 31
0.0
  0
ARC
  5
210
330
1F
100
AcDbEntity
  8
0
  6
Continuous
 62
     7
370
    35
100
AcDbCircle
 10
133.4878385198
 20
250.5428571429
 30
0.0
 40
38.55434132352778
100
AcDbArc
 50
219.3894449719
 51
223.1105550281
  0
LINE
  5
211
330
1F
100
AcDbEntity
  8
0
  6
Continuous
 62
     7
370
    35
100
AcDbLine
 10
104.3306749445
 20
227.3053456272
 30
0.0
 11
103.6910966169
 21
226.076728123
 31
0.0
  0
ARC
  5
212
330
1F
100
AcDbEntity
  8
0
  6
Continuous
 62
     7
370
    35
100
AcDbCircle
 10
103.992723534
 20
227.4812726616
 30
0.0
 40
0.3810000000000036
100
AcDbArc
 50
332.5
 51
37.5
  0
LINE
  5
213
330
1F
100
AcDbEntity
  8
0
  6
Continuous
 62
     7
370
    35
100
AcDbLine
 10
104.2949903887
 20
227.7132108982
 30
0.0
 11
103.8804289084
 21
228.2534785743
 31
0.0
  0
ARC
  5
214
330
1F
100
AcDbEntity
  8
0
  6
Continuous
 62
     7
370
    35
100
AcDbCircle
 10
103.5781609783
 20
228.0215411028
 30
0.0
 40
0.3810000000000047
100
AcDbArc
 50
37.5
 51
102.5
  0
LINE
  5
215
330
1F
100
AcDbEntity
  8
0
  6
Continuous
 62
     7
370
    35
100
AcDbLine
 10
103.4956976902
 20
228.393510374
 30
0.0
 11
102.1434098613
 21
228.0937139119
 31
0.0
  0
ARC
  5
216
330
1F
100
AcDbEntity
  8
0
  6
Continuous
 62
     7
370
    35
100
AcDbCircle
 10
133.4878385198
 20
250.5428571429
 30
0.0
 40
38.55434132352779
100
AcDbArc
 50
211.8894449719
 51
215.6105550281
  0
LINE
  5
217
330
1F
100
AcDbEntity
  8
0
  6
Continuous
 62
     7
370
    35
100
AcDbLine
 10
101.5470132362
 20
231.3099209394
 30
0.0
 11
100.752542926
 21
230.1752962347
 31
0.0
  0
ARC
  5
218
330
1F
100
AcDbEntity
  8
0
  6
Continuous
 62
     7
370
    35
100
AcDbCircle
 10
101.2349175226
 20
231.5284527619
 30
0.0
 40
0.381
100
AcDbArc
 50
325.0
 51
30.0
  0
LINE
  5
219
330
1F
100
AcDbEntity
  8
0
  6
Continuous
 62
     7
370
    35
100
AcDbLine
 10
101.5648722779
 20
231.7189522262
 30
0.0
 11
101.2243770194
 21
232.3087103839
 31
0.0
  0
ARC
  5
21A
330
1F
100
AcDbEntity
  8
0
  6
Continuous
 62
     7
370
    35
100
AcDbCircle
 10
100.8944207895
 20
232.1182104035
 30
0.0
 40
0.381000000000011
100
AcDbArc
 50
30.0
 51
95.0
  0
LINE
  5
21B
330
1F
100
AcDbEntity
  8
0
  6
Continuous
 62
     7
370
    35
100
AcDbLine
 10
100.8612133693
 20
232.497761416
 30
0.0
 11
99.4813658428
 21
232.3770396586
 31
0.0
  0
ARC
  5
21C
330
1F
100
AcDbEntity
  8
0
  6
Continuous
 62
     7
370
    35
100
AcDbCircle
 10
133.4878385198
 20
250.5428571429
 30
0.0
 40
38.55434132352778
100
AcDbArc
 50
204.3894449719
 51
208.1105550281
  0
LINE
  5
21D
330
1F
100
AcDbEntity
  8
0
  6
Continuous
 62
     7
370
    35
100
AcDbLine
 10
99.3098721039
 20
235.6435744266
 30
0.0
 11
98.3740978074
 21
234.6223559405
 31
0.0
  0
ARC
  5
21E
330
1F
100
AcDbEntity
  8
0
  6
Continuous
 62
     7
370
    35
100
AcDbCircle
 10
99.0289679317
 20
235.900974593
 30
0.0
 40
0.381000000000002
100
AcDbArc
 50
317.5
 51
22.5
  0
LINE
  5
21F
330
1F
100
AcDbEntity
  8
0
  6
Continuous
 62
     7
370
    35
100
AcDbLine
 10
99.3809655439
 20
236.0467765655
 30
0.0
 11
99.1203628611
 21
236.6759324621
 31
0.0
  0
ARC
  5
220
330
1F
100
AcDbEntity
  8
0
  6
Continuous
 62
     7
370
    35
100
AcDbCircle
 10
98.7683630146
 20
236.5301305183
 30
0.0
 40
0.3809999999999953
100
AcDbArc
 50
22.5
 51
87.5
  0
LINE
  5
221
330
1F
100
AcDbEntity
  8
0
  6
Continuous
 62
     7
370
    35
100
AcDbLine
 10
98.7849824261
 20
236.9107682432
 30
0.0
 11
97.4011786413
 21
236.9711859326
 31
0.0
  0
ARC
  5
222
330
1F
100
AcDbEntity
  8
0
  6
Continuous
 62
     7
370
    35
100
AcDbCircle
 10
133.4878385198
 20
250.5428571429
 30
0.0
 40
38.55434132352779
100
AcDbArc
 50
196.8894449719
 51
200.6105550281
  0
LINE
  5
223
330
1F
100
AcDbEntity
  8
0
  6
Continuous
 62
     7
370
    35
100
AcDbLine
 10
97.657519592
 20
240.2321597736
 30
0.0
 11
96.5964563322
 21
239.3418219115
 31
0.0
  0
ARC
  5
224
330
1F
100
AcDbEntity
  8
0
  6
Continuous
 62
     7
370
    35
100
AcDbCircle
 10
97.4126191703
 20
240.5240230941
 30
0.0
 40
0.3810000000000032
100
AcDbArc
 50
310.0
 51
15.0
  0
LINE
  5
225
330
1F
100
AcDbEntity
  8
0
  6
Continuous
 62
     7
370
    35
100
AcDbLine
 10
97.7806367111
 20
240.6226335268
 30
0.0
 11
97.6043820512
 21
241.2804220046
 31
0.0
  0
ARC
  5
226
330
1F
100
AcDbEntity
  8
0
  6
Continuous
 62
     7
370
    35
100
AcDbCircle
 10
97.2363650916
 20
241.1818122707
 30
0.0
 40
0.3809999999999994
100
AcDbArc
 50
15.0
 51
80.0
  0
LINE
  5
227
330
1F
100
AcDbEntity
  8
0
  6
Continuous
 62
     7
370
    35
100
AcDbLine
 10
97.3025255036
 20
241.557023878
 30
0.0
 11
95.9384471309
 21
241.7975481774
 31
0.0
  0
ARC
  5
228
330
1F
100
AcDbEntity
  8
0
  6
Continuous
 62
     7
370
    35
100
AcDbCircle
 10
133.4878385198
 20
250.5428571429
 30
0.0
 40
38.55434132352777
100
AcDbArc
 50
189.3894449719
 51
193.1105550281
  0
LINE
  5
229
330
1F
100
AcDbEntity
  8
0
  6
Continuous
 62
     7
370
    35
100
AcDbLine
 10
96.6182381045
 20
244.9971646245
 30
0.0
 11
95.450039221
 21
244.2529396329
 31
0.0
  0
ARC
  5
22A
330
1F
100
AcDbEntity
  8
0
  6
Continuous
 62
     7
370
    35
100
AcDbCircle
 10
96.4135274139
 20
245.3184966234
 30
0.0
 40
0.3809999999999993
100
AcDbArc
 50
302.5
 51
7.5
  0
LINE
  5
22B
330
1F
100
AcDbEntity
  8
0
  6
Continuous
 62
     7
370
    35
100
AcDbLine
 10
96.791266663
 20
245.368227287
 30
0.0
 11
96.7023812365
 21
246.0433947097
 31
0.0
  0
ARC
  5
22C
330
1F
100
AcDbEntity
  8
0
  6
Continuous
 62
     7
370
    35
100
AcDbCircle
 10
96.3246399298
 20
245.9936640962
 30
0.0
 40
0.3809999999999912
100
AcDbArc
 50
7.5
 51
72.5
  0
LINE
  5
22D
330
1F
100
AcDbEntity
  8
0
  6
Continuous
 62
     7
370
    35
100
AcDbLine
 10
96.4392081034
 20
246.3570301596
 30
0.0
 11
95.1181940865
 21
246.7735441576
 31
0.0
  0
ARC
  5
22E
330
1F
100
AcDbEntity
  8
0
  6
Continuous
 62
     7
370
    35
100
AcDbCircle
 10
133.4878385198
 20
250.5428571429
 30
0.0
 40
38.55434132352777
100
AcDbArc
 50
181.8894449719
 51
185.6105550281
  0
LINE
  5
22F
330
1F
100
AcDbEntity
  8
0
  6
Continuous
 62
     7
370
    35
100
AcDbLine
 10
96.2098047268
 20
249.8570571595
 30
0.0
 11
94.9544601273
 21
249.2716797104
 31
0.0
  0
ARC
  5
230
330
1F
100
AcDbEntity
  8
0
  6
Continuous
 62
     7
370
    35
100
AcDbCircle
 10
96.0487873995
 20
250.2023604097
 30
0.0
 40
0.3810000000000379
100
AcDbArc
 50
295.0
 51
0.0
  0
LINE
  5
231
330
1F
100
AcDbEntity
  8
0
  6
Continuous
 62
     7
370
    35
100
AcDbLine
 10
96.4297868442
 20
250.2023604
 30
0.0
 11
96.4297868442
 21
250.8833538857
 31
0.0
  0
ARC
  5
232
330
1F
100
AcDbEntity
  8
0
  6
Continuous
 62
     7
370
    35
100
AcDbCircle
 10
96.0487873995
 20
250.883353876
 30
0.0
 40
0.3810000000000379
100
AcDbArc
 50
0.0
 51
65.0
  0
LINE
  5
233
330
1F
100
AcDbEntity
  8
0
  6
Continuous
 62
     7
370
    35
100
AcDbLine
 10
96.2098047268
 20
251.2286571262
 30
0.0
 11
94.9544601273
 21
251.8140345754
 31
0.0
  0
ARC
  5
234
330
1F
100
AcDbEntity
  8
0
  6
Continuous
 62
     7
370
    35
100
AcDbCircle
 10
133.4878385198
 20
250.5428571429
 30
0.0
 40
38.55434132352777
100
AcDbArc
 50
174.3894449719
 51
178.1105550281
  0
LINE
  5
235
330
1F
100
AcDbEntity
  8
0
  6
Continuous
 62
     7
370
    35
100
AcDbLine
 10
96.4392081034
 20
254.7286841262
 30
0.0
 11
95.1181940865
 21
254.3121701281
 31
0.0
  0
ARC
  5
236
330
1F
100
AcDbEntity
  8
0
  6
Continuous
 62
     7
370
    35
100
AcDbCircle
 10
96.3246399298
 20
255.0920501895
 30
0.0
 40
0.3810000000000454
100
AcDbArc
 50
287.5
 51
352.5
  0
LINE
  5
237
330
1F
100
AcDbEntity
  8
0
  6
Continuous
 62
     7
370
    35
100
AcDbLine
 10
96.7023812365
 20
255.042319576
 30
0.0
 11
96.791266663
 21
255.7174869988
 31
0.0
  0
ARC
  5
238
330
1F
100
AcDbEntity
  8
0
  6
Continuous
 62
     7
370
    35
100
AcDbCircle
 10
96.4135274139
 20
255.7672176623
 30
0.0
 40
0.3809999999999997
100
AcDbArc
 50
352.5
 51
57.5
  0
LINE
  5
239
330
1F
100
AcDbEntity
  8
0
  6
Continuous
 62
     7
370
    35
100
AcDbLine
 10
96.6182381045
 20
256.0885496612
 30
0.0
 11
95.450039221
 21
256.8327746529
 31
0.0
  0
ARC
  5
23A
330
1F
100
AcDbEntity
  8
0
  6
Continuous
 62
     7
370
    35
100
AcDbCircle
 10
133.4878385198
 20
250.5428571429
 30
0.0
 40
38.55434132352776
100
AcDbArc
 50
166.8894449719
 51
170.6105550281
  0
LINE
  5
23B
330
1F
100
AcDbEntity
  8
0
  6
Continuous
 62
     7
370
    35
100
AcDbLine
 10
97.3025255036
 20
259.5286904077
 30
0.0
 11
95.9384471309
 21
259.2881661083
 31
0.0
  0
ARC
  5
23C
330
1F
100
AcDbEntity
  8
0
  6
Continuous
 62
     7
370
    35
100
AcDbCircle
 10
97.2363650916
 20
259.903902015
 30
0.0
 40
0.3809999999999922
100
AcDbArc
 50
280.0
 51
345.0
  0
LINE
  5
23D
330
1F
100
AcDbEntity
  8
0
  6
Continuous
 62
     7
370
    35
100
AcDbLine
 10
97.6043820512
 20
259.8052922811
 30
0.0
 11
97.7806367111
 21
260.4630807589
 31
0.0
  0
ARC
  5
23E
330
1F
100
AcDbEntity
  8
0
  6
Continuous
 62
     7
370
    35
100
AcDbCircle
 10
97.4126191703
 20
260.5616911917
 30
0.0
 40
0.3810000000000032
100
AcDbArc
 50
345.0
 51
50.0
  0
LINE
  5
23F
330
1F
100
AcDbEntity
  8
0
  6
Continuous
 62
     7
370
    35
100
AcDbLine
 10
97.657519592
 20
260.8535545121
 30
0.0
 11
96.5964563322
 21
261.7438923742
 31
0.0
  0
ARC
  5
240
330
1F
100
AcDbEntity
  8
0
  6
Continuous
 62
     7
370
    35
100
AcDbCircle
 10
133.4878385198
 20
250.5428571429
 30
0.0
 40
38.55434132352776
100
AcDbArc
 50
159.3894449719
 51
163.1105550281
  0
LINE
  5
241
330
1F
100
AcDbEntity
  8
0
  6
Continuous
 62
     7
370
    35
100
AcDbLine
 10
98.7849824261
 20
264.1749460425
 30
0.0
 11
97.4011786413
 21
264.1145283531
 31
0.0
  0
ARC
  5
242
330
1F
100
AcDbEntity
  8
0
  6
Continuous
 62
     7
370
    35
100
AcDbCircle
 10
98.7683630146
 20
264.5555837674
 30
0.0
 40
0.3810000000000231
100
AcDbArc
 50
272.5
 51
337.5
  0
LINE
  5
243
330
1F
100
AcDbEntity
  8
0
  6
Continuous
 62
     7
370
    35
100
AcDbLine
 10
99.1203628611
 20
264.4097818236
 30
0.0
 11
99.3809655439
 21
265.0389377202
 31
0.0
  0
ARC
  5
244
330
1F
100
AcDbEntity
  8
0
  6
Continuous
 62
     7
370
    35
100
AcDbCircle
 10
99.0289679317
 20
265.1847396927
 30
0.0
 40
0.3809999999999991
100
AcDbArc
 50
337.5
 51
42.5
  0
LINE
  5
245
330
1F
100
AcDbEntity
  8
0
  6
Continuous
 62
     7
370
    35
100
AcDbLine
 10
99.3098721039
 20
265.4421398591
 30
0.0
 11
98.3740978074
 21
266.4633583452
 31
0.0
  0
ARC
  5
246
330
1F
100
AcDbEntity
  8
0
  6
Continuous
 62
     7
370
    35
100
AcDbCircle
 10
133.4878385198
 20
250.5428571429
 30
0.0
 40
38.55434132352777
100
AcDbArc
 50
151.8894449719
 51
155.6105550281
  0
LINE
  5
247
330
1F
100
AcDbEntity
  8
0
  6
Continuous
 62
     7
370
    35
100
AcDbLine
 10
100.8612133693
 20
268.5879528697
 30
0.0
 11
99.4813658428
 21
268.7086746271
 31
0.0
  0
ARC
  5
248
330
1F
100
AcDbEntity
  8
0
  6
Continuous
 62
     7
370
    35
100
AcDbCircle
 10
100.8944207895
 20
268.9675038822
 30
0.0
 40
0.3810000000000676
100
AcDbArc
 50
265.0
 51
330.0
  0
LINE
  5
249
330
1F
100
AcDbEntity
  8
0
  6
Continuous
 62
     7
370
    35
100
AcDbLine
 10
101.2243770194
 20
268.7770039018
 30
0.0
 11
101.5648722779
 21
269.3667620595
 31
0.0
  0
ARC
  5
24A
330
1F
100
AcDbEntity
  8
0
  6
Continuous
 62
     7
370
    35
100
AcDbCircle
 10
101.2349175226
 20
269.5572615238
 30
0.0
 40
0.3810000000000163
100
AcDbArc
 50
330.0
 51
35.0
  0
LINE
  5
24B
330
1F
100
AcDbEntity
  8
0
  6
Continuous
 62
     7
370
    35
100
AcDbLine
 10
101.5470132362
 20
269.7757933463
 30
0.0
 11
100.752542926
 21
270.9104180511
 31
0.0
  0
ARC
  5
24C
330
1F
100
AcDbEntity
  8
0
  6
Continuous
 62
     7
370
    35
100
AcDbCircle
 10
133.4878385198
 20
250.5428571429
 30
0.0
 40
38.55434132352776
100
AcDbArc
 50
144.3894449719
 51
148.1105550281
  0
LINE
  5
24D
330
1F
100
AcDbEntity
  8
0
  6
Continuous
 62
     7
370
    35
100
AcDbLine
 10
103.4956976902
 20
272.6922039117
 30
0.0
 11
102.1434098613
 21
272.9920003738
 31
0.0
  0
ARC
  5
24E
330
1F
100
AcDbEntity
  8
0
  6
Continuous
 62
     7
370
    35
100
AcDbCircle
 10
103.5781609783
 20
273.064173183
 30
0.0
 40
0.3810000000000602
100
AcDbArc
 50
257.5
 51
322.5
  0
LINE
  5
24F
330
1F
100
AcDbEntity
  8
0
  6
Continuous
 62
     7
370
    35
100
AcDbLine
 10
103.8804289084
 20
272.8322357114
 30
0.0
 11
104.2949903887
 21
273.3725033875
 31
0.0
  0
ARC
  5
250
330
1F
100
AcDbEntity
  8
0
  6
Continuous
 62
     7
370
    35
100
AcDbCircle
 10
103.992723534
 20
273.6044416241
 30
0.0
 40
0.3810000000000036
100
AcDbArc
 50
322.5
 51
27.5
  0
LINE
  5
251
330
1F
100
AcDbEntity
  8
0
  6
Continuous
 62
     7
370
    35
100
AcDbLine
 10
104.3306749445
 20
273.7803686585
 30
0.0
 11
103.6910966169
 21
275.0089861627
 31
0.0
  0
ARC
  5
252
330
1F
100
AcDbEntity
  8
0
  6
Continuous
 62
     7
370
    35
100
AcDbCircle
 10
133.4878385198
 20
250.5428571429
 30
0.0
 40
38.55434132352778
100
AcDbArc
 50
136.8894449719
 51
140.6105550281
  0
LINE
  5
253
330
1F
100
AcDbEntity
  8
0
  6
Continuous
 62
     7
370
    35
100
AcDbLine
 10
106.6433537882
 20
276.4174737211
 30
0.0
 11
105.3417671602
 21
276.8912133004
 31
0.0
  0
ARC
  5
254
330
1F
100
AcDbEntity
  8
0
  6
Continuous
 62
     7
370
    35
100
AcDbCircle
 10
106.7736640425
 20
276.7754965222
 30
0.0
 40
0.3810000000000015
100
AcDbArc
 50
250.0
 51
315.0
  0
LINE
  5
255
330
1F
100
AcDbEntity
  8
0
  6
Continuous
 62
     7
370
    35
100
AcDbLine
 10
107.0430718493
 20
276.5060890641
 30
0.0
 11
107.5246065986
 21
276.9876238133
 31
0.0
  0
ARC
  5
256
330
1F
100
AcDbEntity
  8
0
  6
Continuous
 62
     7
370
    35
100
AcDbCircle
 10
107.2551991404
 20
277.2570316202
 30
0.0
 40
0.3810000000000102
100
AcDbArc
 50
315.0
 51
20.0
  0
LINE
  5
257
330
1F
100
AcDbEntity
  8
0
  6
Continuous
 62
     7
370
    35
100
AcDbLine
 10
107.6132219415
 20
277.3873418744
 30
0.0
 11
107.1394823622
 21
278.6889285024
 31
0.0
  0
ARC
  5
258
330
1F
100
AcDbEntity
  8
0
  6
Continuous
 62
     7
370
    35
100
AcDbCircle
 10
133.4878385198
 20
250.5428571429
 30
0.0
 40
38.55434132352777
100
AcDbArc
 50
129.3894449719
 51
133.1105550281
  0
LINE
  5
259
330
1F
100
AcDbEntity
  8
0
  6
Continuous
 62
     7
370
    35
100
AcDbLine
 10
110.2503270041
 20
279.7000207181
 30
0.0
 11
109.0217094999
 21
280.3395990457
 31
0.0
  0
ARC
  5
25A
330
1F
100
AcDbEntity
  8
0
  6
Continuous
 62
     7
370
    35
100
AcDbCircle
 10
110.4262540385
 20
280.0379721286
 30
0.0
 40
0.3809999999999917
100
AcDbArc
 50
242.5
 51
307.5
  0
LINE
  5
25B
330
1F
100
AcDbEntity
  8
0
  6
Continuous
 62
     7
370
    35
100
AcDbLine
 10
110.6581922751
 20
279.7357052739
 30
0.0
 11
111.1984599512
 21
280.1502667542
 31
0.0
  0
ARC
  5
25C
330
1F
100
AcDbEntity
  8
0
  6
Continuous
 62
     7
370
    35
100
AcDbCircle
 10
110.9665224797
 20
280.4525346843
 30
0.0
 40
0.3809999999999985
100
AcDbArc
 50
307.5
 51
12.5
  0
LINE
  5
25D
330
1F
100
AcDbEntity
  8
0
  6
Continuous
 62
     7
370
    35
100
AcDbLine
 10
111.3384917509
 20
280.5349979724
 30
0.0
 11
111.0386952888
 21
281.8872858013
 31
0.0
  0
ARC
  5
25E
330
1F
100
AcDbEntity
  8
0
  6
Continuous
 62
     7
370
    35
100
AcDbCircle
 10
133.4878385198
 20
250.5428571429
 30
0.0
 40
38.55434132352774
100
AcDbArc
 50
121.8894449719
 51
125.6105550281
  0
LINE
  5
25F
330
1F
100
AcDbEntity
  8
0
  6
Continuous
 62
     7
370
    35
100
AcDbLine
 10
114.2549023163
 20
282.4836824264
 30
0.0
 11
113.1202776116
 21
283.2781527366
 31
0.0
  0
ARC
  5
260
330
1F
100
AcDbEntity
  8
0
  6
Continuous
 62
     7
370
    35
100
AcDbCircle
 10
114.4734341388
 20
282.79577814
 30
0.0
 40
0.381000000000043
100
AcDbArc
 50
235.0
 51
300.0
  0
LINE
  5
261
330
1F
100
AcDbEntity
  8
0
  6
Continuous
 62
     7
370
    35
100
AcDbLine
 10
114.6639336031
 20
282.4658233847
 30
0.0
 11
115.2536917609
 21
282.8063186433
 31
0.0
  0
ARC
  5
262
330
1F
100
AcDbEntity
  8
0
  6
Continuous
 62
     7
370
    35
100
AcDbCircle
 10
115.0631917804
 20
283.1362748732
 30
0.0
 40
0.3810000000000134
100
AcDbArc
 50
300.0
 51
5.0
  0
LINE
  5
263
330
1F
100
AcDbEntity
  8
0
  6
Continuous
 62
     7
370
    35
100
AcDbLine
 10
115.4427427929
 20
283.1694822933
 30
0.0
 11
115.3220210355
 21
284.5493298198
 31
0.0
  0
ARC
  5
264
330
1F
100
AcDbEntity
  8
0
  6
Continuous
 62
     7
370
    35
100
AcDbCircle
 10
133.4878385198
 20
250.5428571429
 30
0.0
 40
38.55434132352778
100
AcDbArc
 50
114.3894449719
 51
118.1105550281
  0
LINE
  5
265
330
1F
100
AcDbEntity
  8
0
  6
Continuous
 62
     7
370
    35
100
AcDbLine
 10
118.5885558036
 20
284.7208235587
 30
0.0
 11
117.5673373174
 21
285.6565978553
 31
0.0
  0
ARC
  5
266
330
1F
100
AcDbEntity
  8
0
  6
Continuous
 62
     7
370
    35
100
AcDbCircle
 10
118.8459559699
 20
285.001727731
 30
0.0
 40
0.3810000000000192
100
AcDbArc
 50
227.5
 51
292.5
  0
LINE
  5
267
330
1F
100
AcDbEntity
  8
0
  6
Continuous
 62
     7
370
    35
100
AcDbLine
 10
118.9917579424
 20
284.6497301187
 30
0.0
 11
119.620913839
 21
284.9103328015
 31
0.0
  0
ARC
  5
268
330
1F
100
AcDbEntity
  8
0
  6
Continuous
 62
     7
370
    35
100
AcDbCircle
 10
119.4751118952
 20
285.2623326481
 30
0.0
 40
0.3810000000000095
100
AcDbArc
 50
292.5
 51
357.5
  0
LINE
  5
269
330
1F
100
AcDbEntity
  8
0
  6
Continuous
 62
     7
370
    35
100
AcDbLine
 10
119.8557496202
 20
285.2457132365
 30
0.0
 11
119.9161673095
 21
286.6295170213
 31
0.0
  0
ARC
  5
26A
330
1F
100
AcDbEntity
  8
0
  6
Continuous
 62
     7
370
    35
100
AcDbCircle
 10
133.4878385198
 20
250.5428571429
 30
0.0
 40
38.55434132352775
100
AcDbArc
 50
106.8894449719
 51
110.6105550281
  0
LINE
  5
26B
330
1F
100
AcDbEntity
  8
0
  6
Continuous
 62
     7
370
    35
100
AcDbLine
 10
123.1771411505
 20
286.3731760706
 30
0.0
 11
122.2868032884
 21
287.4342393305
 31
0.0
  0
ARC
  5
26C
330
1F
100
AcDbEntity
  8
0
  6
Continuous
 62
     7
370
    35
100
AcDbCircle
 10
123.469004471
 20
286.6180764923
 30
0.0
 40
0.3810000000000141
100
AcDbArc
 50
220.0
 51
285.0
  0
LINE
  5
26D
330
1F
100
AcDbEntity
  8
0
  6
Continuous
 62
     7
370
    35
100
AcDbLine
 10
123.5676149037
 20
286.2500589515
 30
0.0
 11
124.2254033815
 21
286.4263136114
 31
0.0
  0
ARC
  5
26E
330
1F
100
AcDbEntity
  8
0
  6
Continuous
 62
     7
370
    35
100
AcDbCircle
 10
124.1267936476
 20
286.794330571
 30
0.0
 40
0.381000000000016
100
AcDbArc
 50
285.0
 51
350.0
  0
LINE
  5
26F
330
1F
100
AcDbEntity
  8
0
  6
Continuous
 62
     7
370
    35
100
AcDbLine
 10
124.5020052549
 20
286.728170159
 30
0.0
 11
124.7425295543
 21
288.0922485317
 31
0.0
  0
ARC
  5
270
330
1F
100
AcDbEntity
  8
0
  6
Continuous
 62
     7
370
    35
100
AcDbCircle
 10
133.4878385198
 20
250.5428571429
 30
0.0
 40
38.55434132352777
100
AcDbArc
 50
99.3894449719
 51
103.1105550281
  0
LINE
  5
271
330
1F
100
AcDbEntity
  8
0
  6
Continuous
 62
     7
370
    35
100
AcDbLine
 10
127.9421460014
 20
287.4124575581
 30
0.0
 11
127.1979210098
 21
288.5806564416
 31
0.0
  0
ARC
  5
272
330
1F
100
AcDbEntity
  8
0
  6
Continuous
 62
     7
370
    35
100
AcDbCircle
 10
128.2634780003
 20
287.6171682487
 30
0.0
 40
0.3810000000000309
100
AcDbArc
 50
212.5
 51
277.5
  0
LINE
  5
273
330
1F
100
AcDbEntity
  8
0
  6
Continuous
 62
     7
370
    35
100
AcDbLine
 10
128.3132086639
 20
287.2394289996
 30
0.0
 11
128.9883760866
 21
287.3283144261
 31
0.0
  0
ARC
  5
274
330
1F
100
AcDbEntity
  8
0
  6
Continuous
 62
     7
370
    35
100
AcDbCircle
 10
128.9386454731
 20
287.7060557328
 30
0.0
 40
0.380999999999996
100
AcDbArc
 50
277.5
 51
342.5
  0
LINE
  5
275
330
1F
100
AcDbEntity
  8
0
  6
Continuous
 62
     7
370
    35
100
AcDbLine
 10
129.3020115365
 20
287.5914875593
 30
0.0
 11
129.7185255345
 21
288.9125015761
 31
0.0
  0
ARC
  5
276
330
1F
100
AcDbEntity
  8
0
  6
Continuous
 62
     7
370
    35
100
AcDbCircle
 10
133.4878385198
 20
250.5428571429
 30
0.0
 40
38.55434132352774
100
AcDbArc
 50
91.8894449719
 51
95.6105550281
  0
LINE
  5
277
330
1F
100
AcDbEntity
  8
0
  6
Continuous
 62
     7
370
    35
100
AcDbLine
 10
132.8020385364
 20
287.8208909358
 30
0.0
 11
132.2166610873
 21
289.0762355353
 31
0.0
  0
ARC
  5
278
330
1F
100
AcDbEntity
  8
0
  6
Continuous
 62
     7
370
    35
100
AcDbCircle
 10
133.1473417866
 20
287.9819082631
 30
0.0
 40
0.3809999999999864
100
AcDbArc
 50
205.0
 51
270.0
  0
LINE
  5
279
330
1F
100
AcDbEntity
  8
0
  6
Continuous
 62
     7
370
    35
100
AcDbLine
 10
133.1473417769
 20
287.6009088184
 30
0.0
 11
133.8283352626
 21
287.6009088184
 31
0.0
  0
ARC
  5
27A
330
1F
100
AcDbEntity
  8
0
  6
Continuous
 62
     7
370
    35
100
AcDbCircle
 10
133.8283352529
 20
287.9819082631
 30
0.0
 40
0.3810000000000286
100
AcDbArc
 50
270.0
 51
335.0
  0
LINE
  5
27B
330
1F
100
AcDbEntity
  8
0
  6
Continuous
 62
     7
370
    35
100
AcDbLine
 10
134.1736385031
 20
287.8208909358
 30
0.0
 11
134.7590159523
 21
289.0762355353
 31
0.0
  0
ARC
  5
27C
330
1F
100
AcDbEntity
  8
0
  6
Continuous
 62
     7
370
    35
100
AcDbCircle
 10
133.4878385198
 20
250.5428571429
 30
0.0
 40
38.55434132352776
100
AcDbArc
 50
84.3894449719
 51
88.1105550281
  0
LINE
  5
27D
330
1F
100
AcDbEntity
  8
0
  6
Continuous
 62
     7
370
    35
100
AcDbLine
 10
137.6736655031
 20
287.5914875593
 30
0.0
 11
137.257151505
 21
288.9125015761
 31
0.0
  0
ARC
  5
27E
330
1F
100
AcDbEntity
  8
0
  6
Continuous
 62
     7
370
    35
100
AcDbCircle
 10
138.0370315664
 20
287.7060557328
 30
0.0
 40
0.3810000000000225
100
AcDbArc
 50
197.5
 51
262.5
  0
LINE
  5
27F
330
1F
100
AcDbEntity
  8
0
  6
Continuous
 62
     7
370
    35
100
AcDbLine
 10
137.9873009529
 20
287.3283144261
 30
0.0
 11
138.6624683757
 21
287.2394289996
 31
0.0
  0
ARC
  5
280
330
1F
100
AcDbEntity
  8
0
  6
Continuous
 62
     7
370
    35
100
AcDbCircle
 10
138.7121990392
 20
287.6171682487
 30
0.0
 40
0.3809999999999997
100
AcDbArc
 50
262.5
 51
327.5
  0
LINE
  5
281
330
1F
100
AcDbEntity
  8
0
  6
Continuous
 62
     7
370
    35
100
AcDbLine
 10
139.0335310381
 20
287.4124575581
 30
0.0
 11
139.7777560298
 21
288.5806564416
 31
0.0
  0
ARC
  5
282
330
1F
100
AcDbEntity
  8
0
  6
Continuous
 62
     7
370
    35
100
AcDbCircle
 10
133.4878385198
 20
250.5428571429
 30
0.0
 40
38.55434132352775
100
AcDbArc
 50
76.8894449719
 51
80.6105550281
  0
LINE
  5
283
330
1F
100
AcDbEntity
  8
0
  6
Continuous
 62
     7
370
    35
100
AcDbLine
 10
142.4736717847
 20
286.728170159
 30
0.0
 11
142.2331474852
 21
288.0922485317
 31
0.0
  0
ARC
  5
284
330
1F
100
AcDbEntity
  8
0
  6
Continuous
 62
     7
370
    35
100
AcDbCircle
 10
142.8488833919
 20
286.794330571
 30
0.0
 40
0.3810000000000202
100
AcDbArc
 50
190.0
 51
255.0
  0
LINE
  5
285
330
1F
100
AcDbEntity
  8
0
  6
Continuous
 62
     7
370
    35
100
AcDbLine
 10
142.750273658
 20
286.4263136114
 30
0.0
 11
143.4080621358
 21
286.2500589515
 31
0.0
  0
ARC
  5
286
330
1F
100
AcDbEntity
  8
0
  6
Continuous
 62
     7
370
    35
100
AcDbCircle
 10
143.5066725686
 20
286.6180764923
 30
0.0
 40
0.3810000000000032
100
AcDbArc
 50
255.0
 51
320.0
  0
LINE
  5
287
330
1F
100
AcDbEntity
  8
0
  6
Continuous
 62
     7
370
    35
100
AcDbLine
 10
143.798535889
 20
286.3731760706
 30
0.0
 11
144.6888737511
 21
287.4342393305
 31
0.0
  0
ARC
  5
288
330
1F
100
AcDbEntity
  8
0
  6
Continuous
 62
     7
370
    35
100
AcDbCircle
 10
133.4878385198
 20
250.5428571429
 30
0.0
 40
38.55434132352776
100
AcDbArc
 50
69.3894449719
 51
73.1105550281
  0
LINE
  5
289
330
1F
100
AcDbEntity
  8
0
  6
Continuous
 62
     7
370
    35
100
AcDbLine
 10
147.1199274194
 20
285.2457132365
 30
0.0
 11
147.05950973
 21
286.6295170213
 31
0.0
  0
ARC
  5
28A
330
1F
100
AcDbEntity
  8
0
  6
Continuous
 62
     7
370
    35
100
AcDbCircle
 10
147.5005651443
 20
285.2623326481
 30
0.0
 40
0.3809999999999928
100
AcDbArc
 50
182.5
 51
247.5
  0
LINE
  5
28B
330
1F
100
AcDbEntity
  8
0
  6
Continuous
 62
     7
370
    35
100
AcDbLine
 10
147.3547632005
 20
284.9103328015
 30
0.0
 11
147.9839190971
 21
284.6497301187
 31
0.0
  0
ARC
  5
28C
330
1F
100
AcDbEntity
  8
0
  6
Continuous
 62
     7
370
    35
100
AcDbCircle
 10
148.1297210696
 20
285.001727731
 30
0.0
 40
0.3810000000000151
100
AcDbArc
 50
247.5
 51
312.5
  0
LINE
  5
28D
330
1F
100
AcDbEntity
  8
0
  6
Continuous
 62
     7
370
    35
100
AcDbLine
 10
148.387121236
 20
284.7208235587
 30
0.0
 11
149.4083397221
 21
285.6565978553
 31
0.0
  0
ARC
  5
28E
330
1F
100
AcDbEntity
  8
0
  6
Continuous
 62
     7
370
    35
100
AcDbCircle
 10
133.4878385198
 20
250.5428571429
 30
0.0
 40
38.55434132352776
100
AcDbArc
 50
61.8894449719
 51
65.6105550281
  0
LINE
  5
28F
330
1F
100
AcDbEntity
  8
0
  6
Continuous
 62
     7
370
    35
100
AcDbLine
 10
151.5329342466
 20
283.1694822933
 30
0.0
 11
151.653656004
 21
284.5493298198
 31
0.0
  0
ARC
  5
290
330
1F
100
AcDbEntity
  8
0
  6
Continuous
 62
     7
370
    35
100
AcDbCircle
 10
151.9124852591
 20
283.1362748732
 30
0.0
 40
0.3810000000000134
100
AcDbArc
 50
175.0
 51
240.0
  0
LINE
  5
291
330
1F
100
AcDbEntity
  8
0
  6
Continuous
 62
     7
370
    35
100
AcDbLine
 10
151.7219852787
 20
282.8063186433
 30
0.0
 11
152.3117434364
 21
282.4658233847
 31
0.0
  0
ARC
  5
292
330
1F
100
AcDbEntity
  8
0
  6
Continuous
 62
     7
370
    35
100
AcDbCircle
 10
152.5022429007
 20
282.79577814
 30
0.0
 40
0.3809999999999883
100
AcDbArc
 50
240.0
 51
305.0
  0
LINE
  5
293
330
1F
100
AcDbEntity
  8
0
  6
Continuous
 62
     7
370
    35
100
AcDbLine
 10
152.7207747232
 20
282.4836824264
 30
0.0
 11
153.855399428
 21
283.2781527366
 31
0.0
  0
ARC
  5
294
330
1F
100
AcDbEntity
  8
0
  6
Continuous
 62
     7
370
    35
100
AcDbCircle
 10
133.4878385198
 20
250.5428571429
 30
0.0
 40
38.55434132352775
100
AcDbArc
 50
54.3894449719
 51
58.1105550281
  0
LINE
  5
295
330
1F
100
AcDbEntity
  8
0
  6
Continuous
 62
     7
370
    35
100
AcDbLine
 10
155.6371852886
 20
280.5349979724
 30
0.0
 11
155.9369817507
 21
281.8872858013
 31
0.0
  0
ARC
  5
296
330
1F
100
AcDbEntity
  8
0
  6
Continuous
 62
     7
370
    35
100
AcDbCircle
 10
156.0091545599
 20
280.4525346843
 30
0.0
 40
0.3810000000000003
100
AcDbArc
 50
167.5
 51
232.5
  0
LINE
  5
297
330
1F
100
AcDbEntity
  8
0
  6
Continuous
 62
     7
370
    35
100
AcDbLine
 10
155.7772170883
 20
280.1502667542
 30
0.0
 11
156.3174847644
 21
279.7357052739
 31
0.0
  0
ARC
  5
298
330
1F
100
AcDbEntity
  8
0
  6
Continuous
 62
     7
370
    35
100
AcDbCircle
 10
156.5494230011
 20
280.0379721286
 30
0.0
 40
0.3810000000000003
100
AcDbArc
 50
232.5
 51
297.5
  0
LINE
  5
299
330
1F
100
AcDbEntity
  8
0
  6
Continuous
 62
     7
370
    35
100
AcDbLine
 10
156.7253500354
 20
279.7000207181
 30
0.0
 11
157.9539675396
 21
280.3395990457
 31
0.0
  0
ARC
  5
29A
330
1F
100
AcDbEntity
  8
0
  6
Continuous
 62
     7
370
    35
100
AcDbCircle
 10
133.4878385198
 20
250.5428571429
 30
0.0
 40
38.55434132352777
100
AcDbArc
 50
46.8894449719
 51
50.6105550281
  0
LINE
  5
29B
330
1F
100
AcDbEntity
  8
0
  6
Continuous
 62
     7
370
    35
100
AcDbLine
 10
159.362455098
 20
277.3873418744
 30
0.0
 11
159.8361946773
 21
278.6889285024
 31
0.0
  0
ARC
  5
29C
330
1F
100
AcDbEntity
  8
0
  6
Continuous
 62
     7
370
    35
100
AcDbCircle
 10
159.7204778991
 20
277.2570316202
 30
0.0
 40
0.3810000000000161
100
AcDbArc
 50
160.0
 51
225.0
  0
LINE
  5
29D
330
1F
100
AcDbEntity
  8
0
  6
Continuous
 62
     7
370
    35
100
AcDbLine
 10
159.451070441
 20
276.9876238133
 30
0.0
 11
159.9326051902
 21
276.5060890641
 31
0.0
  0
ARC
  5
29E
330
1F
100
AcDbEntity
  8
0
  6
Continuous
 62
     7
370
    35
100
AcDbCircle
 10
160.2020129971
 20
276.7754965222
 30
0.0
 40
0.3809999999999901
100
AcDbArc
 50
225.0
 51
290.0
  0
LINE
  5
29F
330
1F
100
AcDbEntity
  8
0
  6
Continuous
 62
     7
370
    35
100
AcDbLine
 10
160.3323232513
 20
276.4174737211
 30
0.0
 11
161.6339098793
 21
276.8912133004
 31
0.0
  0
ARC
  5
2A0
330
1F
100
AcDbEntity
  8
0
  6
Continuous
 62
     7
370
    35
100
AcDbCircle
 10
133.4878385198
 20
250.5428571429
 30
0.0
 40
38.55434132352775
100
AcDbArc
 50
39.3894449719
 51
43.1105550281
  0
LINE
  5
2A1
330
1F
100
AcDbEntity
  8
0
  6
Continuous
 62
     7
370
    35
100
AcDbLine
 10
162.6450020951
 20
273.7803686585
 30
0.0
 11
163.2845804226
 21
275.0089861627
 31
0.0
  0
ARC
  5
2A2
330
1F
100
AcDbEntity
  8
0
  6
Continuous
 62
     7
370
    35
100
AcDbCircle
 10
162.9829535055
 20
273.6044416241
 30
0.0
 40
0.3810000000000551
100
AcDbArc
 50
152.5
 51
217.5
  0
LINE
  5
2A3
330
1F
100
AcDbEntity
  8
0
  6
Continuous
 62
     7
370
    35
100
AcDbLine
 10
162.6806866508
 20
273.3725033875
 30
0.0
 11
163.0952481311
 21
272.8322357114
 31
0.0
  0
ARC
  5
2A4
330
1F
100
AcDbEntity
  8
0
  6
Continuous
 62
     7
370
    35
100
AcDbCircle
 10
163.3975160612
 20
273.064173183
 30
0.0
 40
0.3810000000000177
100
AcDbArc
 50
217.5
 51
282.5
  0
LINE
  5
2A5
330
1F
100
AcDbEntity
  8
0
  6
Continuous
 62
     7
370
    35
100
AcDbLine
 10
163.4799793493
 20
272.6922039117
 30
0.0
 11
164.8322671783
 21
272.9920003738
 31
0.0
  0
ARC
  5
2A6
330
1F
100
AcDbEntity
  8
0
  6
Continuous
 62
     7
370
    35
100
AcDbCircle
 10
133.4878385198
 20
250.5428571429
 30
0.0
 40
38.55434132352779
100
AcDbArc
 50
31.8894449719
 51
35.6105550281
  0
LINE
  5
2A7
330
1F
100
AcDbEntity
  8
0
  6
Continuous
 62
     7
370
    35
100
AcDbLine
 10
165.4286638033
 20
269.7757933463
 30
0.0
 11
166.2231341135
 21
270.9104180511
 31
0.0
  0
ARC
  5
2A8
330
1F
100
AcDbEntity
  8
0
  6
Continuous
 62
     7
370
    35
100
AcDbCircle
 10
165.7407595169
 20
269.5572615238
 30
0.0
 40
0.3810000000000047
100
AcDbArc
 50
145.0
 51
210.0
  0
LINE
  5
2A9
330
1F
100
AcDbEntity
  8
0
  6
Continuous
 62
     7
370
    35
100
AcDbLine
 10
165.4108047616
 20
269.3667620595
 30
0.0
 11
165.7513000202
 21
268.7770039018
 31
0.0
  0
ARC
  5
2AA
330
1F
100
AcDbEntity
  8
0
  6
Continuous
 62
     7
370
    35
100
AcDbCircle
 10
166.0812562501
 20
268.9675038822
 30
0.0
 40
0.3809999999999795
100
AcDbArc
 50
210.0
 51
275.0
  0
LINE
  5
2AB
330
1F
100
AcDbEntity
  8
0
  6
Continuous
 62
     7
370
    35
100
AcDbLine
 10
166.1144636702
 20
268.5879528697
 30
0.0
 11
167.4943111968
 21
268.7086746271
 31
0.0
  0
ARC
  5
2AC
330
1F
100
AcDbEntity
  8
0
  6
Continuous
 62
     7
370
    35
100
AcDbCircle
 10
133.4878385198
 20
250.5428571429
 30
0.0
 40
38.55434132352776
100
AcDbArc
 50
24.3894449719
 51
28.1105550281
  0
LINE
  5
2AD
330
1F
100
AcDbEntity
  8
0
  6
Continuous
 62
     7
370
    35
100
AcDbLine
 10
167.6658049356
 20
265.4421398591
 30
0.0
 11
168.6015792322
 21
266.4633583452
 31
0.0
  0
ARC
  5
2AE
330
1F
100
AcDbEntity
  8
0
  6
Continuous
 62
     7
370
    35
100
AcDbCircle
 10
167.9467091079
 20
265.1847396927
 30
0.0
 40
0.381000000000048
100
AcDbArc
 50
137.5
 51
202.5
  0
LINE
  5
2AF
330
1F
100
AcDbEntity
  8
0
  6
Continuous
 62
     7
370
    35
100
AcDbLine
 10
167.5947114956
 20
265.0389377202
 30
0.0
 11
167.8553141784
 21
264.4097818236
 31
0.0
  0
ARC
  5
2B0
330
1F
100
AcDbEntity
  8
0
  6
Continuous
 62
     7
370
    35
100
AcDbCircle
 10
168.207314025
 20
264.5555837674
 30
0.0
 40
0.381000000000025
100
AcDbArc
 50
202.5
 51
267.5
  0
LINE
  5
2B1
330
1F
100
AcDbEntity
  8
0
  6
Continuous
 62
     7
370
    35
100
AcDbLine
 10
168.1906946134
 20
264.1749460425
 30
0.0
 11
169.5744983983
 21
264.1145283531
 31
0.0
  0
ARC
  5
2B2
330
1F
100
AcDbEntity
  8
0
  6
Continuous
 62
     7
370
    35
100
AcDbCircle
 10
133.4878385198
 20
250.5428571429
 30
0.0
 40
38.55434132352776
100
AcDbArc
 50
16.8894449719
 51
20.6105550281
  0
LINE
  5
2B3
330
1F
100
AcDbEntity
  8
0
  6
Continuous
 62
     7
370
    35
100
AcDbLine
 10
169.3181574475
 20
260.8535545121
 30
0.0
 11
170.3792207074
 21
261.7438923742
 31
0.0
  0
ARC
  5
2B4
330
1F
100
AcDbEntity
  8
0
  6
Continuous
 62
     7
370
    35
100
AcDbCircle
 10
169.5630578692
 20
260.5616911917
 30
0.0
 40
0.3810000000000032
100
AcDbArc
 50
130.0
 51
195.0
  0
LINE
  5
2B5
330
1F
100
AcDbEntity
  8
0
  6
Continuous
 62
     7
370
    35
100
AcDbLine
 10
169.1950403285
 20
260.4630807589
 30
0.0
 11
169.3712949883
 21
259.8052922811
 31
0.0
  0
ARC
  5
2B6
330
1F
100
AcDbEntity
  8
0
  6
Continuous
 62
     7
370
    35
100
AcDbCircle
 10
169.7393119479
 20
259.903902015
 30
0.0
 40
0.3809999999999994
100
AcDbArc
 50
195.0
 51
260.0
  0
LINE
  5
2B7
330
1F
100
AcDbEntity
  8
0
  6
Continuous
 62
     7
370
    35
100
AcDbLine
 10
169.6731515359
 20
259.5286904077
 30
0.0
 11
171.0372299087
 21
259.2881661083
 31
0.0
  0
ARC
  5
2B8
330
1F
100
AcDbEntity
  8
0
  6
Continuous
 62
     7
370
    35
100
AcDbCircle
 10
133.4878385198
 20
250.5428571429
 30
0.0
 40
38.55434132352777
100
AcDbArc
 50
9.3894449719
 51
13.1105550281
  0
LINE
  5
2B9
330
1F
100
AcDbEntity
  8
0
  6
Continuous
 62
     7
370
    35
100
AcDbLine
 10
170.357438935
 20
256.0885496612
 30
0.0
 11
171.5256378185
 21
256.8327746529
 31
0.0
  0
ARC
  5
2BA
330
1F
100
AcDbEntity
  8
0
  6
Continuous
 62
     7
370
    35
100
AcDbCircle
 10
170.5621496256
 20
255.7672176623
 30
0.0
 40
0.3810000000000157
100
AcDbArc
 50
122.5
 51
187.5
  0
CIRCLE
  5
2BB
330
1F
100
AcDbEntity
  8
0
  6
Continuous
 62
     7
370
    35
100
AcDbCircle
 10
133.4878385198
 20
250.5428571429
 30
0.0
 40
3.0
  0
CIRCLE
  5
2BC
330
1F
100
AcDbEntity
  8
0
  6
Continuous
 62
     7
370
    35
100
AcDbCircle
 10
108.4878385198
 20
250.5428571429
 30
0.0
 40
1.399999999999991
  0
CIRCLE
  5
2BD
330
1F
100
AcDbEntity
  8
0
  6
Continuous
 62
     7
370
    35
100
AcDbCircle
 10
115.8101689901
 20
232.8651876132
 30
0.0
 40
1.400000000000007
  0
CIRCLE
  5
2BE
330
1F
100
AcDbEntity
  8
0
  6
Continuous
 62
     7
370
    35
100
AcDbCircle
 10
115.8101689901
 20
268.2205266725
 30
0.0
 40
1.400000000000027
  0
CIRCLE
  5
2BF
330
1F
100
AcDbEntity
  8
0
  6
Continuous
 62
     7
370
    35
100
AcDbCircle
 10
133.4878385198
 20
275.5428571429
 30
0.0
 40
1.399999999999977
  0
CIRCLE
  5
2C0
330
1F
100
AcDbEntity
  8
0
  6
Continuous
 62
     7
370
    35
100
AcDbCircle
 10
151.1655080494
 20
268.2205266725
 30
0.0
 40
1.400000000000007
  0
CIRCLE
  5
2C1
330
1F
100
AcDbEntity
  8
0
  6
Continuous
 62
     7
370
    35
100
AcDbCircle
 10
158.4878385198
 20
250.5428571429
 30
0.0
 40
1.399999999999977
  0
CIRCLE
  5
2C2
330
1F
100
AcDbEntity
  8
0
  6
Continuous
 62
     7
370
    35
100
AcDbCircle
 10
151.1655080494
 20
232.8651876132
 30
0.0
 40
1.400000000000007
  0
CIRCLE
  5
2C3
330
1F
100
AcDbEntity
  8
0
  6
Continuous
 62
     7
370
    35
100
AcDbCircle
 10
133.4878385198
 20
225.5428571429
 30
0.0
 40
1.400000000000006
  0
LINE
  5
2C4
330
1F
100
AcDbEntity
  8
0
  6
Continuous
 62
     7
370
    35
100
AcDbLine
 10
203.4637884863
 20
234.5176825213
 30
0.0
 11
203.6742270405
 21
233.8700192477
 31
0.0
  0
ARC
  5
2C5
330
1F
100
AcDbEntity
  8
0
  6
Continuous
 62
     7
370
    35
100
AcDbCircle
 10
204.0365795732
 20
233.9877547225
 30
0.0
 40
0.3810000000000114
100
AcDbArc
 50
198.0
 51
263.0
  0
LINE
  5
2C6
330
1F
100
AcDbEntity
  8
0
  6
Continuous
 62
     7
370
    35
100
AcDbLine
 10
203.9901473533
 20
233.6095946388
 30
0.0
 11
205.3436951074
 21
233.4433998721
 31
0.0
  0
ARC
  5
2C7
330
1F
100
AcDbEntity
  8
0
  6
Continuous
 62
     7
370
    35
100
AcDbCircle
 10
189.8641931996
 20
229.7408866995
 30
0.0
 40
15.91614221813655
100
AcDbArc
 50
4.5482578997
 51
13.4517421003
  0
LINE
  5
2C8
330
1F
100
AcDbEntity
  8
0
  6
Continuous
 62
     7
370
    35
100
AcDbLine
 10
204.4942704459
 20
230.4266866995
 30
0.0
 11
205.7302138502
 21
231.003016574
 31
0.0
  0
ARC
  5
2C9
330
1F
100
AcDbEntity
  8
0
  6
Continuous
 62
     7
370
    35
100
AcDbCircle
 10
204.6552880036
 20
230.0813834326
 30
0.0
 40
0.3810000000000122
100
AcDbArc
 50
115.0
 51
180.0
  0
LINE
  5
2CA
330
1F
100
AcDbEntity
  8
0
  6
Continuous
 62
     7
370
    35
100
AcDbLine
 10
204.2742880036
 20
230.0813834326
 30
0.0
 11
204.2742880036
 21
229.4003899664
 31
0.0
  0
ARC
  5
2CB
330
1F
100
AcDbEntity
  8
0
  6
Continuous
 62
     7
370
    35
100
AcDbCircle
 10
204.6552880036
 20
229.4003899664
 30
0.0
 40
0.3810000000000002
100
AcDbArc
 50
180.0
 51
245.0
  0
LINE
  5
2CC
330
1F
100
AcDbEntity
  8
0
  6
Continuous
 62
     7
370
    35
100
AcDbLine
 10
204.4942704459
 20
229.0550866995
 30
0.0
 11
205.7302138502
 21
228.478756825
 31
0.0
  0
ARC
  5
2CD
330
1F
100
AcDbEntity
  8
0
  6
Continuous
 62
     7
370
    35
100
AcDbCircle
 10
189.8641931996
 20
229.7408866995
 30
0.0
 40
15.91614221813657
100
AcDbArc
 50
346.5482578997
 51
355.4517421003
  0
LINE
  5
2CE
330
1F
100
AcDbEntity
  8
0
  6
Continuous
 62
     7
370
    35
100
AcDbLine
 10
203.9901473533
 20
225.8721787602
 30
0.0
 11
205.3436951074
 21
226.0383735269
 31
0.0
  0
ARC
  5
2CF
330
1F
100
AcDbEntity
  8
0
  6
Continuous
 62
     7
370
    35
100
AcDbCircle
 10
204.0365795732
 20
225.4940186765
 30
0.0
 40
0.3810000000000114
100
AcDbArc
 50
97.0
 51
162.0
  0
LINE
  5
2D0
330
1F
100
AcDbEntity
  8
0
  6
Continuous
 62
     7
370
    35
100
AcDbLine
 10
203.6742270405
 20
225.6117541513
 30
0.0
 11
203.4637884863
 21
224.9640908777
 31
0.0
  0
ARC
  5
2D1
330
1F
100
AcDbEntity
  8
0
  6
Continuous
 62
     7
370
    35
100
AcDbCircle
 10
203.826141019
 20
224.8463554028
 30
0.0
 40
0.38099999999999
100
AcDbArc
 50
162.0
 51
227.0
  0
LINE
  5
2D2
330
1F
100
AcDbEntity
  8
0
  6
Continuous
 62
     7
370
    35
100
AcDbLine
 10
203.5662996439
 20
224.5677096425
 30
0.0
 11
204.5636559467
 21
223.6376598438
 31
0.0
  0
ARC
  5
2D3
330
1F
100
AcDbEntity
  8
0
  6
Continuous
 62
     7
370
    35
100
AcDbCircle
 10
189.8641931996
 20
229.7408866995
 30
0.0
 40
15.91614221813657
100
AcDbArc
 50
328.5482578997
 51
337.4517421003
  0
LINE
  5
2D4
330
1F
100
AcDbEntity
  8
0
  6
Continuous
 62
     7
370
    35
100
AcDbLine
 10
202.1032774469
 20
221.696366909
 30
0.0
 11
203.4419348658
 21
221.436158266
 31
0.0
  0
ARC
  5
2D5
330
1F
100
AcDbEntity
  8
0
  6
Continuous
 62
     7
370
    35
100
AcDbCircle
 10
202.0305792197
 20
221.3223669521
 30
0.0
 40
0.3809999999999984
100
AcDbArc
 50
79.0
 51
144.0
  0
LINE
  5
2D6
330
1F
100
AcDbEntity
  8
0
  6
Continuous
 62
     7
370
    35
100
AcDbLine
 10
201.7223437448
 20
221.5463131332
 30
0.0
 11
201.3220658284
 21
220.9953778459
 31
0.0
  0
ARC
  5
2D7
330
1F
100
AcDbEntity
  8
0
  6
Continuous
 62
     7
370
    35
100
AcDbCircle
 10
201.6303013033
 20
220.7714316648
 30
0.0
 40
0.3810000000000106
100
AcDbArc
 50
144.0
 51
209.0
  0
LINE
  5
2D8
330
1F
100
AcDbEntity
  8
0
  6
Continuous
 62
     7
370
    35
100
AcDbLine
 10
201.2970711949
 20
220.5867191995
 30
0.0
 11
201.9582122124
 21
219.3939892309
 31
0.0
  0
ARC
  5
2D9
330
1F
100
AcDbEntity
  8
0
  6
Continuous
 62
     7
370
    35
100
AcDbCircle
 10
189.8641931996
 20
229.7408866995
 30
0.0
 40
15.91614221813656
100
AcDbArc
 50
310.5482578997
 51
319.4517421003
  0
LINE
  5
2DA
330
1F
100
AcDbEntity
  8
0
  6
Continuous
 62
     7
370
    35
100
AcDbLine
 10
199.0183606996
 20
218.3080087042
 30
0.0
 11
200.2110906682
 21
217.6468676867
 31
0.0
  0
ARC
  5
2DB
330
1F
100
AcDbEntity
  8
0
  6
Continuous
 62
     7
370
    35
100
AcDbCircle
 10
198.8336482343
 20
217.9747785958
 30
0.0
 40
0.3810000000000106
100
AcDbArc
 50
61.0
 51
126.0
  0
LINE
  5
2DC
330
1F
100
AcDbEntity
  8
0
  6
Continuous
 62
     7
370
    35
100
AcDbLine
 10
198.6097020532
 20
218.2830140707
 30
0.0
 11
198.0587667659
 21
217.8827361543
 31
0.0
  0
ARC
  5
2DD
330
1F
100
AcDbEntity
  8
0
  6
Continuous
 62
     7
370
    35
100
AcDbCircle
 10
198.282712947
 20
217.5745006794
 30
0.0
 40
0.3810000000000336
100
AcDbArc
 50
126.0
 51
191.0
  0
LINE
  5
2DE
330
1F
100
AcDbEntity
  8
0
  6
Continuous
 62
     7
370
    35
100
AcDbLine
 10
197.9087129901
 20
217.5018024522
 30
0.0
 11
198.168921633
 21
216.1631450333
 31
0.0
  0
ARC
  5
2DF
330
1F
100
AcDbEntity
  8
0
  6
Continuous
 62
     7
370
    35
100
AcDbCircle
 10
189.8641931996
 20
229.7408866995
 30
0.0
 40
15.91614221813656
100
AcDbArc
 50
292.5482578997
 51
301.4517421003
  0
LINE
  5
2E0
330
1F
100
AcDbEntity
  8
0
  6
Continuous
 62
     7
370
    35
100
AcDbLine
 10
195.0373702566
 20
216.0387802552
 30
0.0
 11
195.9674200553
 21
215.0414239523
 31
0.0
  0
ARC
  5
2E1
330
1F
100
AcDbEntity
  8
0
  6
Continuous
 62
     7
370
    35
100
AcDbCircle
 10
194.7587244963
 20
215.77893888
 30
0.0
 40
0.3810000000000036
100
AcDbArc
 50
43.0
 51
108.0
  0
LINE
  5
2E2
330
1F
100
AcDbEntity
  8
0
  6
Continuous
 62
     7
370
    35
100
AcDbLine
 10
194.6409890214
 20
216.1412914127
 30
0.0
 11
193.9933257477
 21
215.9308528586
 31
0.0
  0
ARC
  5
2E3
330
1F
100
AcDbEntity
  8
0
  6
Continuous
 62
     7
370
    35
100
AcDbCircle
 10
194.1110612226
 20
215.5685003259
 30
0.0
 40
0.3810000000000149
100
AcDbArc
 50
108.0
 51
173.0
  0
LINE
  5
2E4
330
1F
100
AcDbEntity
  8
0
  6
Continuous
 62
     7
370
    35
100
AcDbLine
 10
193.7329011388
 20
215.6149325457
 30
0.0
 11
193.5667063722
 21
214.2613847917
 31
0.0
  0
ARC
  5
2E5
330
1F
100
AcDbEntity
  8
0
  6
Continuous
 62
     7
370
    35
100
AcDbCircle
 10
189.8641931996
 20
229.7408866995
 30
0.0
 40
15.91614221813656
100
AcDbArc
 50
274.5482578997
 51
283.4517421003
  0
LINE
  5
2E6
330
1F
100
AcDbEntity
  8
0
  6
Continuous
 62
     7
370
    35
100
AcDbLine
 10
190.5499931996
 20
215.1108094532
 30
0.0
 11
191.1263230741
 21
213.8748660488
 31
0.0
  0
ARC
  5
2E7
330
1F
100
AcDbEntity
  8
0
  6
Continuous
 62
     7
370
    35
100
AcDbCircle
 10
190.2046899327
 20
214.9497918954
 30
0.0
 40
0.3810000000000002
100
AcDbArc
 50
25.0
 51
90.0
  0
LINE
  5
2E8
330
1F
100
AcDbEntity
  8
0
  6
Continuous
 62
     7
370
    35
100
AcDbLine
 10
190.2046899327
 20
215.3307918954
 30
0.0
 11
189.5236964664
 21
215.3307918954
 31
0.0
  0
ARC
  5
2E9
330
1F
100
AcDbEntity
  8
0
  6
Continuous
 62
     7
370
    35
100
AcDbCircle
 10
189.5236964664
 20
214.9497918954
 30
0.0
 40
0.3810000000000002
100
AcDbArc
 50
90.0
 51
155.0
  0
LINE
  5
2EA
330
1F
100
AcDbEntity
  8
0
  6
Continuous
 62
     7
370
    35
100
AcDbLine
 10
189.1783931996
 20
215.1108094532
 30
0.0
 11
188.6020633251
 21
213.8748660488
 31
0.0
  0
ARC
  5
2EB
330
1F
100
AcDbEntity
  8
0
  6
Continuous
 62
     7
370
    35
100
AcDbCircle
 10
189.8641931996
 20
229.7408866995
 30
0.0
 40
15.91614221813656
100
AcDbArc
 50
256.5482578997
 51
265.4517421003
  0
LINE
  5
2EC
330
1F
100
AcDbEntity
  8
0
  6
Continuous
 62
     7
370
    35
100
AcDbLine
 10
185.9954852603
 20
215.6149325457
 30
0.0
 11
186.1616800269
 21
214.2613847917
 31
0.0
  0
ARC
  5
2ED
330
1F
100
AcDbEntity
  8
0
  6
Continuous
 62
     7
370
    35
100
AcDbCircle
 10
185.6173251765
 20
215.5685003259
 30
0.0
 40
0.3810000000000036
100
AcDbArc
 50
7.0
 51
72.0
  0
LINE
  5
2EE
330
1F
100
AcDbEntity
  8
0
  6
Continuous
 62
     7
370
    35
100
AcDbLine
 10
185.7350606514
 20
215.9308528586
 30
0.0
 11
185.0873973777
 21
216.1412914127
 31
0.0
  0
ARC
  5
2EF
330
1F
100
AcDbEntity
  8
0
  6
Continuous
 62
     7
370
    35
100
AcDbCircle
 10
184.9696619029
 20
215.77893888
 30
0.0
 40
0.3810000000000108
100
AcDbArc
 50
72.0
 51
137.0
  0
LINE
  5
2F0
330
1F
100
AcDbEntity
  8
0
  6
Continuous
 62
     7
370
    35
100
AcDbLine
 10
184.6910161426
 20
216.0387802552
 30
0.0
 11
183.7609663439
 21
215.0414239523
 31
0.0
  0
ARC
  5
2F1
330
1F
100
AcDbEntity
  8
0
  6
Continuous
 62
     7
370
    35
100
AcDbCircle
 10
189.8641931996
 20
229.7408866995
 30
0.0
 40
15.91614221813658
100
AcDbArc
 50
238.5482578997
 51
247.4517421003
  0
LINE
  5
2F2
330
1F
100
AcDbEntity
  8
0
  6
Continuous
 62
     7
370
    35
100
AcDbLine
 10
181.819673409
 20
217.5018024522
 30
0.0
 11
181.5594647661
 21
216.1631450333
 31
0.0
  0
ARC
  5
2F3
330
1F
100
AcDbEntity
  8
0
  6
Continuous
 62
     7
370
    35
100
AcDbCircle
 10
181.4456734521
 20
217.5745006794
 30
0.0
 40
0.3809999999999984
100
AcDbArc
 50
349.0
 51
54.0
  0
LINE
  5
2F4
330
1F
100
AcDbEntity
  8
0
  6
Continuous
 62
     7
370
    35
100
AcDbLine
 10
181.6696196332
 20
217.8827361543
 30
0.0
 11
181.118684346
 21
218.2830140707
 31
0.0
  0
ARC
  5
2F5
330
1F
100
AcDbEntity
  8
0
  6
Continuous
 62
     7
370
    35
100
AcDbCircle
 10
180.8947381648
 20
217.9747785958
 30
0.0
 40
0.3809999999999939
100
AcDbArc
 50
54.0
 51
119.0
  0
LINE
  5
2F6
330
1F
100
AcDbEntity
  8
0
  6
Continuous
 62
     7
370
    35
100
AcDbLine
 10
180.7100256995
 20
218.3080087042
 30
0.0
 11
179.517295731
 21
217.6468676867
 31
0.0
  0
ARC
  5
2F7
330
1F
100
AcDbEntity
  8
0
  6
Continuous
 62
     7
370
    35
100
AcDbCircle
 10
189.8641931996
 20
229.7408866995
 30
0.0
 40
15.91614221813659
100
AcDbArc
 50
220.5482578997
 51
229.4517421003
  0
LINE
  5
2F8
330
1F
100
AcDbEntity
  8
0
  6
Continuous
 62
     7
370
    35
100
AcDbLine
 10
178.4313152043
 20
220.5867191995
 30
0.0
 11
177.7701741868
 21
219.3939892309
 31
0.0
  0
ARC
  5
2F9
330
1F
100
AcDbEntity
  8
0
  6
Continuous
 62
     7
370
    35
100
AcDbCircle
 10
178.0980850959
 20
220.7714316648
 30
0.0
 40
0.3810000000000106
100
AcDbArc
 50
331.0
 51
36.0
  0
LINE
  5
2FA
330
1F
100
AcDbEntity
  8
0
  6
Continuous
 62
     7
370
    35
100
AcDbLine
 10
178.4063205707
 20
220.9953778459
 30
0.0
 11
178.0060426543
 21
221.5463131332
 31
0.0
  0
ARC
  5
2FB
330
1F
100
AcDbEntity
  8
0
  6
Continuous
 62
     7
370
    35
100
AcDbCircle
 10
177.6978071795
 20
221.3223669521
 30
0.0
 40
0.3809999999999984
100
AcDbArc
 50
36.0
 51
101.0
  0
LINE
  5
2FC
330
1F
100
AcDbEntity
  8
0
  6
Continuous
 62
     7
370
    35
100
AcDbLine
 10
177.6251089522
 20
221.696366909
 30
0.0
 11
176.2864515334
 21
221.436158266
 31
0.0
  0
ARC
  5
2FD
330
1F
100
AcDbEntity
  8
0
  6
Continuous
 62
     7
370
    35
100
AcDbCircle
 10
189.8641931996
 20
229.7408866995
 30
0.0
 40
15.9161422181366
100
AcDbArc
 50
202.5482578997
 51
211.4517421003
  0
LINE
  5
2FE
330
1F
100
AcDbEntity
  8
0
  6
Continuous
 62
     7
370
    35
100
AcDbLine
 10
176.1620867553
 20
224.5677096425
 30
0.0
 11
175.1647304524
 21
223.6376598438
 31
0.0
  0
ARC
  5
2FF
330
1F
100
AcDbEntity
  8
0
  6
Continuous
 62
     7
370
    35
100
AcDbCircle
 10
175.9022453801
 20
224.8463554028
 30
0.0
 40
0.3810000000000108
100
AcDbArc
 50
313.0
 51
18.0
  0
LINE
  5
300
330
1F
100
AcDbEntity
  8
0
  6
Continuous
 62
     7
370
    35
100
AcDbLine
 10
176.2645979128
 20
224.9640908777
 30
0.0
 11
176.0541593587
 21
225.6117541513
 31
0.0
  0
ARC
  5
301
330
1F
100
AcDbEntity
  8
0
  6
Continuous
 62
     7
370
    35
100
AcDbCircle
 10
175.691806826
 20
225.4940186765
 30
0.0
 40
0.3810000000000397
100
AcDbArc
 50
18.0
 51
83.0
  0
LINE
  5
302
330
1F
100
AcDbEntity
  8
0
  6
Continuous
 62
     7
370
    35
100
AcDbLine
 10
175.7382390458
 20
225.8721787602
 30
0.0
 11
174.3846912917
 21
226.0383735269
 31
0.0
  0
ARC
  5
303
330
1F
100
AcDbEntity
  8
0
  6
Continuous
 62
     7
370
    35
100
AcDbCircle
 10
189.8641931996
 20
229.7408866995
 30
0.0
 40
15.91614221813659
100
AcDbArc
 50
184.5482578997
 51
193.4517421003
  0
LINE
  5
304
330
1F
100
AcDbEntity
  8
0
  6
Continuous
 62
     7
370
    35
100
AcDbLine
 10
175.2341159532
 20
229.0550866995
 30
0.0
 11
173.9981725489
 21
228.478756825
 31
0.0
  0
ARC
  5
305
330
1F
100
AcDbEntity
  8
0
  6
Continuous
 62
     7
370
    35
100
AcDbCircle
 10
175.0730983955
 20
229.4003899664
 30
0.0
 40
0.3810000000000002
100
AcDbArc
 50
295.0
 51
0.0
  0
LINE
  5
306
330
1F
100
AcDbEntity
  8
0
  6
Continuous
 62
     7
370
    35
100
AcDbLine
 10
175.4540983955
 20
229.4003899664
 30
0.0
 11
175.4540983955
 21
230.0813834326
 31
0.0
  0
ARC
  5
307
330
1F
100
AcDbEntity
  8
0
  6
Continuous
 62
     7
370
    35
100
AcDbCircle
 10
175.0730983955
 20
230.0813834326
 30
0.0
 40
0.3810000000000122
100
AcDbArc
 50
0.0
 51
65.0
  0
LINE
  5
308
330
1F
100
AcDbEntity
  8
0
  6
Continuous
 62
     7
370
    35
100
AcDbLine
 10
175.2341159532
 20
230.4266866995
 30
0.0
 11
173.9981725489
 21
231.003016574
 31
0.0
  0
ARC
  5
309
330
1F
100
AcDbEntity
  8
0
  6
Continuous
 62
     7
370
    35
100
AcDbCircle
 10
189.8641931996
 20
229.7408866995
 30
0.0
 40
15.91614221813658
100
AcDbArc
 50
166.5482578997
 51
175.4517421003
  0
LINE
  5
30A
330
1F
100
AcDbEntity
  8
0
  6
Continuous
 62
     7
370
    35
100
AcDbLine
 10
175.7382390458
 20
233.6095946388
 30
0.0
 11
174.3846912917
 21
233.4433998721
 31
0.0
  0
ARC
  5
30B
330
1F
100
AcDbEntity
  8
0
  6
Continuous
 62
     7
370
    35
100
AcDbCircle
 10
175.691806826
 20
233.9877547225
 30
0.0
 40
0.3810000000000036
100
AcDbArc
 50
277.0
 51
342.0
  0
LINE
  5
30C
330
1F
100
AcDbEntity
  8
0
  6
Continuous
 62
     7
370
    35
100
AcDbLine
 10
176.0541593587
 20
233.8700192477
 30
0.0
 11
176.2645979128
 21
234.5176825213
 31
0.0
  0
ARC
  5
30D
330
1F
100
AcDbEntity
  8
0
  6
Continuous
 62
     7
370
    35
100
AcDbCircle
 10
175.9022453801
 20
234.6354179962
 30
0.0
 40
0.38099999999999
100
AcDbArc
 50
342.0
 51
47.0
  0
LINE
  5
30E
330
1F
100
AcDbEntity
  8
0
  6
Continuous
 62
     7
370
    35
100
AcDbLine
 10
176.1620867553
 20
234.9140637565
 30
0.0
 11
175.1647304524
 21
235.8441135552
 31
0.0
  0
ARC
  5
30F
330
1F
100
AcDbEntity
  8
0
  6
Continuous
 62
     7
370
    35
100
AcDbCircle
 10
189.8641931996
 20
229.7408866995
 30
0.0
 40
15.91614221813658
100
AcDbArc
 50
148.5482578997
 51
157.4517421003
  0
LINE
  5
310
330
1F
100
AcDbEntity
  8
0
  6
Continuous
 62
     7
370
    35
100
AcDbLine
 10
177.6251089522
 20
237.7854064901
 30
0.0
 11
176.2864515334
 21
238.045615133
 31
0.0
  0
ARC
  5
311
330
1F
100
AcDbEntity
  8
0
  6
Continuous
 62
     7
370
    35
100
AcDbCircle
 10
177.6978071795
 20
238.159406447
 30
0.0
 40
0.3809999999999984
100
AcDbArc
 50
259.0
 51
324.0
  0
LINE
  5
312
330
1F
100
AcDbEntity
  8
0
  6
Continuous
 62
     7
370
    35
100
AcDbLine
 10
178.0060426543
 20
237.9354602658
 30
0.0
 11
178.4063205707
 21
238.4863955531
 31
0.0
  0
ARC
  5
313
330
1F
100
AcDbEntity
  8
0
  6
Continuous
 62
     7
370
    35
100
AcDbCircle
 10
178.0980850959
 20
238.7103417342
 30
0.0
 40
0.3810000000000238
100
AcDbArc
 50
324.0
 51
29.0
  0
LINE
  5
314
330
1F
100
AcDbEntity
  8
0
  6
Continuous
 62
     7
370
    35
100
AcDbLine
 10
178.4313152043
 20
238.8950541995
 30
0.0
 11
177.7701741868
 21
240.0877841681
 31
0.0
  0
ARC
  5
315
330
1F
100
AcDbEntity
  8
0
  6
Continuous
 62
     7
370
    35
100
AcDbCircle
 10
189.8641931996
 20
229.7408866995
 30
0.0
 40
15.91614221813659
100
AcDbArc
 50
130.5482578997
 51
139.4517421003
  0
LINE
  5
316
330
1F
100
AcDbEntity
  8
0
  6
Continuous
 62
     7
370
    35
100
AcDbLine
 10
180.7100256995
 20
241.1737646948
 30
0.0
 11
179.517295731
 21
241.8349057123
 31
0.0
  0
ARC
  5
317
330
1F
100
AcDbEntity
  8
0
  6
Continuous
 62
     7
370
    35
100
AcDbCircle
 10
180.8947381648
 20
241.5069948032
 30
0.0
 40
0.380999999999974
100
AcDbArc
 50
241.0
 51
306.0
  0
LINE
  5
318
330
1F
100
AcDbEntity
  8
0
  6
Continuous
 62
     7
370
    35
100
AcDbLine
 10
181.118684346
 20
241.1987593284
 30
0.0
 11
181.6696196332
 21
241.5990372447
 31
0.0
  0
ARC
  5
319
330
1F
100
AcDbEntity
  8
0
  6
Continuous
 62
     7
370
    35
100
AcDbCircle
 10
181.4456734521
 20
241.9072727196
 30
0.0
 40
0.3809999999999984
100
AcDbArc
 50
306.0
 51
11.0
  0
LINE
  5
31A
330
1F
100
AcDbEntity
  8
0
  6
Continuous
 62
     7
370
    35
100
AcDbLine
 10
181.819673409
 20
241.9799709468
 30
0.0
 11
181.5594647661
 21
243.3186283657
 31
0.0
  0
ARC
  5
31B
330
1F
100
AcDbEntity
  8
0
  6
Continuous
 62
     7
370
    35
100
AcDbCircle
 10
189.8641931996
 20
229.7408866995
 30
0.0
 40
15.91614221813658
100
AcDbArc
 50
112.5482578997
 51
121.4517421003
  0
LINE
  5
31C
330
1F
100
AcDbEntity
  8
0
  6
Continuous
 62
     7
370
    35
100
AcDbLine
 10
184.6910161426
 20
243.4429931438
 30
0.0
 11
183.7609663439
 21
244.4403494467
 31
0.0
  0
ARC
  5
31D
330
1F
100
AcDbEntity
  8
0
  6
Continuous
 62
     7
370
    35
100
AcDbCircle
 10
184.9696619029
 20
243.702834519
 30
0.0
 40
0.3810000000000108
100
AcDbArc
 50
223.0
 51
288.0
  0
LINE
  5
31E
330
1F
100
AcDbEntity
  8
0
  6
Continuous
 62
     7
370
    35
100
AcDbLine
 10
185.0873973777
 20
243.3404819863
 30
0.0
 11
185.7350606514
 21
243.5509205404
 31
0.0
  0
ARC
  5
31F
330
1F
100
AcDbEntity
  8
0
  6
Continuous
 62
     7
370
    35
100
AcDbCircle
 10
185.6173251765
 20
243.9132730731
 30
0.0
 40
0.3810000000000036
100
AcDbArc
 50
288.0
 51
353.0
  0
LINE
  5
320
330
1F
100
AcDbEntity
  8
0
  6
Continuous
 62
     7
370
    35
100
AcDbLine
 10
185.9954852603
 20
243.8668408533
 30
0.0
 11
186.1616800269
 21
245.2203886073
 31
0.0
  0
ARC
  5
321
330
1F
100
AcDbEntity
  8
0
  6
Continuous
 62
     7
370
    35
100
AcDbCircle
 10
189.8641931996
 20
229.7408866995
 30
0.0
 40
15.91614221813659
100
AcDbArc
 50
94.5482578997
 51
103.4517421003
  0
LINE
  5
322
330
1F
100
AcDbEntity
  8
0
  6
Continuous
 62
     7
370
    35
100
AcDbLine
 10
189.1783931996
 20
244.3709639458
 30
0.0
 11
188.6020633251
 21
245.6069073502
 31
0.0
  0
ARC
  5
323
330
1F
100
AcDbEntity
  8
0
  6
Continuous
 62
     7
370
    35
100
AcDbCircle
 10
189.5236964664
 20
244.5319815036
 30
0.0
 40
0.3810000000000122
100
AcDbArc
 50
205.0
 51
270.0
  0
LINE
  5
324
330
1F
100
AcDbEntity
  8
0
  6
Continuous
 62
     7
370
    35
100
AcDbLine
 10
189.5236964664
 20
244.1509815036
 30
0.0
 11
190.2046899327
 21
244.1509815036
 31
0.0
  0
ARC
  5
325
330
1F
100
AcDbEntity
  8
0
  6
Continuous
 62
     7
370
    35
100
AcDbCircle
 10
190.2046899327
 20
244.5319815036
 30
0.0
 40
0.3810000000000242
100
AcDbArc
 50
270.0
 51
335.0
  0
LINE
  5
326
330
1F
100
AcDbEntity
  8
0
  6
Continuous
 62
     7
370
    35
100
AcDbLine
 10
190.5499931996
 20
244.3709639458
 30
0.0
 11
191.1263230741
 21
245.6069073502
 31
0.0
  0
ARC
  5
327
330
1F
100
AcDbEntity
  8
0
  6
Continuous
 62
     7
370
    35
100
AcDbCircle
 10
189.8641931996
 20
229.7408866995
 30
0.0
 40
15.91614221813657
100
AcDbArc
 50
76.5482578997
 51
85.4517421003
  0
LINE
  5
328
330
1F
100
AcDbEntity
  8
0
  6
Continuous
 62
     7
370
    35
100
AcDbLine
 10
193.7329011388
 20
243.8668408533
 30
0.0
 11
193.5667063722
 21
245.2203886073
 31
0.0
  0
ARC
  5
329
330
1F
100
AcDbEntity
  8
0
  6
Continuous
 62
     7
370
    35
100
AcDbCircle
 10
194.1110612226
 20
243.9132730731
 30
0.0
 40
0.3810000000000036
100
AcDbArc
 50
187.0
 51
252.0
  0
LINE
  5
32A
330
1F
100
AcDbEntity
  8
0
  6
Continuous
 62
     7
370
    35
100
AcDbLine
 10
193.9933257477
 20
243.5509205404
 30
0.0
 11
194.6409890214
 21
243.3404819863
 31
0.0
  0
ARC
  5
32B
330
1F
100
AcDbEntity
  8
0
  6
Continuous
 62
     7
370
    35
100
AcDbCircle
 10
194.7587244963
 20
243.702834519
 30
0.0
 40
0.3809999999999766
100
AcDbArc
 50
252.0
 51
317.0
  0
LINE
  5
32C
330
1F
100
AcDbEntity
  8
0
  6
Continuous
 62
     7
370
    35
100
AcDbLine
 10
195.0373702566
 20
243.4429931438
 30
0.0
 11
195.9674200553
 21
244.4403494467
 31
0.0
  0
ARC
  5
32D
330
1F
100
AcDbEntity
  8
0
  6
Continuous
 62
     7
370
    35
100
AcDbCircle
 10
189.8641931996
 20
229.7408866995
 30
0.0
 40
15.91614221813656
100
AcDbArc
 50
58.5482578997
 51
67.4517421003
  0
LINE
  5
32E
330
1F
100
AcDbEntity
  8
0
  6
Continuous
 62
     7
370
    35
100
AcDbLine
 10
197.9087129901
 20
241.9799709468
 30
0.0
 11
198.168921633
 21
243.3186283657
 31
0.0
  0
ARC
  5
32F
330
1F
100
AcDbEntity
  8
0
  6
Continuous
 62
     7
370
    35
100
AcDbCircle
 10
198.282712947
 20
241.9072727196
 30
0.0
 40
0.3810000000000169
100
AcDbArc
 50
169.0
 51
234.0
  0
LINE
  5
330
330
1F
100
AcDbEntity
  8
0
  6
Continuous
 62
     7
370
    35
100
AcDbLine
 10
198.0587667659
 20
241.5990372447
 30
0.0
 11
198.6097020532
 21
241.1987593284
 31
0.0
  0
ARC
  5
331
330
1F
100
AcDbEntity
  8
0
  6
Continuous
 62
     7
370
    35
100
AcDbCircle
 10
198.8336482343
 20
241.5069948032
 30
0.0
 40
0.380999999999999
100
AcDbArc
 50
234.0
 51
299.0
  0
LINE
  5
332
330
1F
100
AcDbEntity
  8
0
  6
Continuous
 62
     7
370
    35
100
AcDbLine
 10
199.0183606996
 20
241.1737646948
 30
0.0
 11
200.2110906682
 21
241.8349057123
 31
0.0
  0
ARC
  5
333
330
1F
100
AcDbEntity
  8
0
  6
Continuous
 62
     7
370
    35
100
AcDbCircle
 10
189.8641931996
 20
229.7408866995
 30
0.0
 40
15.91614221813656
100
AcDbArc
 50
40.5482578997
 51
49.4517421003
  0
LINE
  5
334
330
1F
100
AcDbEntity
  8
0
  6
Continuous
 62
     7
370
    35
100
AcDbLine
 10
201.2970711949
 20
238.8950541995
 30
0.0
 11
201.9582122124
 21
240.0877841681
 31
0.0
  0
ARC
  5
335
330
1F
100
AcDbEntity
  8
0
  6
Continuous
 62
     7
370
    35
100
AcDbCircle
 10
201.6303013033
 20
238.7103417342
 30
0.0
 40
0.3810000000000238
100
AcDbArc
 50
151.0
 51
216.0
  0
LINE
  5
336
330
1F
100
AcDbEntity
  8
0
  6
Continuous
 62
     7
370
    35
100
AcDbLine
 10
201.3220658284
 20
238.4863955531
 30
0.0
 11
201.7223437448
 21
237.9354602658
 31
0.0
  0
ARC
  5
337
330
1F
100
AcDbEntity
  8
0
  6
Continuous
 62
     7
370
    35
100
AcDbCircle
 10
202.0305792197
 20
238.159406447
 30
0.0
 40
0.3810000000000263
100
AcDbArc
 50
216.0
 51
281.0
  0
LINE
  5
338
330
1F
100
AcDbEntity
  8
0
  6
Continuous
 62
     7
370
    35
100
AcDbLine
 10
202.1032774469
 20
237.7854064901
 30
0.0
 11
203.4419348658
 21
238.045615133
 31
0.0
  0
ARC
  5
339
330
1F
100
AcDbEntity
  8
0
  6
Continuous
 62
     7
370
    35
100
AcDbCircle
 10
189.8641931996
 20
229.7408866995
 30
0.0
 40
15.91614221813657
100
AcDbArc
 50
22.5482578997
 51
31.4517421003
  0
LINE
  5
33A
330
1F
100
AcDbEntity
  8
0
  6
Continuous
 62
     7
370
    35
100
AcDbLine
 10
203.5662996439
 20
234.9140637565
 30
0.0
 11
204.5636559467
 21
235.8441135552
 31
0.0
  0
ARC
  5
33B
330
1F
100
AcDbEntity
  8
0
  6
Continuous
 62
     7
370
    35
100
AcDbCircle
 10
203.826141019
 20
234.6354179962
 30
0.0
 40
0.3810000000000108
100
AcDbArc
 50
133.0
 51
198.0
  0
ARC
  5
33C
330
1F
100
AcDbEntity
  8
0
  6
Continuous
 62
     7
370
    35
100
AcDbCircle
 10
189.8641931996
 20
229.7408866995
 30
0.0
 40
2.499999999999997
100
AcDbArc
 50
70.0
 51
290.0
  0
ARC
  5
33D
330
1F
100
AcDbEntity
  8
0
  6
Continuous
 62
     7
370
    35
100
AcDbCircle
 10
191.1676426845
 20
226.1596886724
 30
0.0
 40
1.311031339298104
100
AcDbArc
 50
34.5726335533
 51
110.0
  0
ARC
  5
33E
330
1F
100
AcDbEntity
  8
0
  6
Continuous
 62
     7
370
    35
100
AcDbCircle
 10
196.3641931996
 20
229.7408866995
 30
0.0
 40
5.000000000000012
100
AcDbArc
 50
214.5726335533
 51
145.4273664467
  0
ARC
  5
33F
330
1F
100
AcDbEntity
  8
0
  6
Continuous
 62
     7
370
    35
100
AcDbCircle
 10
191.1676426845
 20
233.3220847266
 30
0.0
 40
1.311031339298104
100
AcDbArc
 50
250.0
 51
325.4273664467
  0
LINE
  5
340
330
1F
100
AcDbEntity
  8
0
  6
Continuous
 62
     7
370
    35
100
AcDbLine
 10
203.4637884863
 20
275.518667743
 30
0.0
 11
203.6742270405
 21
274.8710044694
 31
0.0
  0
ARC
  5
341
330
1F
100
AcDbEntity
  8
0
  6
Continuous
 62
     7
370
    35
100
AcDbCircle
 10
204.0365795732
 20
274.9887399442
 30
0.0
 40
0.3810000000000124
100
AcDbArc
 50
198.0
 51
263.0
  0
LINE
  5
342
330
1F
100
AcDbEntity
  8
0
  6
Continuous
 62
     7
370
    35
100
AcDbLine
 10
203.9901473533
 20
274.6105798604
 30
0.0
 11
205.3436951074
 21
274.4443850938
 31
0.0
  0
ARC
  5
343
330
1F
100
AcDbEntity
  8
0
  6
Continuous
 62
     7
370
    35
100
AcDbCircle
 10
189.8641931996
 20
270.7418719212
 30
0.0
 40
15.91614221813659
100
AcDbArc
 50
4.5482578997
 51
13.4517421003
  0
LINE
  5
344
330
1F
100
AcDbEntity
  8
0
  6
Continuous
 62
     7
370
    35
100
AcDbLine
 10
204.4942704459
 20
271.4276719212
 30
0.0
 11
205.7302138503
 21
272.0040017957
 31
0.0
  0
ARC
  5
345
330
1F
100
AcDbEntity
  8
0
  6
Continuous
 62
     7
370
    35
100
AcDbCircle
 10
204.6552880036
 20
271.0823686543
 30
0.0
 40
0.3810000000000122
100
AcDbArc
 50
115.0
 51
180.0
  0
LINE
  5
346
330
1F
100
AcDbEntity
  8
0
  6
Continuous
 62
     7
370
    35
100
AcDbLine
 10
204.2742880036
 20
271.0823686543
 30
0.0
 11
204.2742880036
 21
270.401375188
 31
0.0
  0
ARC
  5
347
330
1F
100
AcDbEntity
  8
0
  6
Continuous
 62
     7
370
    35
100
AcDbCircle
 10
204.6552880036
 20
270.401375188
 30
0.0
 40
0.3810000000000122
100
AcDbArc
 50
180.0
 51
245.0
  0
LINE
  5
348
330
1F
100
AcDbEntity
  8
0
  6
Continuous
 62
     7
370
    35
100
AcDbLine
 10
204.4942704459
 20
270.0560719212
 30
0.0
 11
205.7302138503
 21
269.4797420467
 31
0.0
  0
ARC
  5
349
330
1F
100
AcDbEntity
  8
0
  6
Continuous
 62
     7
370
    35
100
AcDbCircle
 10
189.8641931996
 20
270.7418719212
 30
0.0
 40
15.9161422181366
100
AcDbArc
 50
346.5482578997
 51
355.4517421003
  0
LINE
  5
34A
330
1F
100
AcDbEntity
  8
0
  6
Continuous
 62
     7
370
    35
100
AcDbLine
 10
203.9901473533
 20
266.8731639819
 30
0.0
 11
205.3436951074
 21
267.0393587486
 31
0.0
  0
ARC
  5
34B
330
1F
100
AcDbEntity
  8
0
  6
Continuous
 62
     7
370
    35
100
AcDbCircle
 10
204.0365795732
 20
266.4950038981
 30
0.0
 40
0.3810000000000124
100
AcDbArc
 50
97.0
 51
162.0
  0
LINE
  5
34C
330
1F
100
AcDbEntity
  8
0
  6
Continuous
 62
     7
370
    35
100
AcDbLine
 10
203.6742270405
 20
266.612739373
 30
0.0
 11
203.4637884863
 21
265.9650760993
 31
0.0
  0
ARC
  5
34D
330
1F
100
AcDbEntity
  8
0
  6
Continuous
 62
     7
370
    35
100
AcDbCircle
 10
203.826141019
 20
265.8473406245
 30
0.0
 40
0.3810000000000108
100
AcDbArc
 50
162.0
 51
227.0
  0
LINE
  5
34E
330
1F
100
AcDbEntity
  8
0
  6
Continuous
 62
     7
370
    35
100
AcDbLine
 10
203.5662996439
 20
265.5686948642
 30
0.0
 11
204.5636559467
 21
264.6386450655
 31
0.0
  0
ARC
  5
34F
330
1F
100
AcDbEntity
  8
0
  6
Continuous
 62
     7
370
    35
100
AcDbCircle
 10
189.8641931996
 20
270.7418719212
 30
0.0
 40
15.91614221813658
100
AcDbArc
 50
328.5482578997
 51
337.4517421003
  0
LINE
  5
350
330
1F
100
AcDbEntity
  8
0
  6
Continuous
 62
     7
370
    35
100
AcDbLine
 10
202.1032774469
 20
262.6973521306
 30
0.0
 11
203.4419348658
 21
262.4371434877
 31
0.0
  0
ARC
  5
351
330
1F
100
AcDbEntity
  8
0
  6
Continuous
 62
     7
370
    35
100
AcDbCircle
 10
202.0305792197
 20
262.3233521737
 30
0.0
 40
0.3810000000000038
100
AcDbArc
 50
79.0
 51
144.0
  0
LINE
  5
352
330
1F
100
AcDbEntity
  8
0
  6
Continuous
 62
     7
370
    35
100
AcDbLine
 10
201.7223437448
 20
262.5472983549
 30
0.0
 11
201.3220658284
 21
261.9963630676
 31
0.0
  0
ARC
  5
353
330
1F
100
AcDbEntity
  8
0
  6
Continuous
 62
     7
370
    35
100
AcDbCircle
 10
201.6303013033
 20
261.7724168865
 30
0.0
 40
0.380999999999999
100
AcDbArc
 50
144.0
 51
209.0
  0
LINE
  5
354
330
1F
100
AcDbEntity
  8
0
  6
Continuous
 62
     7
370
    35
100
AcDbLine
 10
201.2970711949
 20
261.5877044211
 30
0.0
 11
201.9582122124
 21
260.3949744526
 31
0.0
  0
ARC
  5
355
330
1F
100
AcDbEntity
  8
0
  6
Continuous
 62
     7
370
    35
100
AcDbCircle
 10
189.8641931996
 20
270.7418719212
 30
0.0
 40
15.91614221813659
100
AcDbArc
 50
310.5482578997
 51
319.4517421003
  0
LINE
  5
356
330
1F
100
AcDbEntity
  8
0
  6
Continuous
 62
     7
370
    35
100
AcDbLine
 10
199.0183606996
 20
259.3089939259
 30
0.0
 11
200.2110906682
 21
258.6478529084
 31
0.0
  0
ARC
  5
357
330
1F
100
AcDbEntity
  8
0
  6
Continuous
 62
     7
370
    35
100
AcDbCircle
 10
198.8336482343
 20
258.9757638175
 30
0.0
 40
0.3810000000000169
100
AcDbArc
 50
61.0
 51
126.0
  0
LINE
  5
358
330
1F
100
AcDbEntity
  8
0
  6
Continuous
 62
     7
370
    35
100
AcDbLine
 10
198.6097020532
 20
259.2839992923
 30
0.0
 11
198.0587667659
 21
258.8837213759
 31
0.0
  0
ARC
  5
359
330
1F
100
AcDbEntity
  8
0
  6
Continuous
 62
     7
370
    35
100
AcDbCircle
 10
198.282712947
 20
258.5754859011
 30
0.0
 40
0.3810000000000336
100
AcDbArc
 50
126.0
 51
191.0
  0
LINE
  5
35A
330
1F
100
AcDbEntity
  8
0
  6
Continuous
 62
     7
370
    35
100
AcDbLine
 10
197.9087129901
 20
258.5027876739
 30
0.0
 11
198.168921633
 21
257.164130255
 31
0.0
  0
ARC
  5
35B
330
1F
100
AcDbEntity
  8
0
  6
Continuous
 62
     7
370
    35
100
AcDbCircle
 10
189.8641931996
 20
270.7418719212
 30
0.0
 40
15.91614221813657
100
AcDbArc
 50
292.5482578997
 51
301.4517421003
  0
LINE
  5
35C
330
1F
100
AcDbEntity
  8
0
  6
Continuous
 62
     7
370
    35
100
AcDbLine
 10
195.0373702566
 20
257.0397654769
 30
0.0
 11
195.9674200553
 21
256.042409174
 31
0.0
  0
ARC
  5
35D
330
1F
100
AcDbEntity
  8
0
  6
Continuous
 62
     7
370
    35
100
AcDbCircle
 10
194.7587244963
 20
256.7799241017
 30
0.0
 40
0.3809999999999766
100
AcDbArc
 50
43.0
 51
108.0
  0
LINE
  5
35E
330
1F
100
AcDbEntity
  8
0
  6
Continuous
 62
     7
370
    35
100
AcDbLine
 10
194.6409890214
 20
257.1422766344
 30
0.0
 11
193.9933257477
 21
256.9318380803
 31
0.0
  0
ARC
  5
35F
330
1F
100
AcDbEntity
  8
0
  6
Continuous
 62
     7
370
    35
100
AcDbCircle
 10
194.1110612226
 20
256.5694855476
 30
0.0
 40
0.3809999999999832
100
AcDbArc
 50
108.0
 51
173.0
  0
LINE
  5
360
330
1F
100
AcDbEntity
  8
0
  6
Continuous
 62
     7
370
    35
100
AcDbLine
 10
193.7329011388
 20
256.6159177674
 30
0.0
 11
193.5667063722
 21
255.2623700134
 31
0.0
  0
ARC
  5
361
330
1F
100
AcDbEntity
  8
0
  6
Continuous
 62
     7
370
    35
100
AcDbCircle
 10
189.8641931996
 20
270.7418719212
 30
0.0
 40
15.91614221813656
100
AcDbArc
 50
274.5482578997
 51
283.4517421003
  0
LINE
  5
362
330
1F
100
AcDbEntity
  8
0
  6
Continuous
 62
     7
370
    35
100
AcDbLine
 10
190.5499931996
 20
256.1117946748
 30
0.0
 11
191.1263230741
 21
254.8758512705
 31
0.0
  0
ARC
  5
363
330
1F
100
AcDbEntity
  8
0
  6
Continuous
 62
     7
370
    35
100
AcDbCircle
 10
190.2046899327
 20
255.9507771171
 30
0.0
 40
0.3810000000000002
100
AcDbArc
 50
25.0
 51
90.0
  0
LINE
  5
364
330
1F
100
AcDbEntity
  8
0
  6
Continuous
 62
     7
370
    35
100
AcDbLine
 10
190.2046899327
 20
256.3317771171
 30
0.0
 11
189.5236964664
 21
256.3317771171
 31
0.0
  0
ARC
  5
365
330
1F
100
AcDbEntity
  8
0
  6
Continuous
 62
     7
370
    35
100
AcDbCircle
 10
189.5236964664
 20
255.9507771171
 30
0.0
 40
0.3810000000000002
100
AcDbArc
 50
90.0
 51
155.0
  0
LINE
  5
366
330
1F
100
AcDbEntity
  8
0
  6
Continuous
 62
     7
370
    35
100
AcDbLine
 10
189.1783931996
 20
256.1117946748
 30
0.0
 11
188.6020633251
 21
254.8758512705
 31
0.0
  0
ARC
  5
367
330
1F
100
AcDbEntity
  8
0
  6
Continuous
 62
     7
370
    35
100
AcDbCircle
 10
189.8641931996
 20
270.7418719212
 30
0.0
 40
15.91614221813658
100
AcDbArc
 50
256.5482578997
 51
265.4517421003
  0
LINE
  5
368
330
1F
100
AcDbEntity
  8
0
  6
Continuous
 62
     7
370
    35
100
AcDbLine
 10
185.9954852603
 20
256.6159177674
 30
0.0
 11
186.1616800269
 21
255.2623700134
 31
0.0
  0
ARC
  5
369
330
1F
100
AcDbEntity
  8
0
  6
Continuous
 62
     7
370
    35
100
AcDbCircle
 10
185.6173251765
 20
256.5694855476
 30
0.0
 40
0.3810000000000114
100
AcDbArc
 50
7.0
 51
72.0
  0
LINE
  5
36A
330
1F
100
AcDbEntity
  8
0
  6
Continuous
 62
     7
370
    35
100
AcDbLine
 10
185.7350606514
 20
256.9318380803
 30
0.0
 11
185.0873973777
 21
257.1422766344
 31
0.0
  0
ARC
  5
36B
330
1F
100
AcDbEntity
  8
0
  6
Continuous
 62
     7
370
    35
100
AcDbCircle
 10
184.9696619029
 20
256.7799241017
 30
0.0
 40
0.3809999999999914
100
AcDbArc
 50
72.0
 51
137.0
  0
LINE
  5
36C
330
1F
100
AcDbEntity
  8
0
  6
Continuous
 62
     7
370
    35
100
AcDbLine
 10
184.6910161426
 20
257.0397654769
 30
0.0
 11
183.7609663439
 21
256.042409174
 31
0.0
  0
ARC
  5
36D
330
1F
100
AcDbEntity
  8
0
  6
Continuous
 62
     7
370
    35
100
AcDbCircle
 10
189.8641931996
 20
270.7418719212
 30
0.0
 40
15.91614221813654
100
AcDbArc
 50
238.5482578997
 51
247.4517421003
  0
LINE
  5
36E
330
1F
100
AcDbEntity
  8
0
  6
Continuous
 62
     7
370
    35
100
AcDbLine
 10
181.819673409
 20
258.5027876739
 30
0.0
 11
181.5594647661
 21
257.164130255
 31
0.0
  0
ARC
  5
36F
330
1F
100
AcDbEntity
  8
0
  6
Continuous
 62
     7
370
    35
100
AcDbCircle
 10
181.4456734521
 20
258.5754859011
 30
0.0
 40
0.3810000000000336
100
AcDbArc
 50
349.0
 51
54.0
  0
LINE
  5
370
330
1F
100
AcDbEntity
  8
0
  6
Continuous
 62
     7
370
    35
100
AcDbLine
 10
181.6696196332
 20
258.8837213759
 30
0.0
 11
181.118684346
 21
259.2839992923
 31
0.0
  0
ARC
  5
371
330
1F
100
AcDbEntity
  8
0
  6
Continuous
 62
     7
370
    35
100
AcDbCircle
 10
180.8947381648
 20
258.9757638175
 30
0.0
 40
0.3810000000000336
100
AcDbArc
 50
54.0
 51
119.0
  0
LINE
  5
372
330
1F
100
AcDbEntity
  8
0
  6
Continuous
 62
     7
370
    35
100
AcDbLine
 10
180.7100256995
 20
259.3089939259
 30
0.0
 11
179.517295731
 21
258.6478529084
 31
0.0
  0
ARC
  5
373
330
1F
100
AcDbEntity
  8
0
  6
Continuous
 62
     7
370
    35
100
AcDbCircle
 10
189.8641931996
 20
270.7418719212
 30
0.0
 40
15.91614221813657
100
AcDbArc
 50
220.5482578997
 51
229.4517421003
  0
LINE
  5
374
330
1F
100
AcDbEntity
  8
0
  6
Continuous
 62
     7
370
    35
100
AcDbLine
 10
178.4313152043
 20
261.5877044211
 30
0.0
 11
177.7701741868
 21
260.3949744526
 31
0.0
  0
ARC
  5
375
330
1F
100
AcDbEntity
  8
0
  6
Continuous
 62
     7
370
    35
100
AcDbCircle
 10
178.0980850959
 20
261.7724168865
 30
0.0
 40
0.3809999999999939
100
AcDbArc
 50
331.0
 51
36.0
  0
LINE
  5
376
330
1F
100
AcDbEntity
  8
0
  6
Continuous
 62
     7
370
    35
100
AcDbLine
 10
178.4063205707
 20
261.9963630676
 30
0.0
 11
178.0060426543
 21
262.5472983549
 31
0.0
  0
ARC
  5
377
330
1F
100
AcDbEntity
  8
0
  6
Continuous
 62
     7
370
    35
100
AcDbCircle
 10
177.6978071795
 20
262.3233521737
 30
0.0
 40
0.3809999999999939
100
AcDbArc
 50
36.0
 51
101.0
  0
LINE
  5
378
330
1F
100
AcDbEntity
  8
0
  6
Continuous
 62
     7
370
    35
100
AcDbLine
 10
177.6251089522
 20
262.6973521306
 30
0.0
 11
176.2864515334
 21
262.4371434877
 31
0.0
  0
ARC
  5
379
330
1F
100
AcDbEntity
  8
0
  6
Continuous
 62
     7
370
    35
100
AcDbCircle
 10
189.8641931996
 20
270.7418719212
 30
0.0
 40
15.91614221813656
100
AcDbArc
 50
202.5482578997
 51
211.4517421003
  0
LINE
  5
37A
330
1F
100
AcDbEntity
  8
0
  6
Continuous
 62
     7
370
    35
100
AcDbLine
 10
176.1620867553
 20
265.5686948642
 30
0.0
 11
175.1647304524
 21
264.6386450655
 31
0.0
  0
ARC
  5
37B
330
1F
100
AcDbEntity
  8
0
  6
Continuous
 62
     7
370
    35
100
AcDbCircle
 10
175.9022453801
 20
265.8473406245
 30
0.0
 40
0.3810000000000108
100
AcDbArc
 50
313.0
 51
18.0
  0
LINE
  5
37C
330
1F
100
AcDbEntity
  8
0
  6
Continuous
 62
     7
370
    35
100
AcDbLine
 10
176.2645979128
 20
265.9650760993
 30
0.0
 11
176.0541593587
 21
266.612739373
 31
0.0
  0
ARC
  5
37D
330
1F
100
AcDbEntity
  8
0
  6
Continuous
 62
     7
370
    35
100
AcDbCircle
 10
175.691806826
 20
266.4950038981
 30
0.0
 40
0.3810000000000114
100
AcDbArc
 50
18.0
 51
83.0
  0
LINE
  5
37E
330
1F
100
AcDbEntity
  8
0
  6
Continuous
 62
     7
370
    35
100
AcDbLine
 10
175.7382390458
 20
266.8731639819
 30
0.0
 11
174.3846912917
 21
267.0393587486
 31
0.0
  0
ARC
  5
37F
330
1F
100
AcDbEntity
  8
0
  6
Continuous
 62
     7
370
    35
100
AcDbCircle
 10
189.8641931996
 20
270.7418719212
 30
0.0
 40
15.91614221813655
100
AcDbArc
 50
184.5482578997
 51
193.4517421003
  0
LINE
  5
380
330
1F
100
AcDbEntity
  8
0
  6
Continuous
 62
     7
370
    35
100
AcDbLine
 10
175.2341159532
 20
270.0560719212
 30
0.0
 11
173.9981725489
 21
269.4797420467
 31
0.0
  0
ARC
  5
381
330
1F
100
AcDbEntity
  8
0
  6
Continuous
 62
     7
370
    35
100
AcDbCircle
 10
175.0730983955
 20
270.401375188
 30
0.0
 40
0.3810000000000002
100
AcDbArc
 50
295.0
 51
0.0
  0
LINE
  5
382
330
1F
100
AcDbEntity
  8
0
  6
Continuous
 62
     7
370
    35
100
AcDbLine
 10
175.4540983955
 20
270.401375188
 30
0.0
 11
175.4540983955
 21
271.0823686543
 31
0.0
  0
ARC
  5
383
330
1F
100
AcDbEntity
  8
0
  6
Continuous
 62
     7
370
    35
100
AcDbCircle
 10
175.0730983955
 20
271.0823686543
 30
0.0
 40
0.3810000000000002
100
AcDbArc
 50
0.0
 51
65.0
  0
LINE
  5
384
330
1F
100
AcDbEntity
  8
0
  6
Continuous
 62
     7
370
    35
100
AcDbLine
 10
175.2341159532
 20
271.4276719212
 30
0.0
 11
173.9981725489
 21
272.0040017957
 31
0.0
  0
ARC
  5
385
330
1F
100
AcDbEntity
  8
0
  6
Continuous
 62
     7
370
    35
100
AcDbCircle
 10
189.8641931996
 20
270.7418719212
 30
0.0
 40
15.91614221813655
100
AcDbArc
 50
166.5482578997
 51
175.4517421003
  0
LINE
  5
386
330
1F
100
AcDbEntity
  8
0
  6
Continuous
 62
     7
370
    35
100
AcDbLine
 10
175.7382390458
 20
274.6105798604
 30
0.0
 11
174.3846912917
 21
274.4443850938
 31
0.0
  0
ARC
  5
387
330
1F
100
AcDbEntity
  8
0
  6
Continuous
 62
     7
370
    35
100
AcDbCircle
 10
175.691806826
 20
274.9887399442
 30
0.0
 40
0.3810000000000114
100
AcDbArc
 50
277.0
 51
342.0
  0
LINE
  5
388
330
1F
100
AcDbEntity
  8
0
  6
Continuous
 62
     7
370
    35
100
AcDbLine
 10
176.0541593587
 20
274.8710044694
 30
0.0
 11
176.2645979128
 21
275.518667743
 31
0.0
  0
ARC
  5
389
330
1F
100
AcDbEntity
  8
0
  6
Continuous
 62
     7
370
    35
100
AcDbCircle
 10
175.9022453801
 20
275.6364032179
 30
0.0
 40
0.3810000000000108
100
AcDbArc
 50
342.0
 51
47.0
  0
LINE
  5
38A
330
1F
100
AcDbEntity
  8
0
  6
Continuous
 62
     7
370
    35
100
AcDbLine
 10
176.1620867553
 20
275.9150489782
 30
0.0
 11
175.1647304524
 21
276.8450987769
 31
0.0
  0
ARC
  5
38B
330
1F
100
AcDbEntity
  8
0
  6
Continuous
 62
     7
370
    35
100
AcDbCircle
 10
189.8641931996
 20
270.7418719212
 30
0.0
 40
15.91614221813657
100
AcDbArc
 50
148.5482578997
 51
157.4517421003
  0
LINE
  5
38C
330
1F
100
AcDbEntity
  8
0
  6
Continuous
 62
     7
370
    35
100
AcDbLine
 10
177.6251089522
 20
278.7863917117
 30
0.0
 11
176.2864515334
 21
279.0466003547
 31
0.0
  0
ARC
  5
38D
330
1F
100
AcDbEntity
  8
0
  6
Continuous
 62
     7
370
    35
100
AcDbCircle
 10
177.6978071795
 20
279.1603916686
 30
0.0
 40
0.3810000000000169
100
AcDbArc
 50
259.0
 51
324.0
  0
LINE
  5
38E
330
1F
100
AcDbEntity
  8
0
  6
Continuous
 62
     7
370
    35
100
AcDbLine
 10
178.0060426543
 20
278.9364454875
 30
0.0
 11
178.4063205707
 21
279.4873807748
 31
0.0
  0
ARC
  5
38F
330
1F
100
AcDbEntity
  8
0
  6
Continuous
 62
     7
370
    35
100
AcDbCircle
 10
178.0980850959
 20
279.7113269559
 30
0.0
 40
0.3810000000000503
100
AcDbArc
 50
324.0
 51
29.0
  0
LINE
  5
390
330
1F
100
AcDbEntity
  8
0
  6
Continuous
 62
     7
370
    35
100
AcDbLine
 10
178.4313152043
 20
279.8960394212
 30
0.0
 11
177.7701741868
 21
281.0887693898
 31
0.0
  0
ARC
  5
391
330
1F
100
AcDbEntity
  8
0
  6
Continuous
 62
     7
370
    35
100
AcDbCircle
 10
189.8641931996
 20
270.7418719212
 30
0.0
 40
15.9161422181366
100
AcDbArc
 50
130.5482578997
 51
139.4517421003
  0
LINE
  5
392
330
1F
100
AcDbEntity
  8
0
  6
Continuous
 62
     7
370
    35
100
AcDbLine
 10
180.7100256995
 20
282.1747499165
 30
0.0
 11
179.517295731
 21
282.835890934
 31
0.0
  0
ARC
  5
393
330
1F
100
AcDbEntity
  8
0
  6
Continuous
 62
     7
370
    35
100
AcDbCircle
 10
180.8947381648
 20
282.5079800249
 30
0.0
 40
0.3810000000000336
100
AcDbArc
 50
241.0
 51
306.0
  0
LINE
  5
394
330
1F
100
AcDbEntity
  8
0
  6
Continuous
 62
     7
370
    35
100
AcDbLine
 10
181.118684346
 20
282.19974455
 30
0.0
 11
181.6696196332
 21
282.6000224664
 31
0.0
  0
ARC
  5
395
330
1F
100
AcDbEntity
  8
0
  6
Continuous
 62
     7
370
    35
100
AcDbCircle
 10
181.4456734521
 20
282.9082579413
 30
0.0
 40
0.3810000000000002
100
AcDbArc
 50
306.0
 51
11.0
  0
LINE
  5
396
330
1F
100
AcDbEntity
  8
0
  6
Continuous
 62
     7
370
    35
100
AcDbLine
 10
181.819673409
 20
282.9809561685
 30
0.0
 11
181.5594647661
 21
284.3196135874
 31
0.0
  0
ARC
  5
397
330
1F
100
AcDbEntity
  8
0
  6
Continuous
 62
     7
370
    35
100
AcDbCircle
 10
189.8641931996
 20
270.7418719212
 30
0.0
 40
15.91614221813658
100
AcDbArc
 50
112.5482578997
 51
121.4517421003
  0
LINE
  5
398
330
1F
100
AcDbEntity
  8
0
  6
Continuous
 62
     7
370
    35
100
AcDbLine
 10
184.6910161426
 20
284.4439783655
 30
0.0
 11
183.7609663439
 21
285.4413346684
 31
0.0
  0
ARC
  5
399
330
1F
100
AcDbEntity
  8
0
  6
Continuous
 62
     7
370
    35
100
AcDbCircle
 10
184.9696619029
 20
284.7038197407
 30
0.0
 40
0.3809999999999914
100
AcDbArc
 50
223.0
 51
288.0
  0
LINE
  5
39A
330
1F
100
AcDbEntity
  8
0
  6
Continuous
 62
     7
370
    35
100
AcDbLine
 10
185.0873973777
 20
284.3414672079
 30
0.0
 11
185.7350606514
 21
284.5519057621
 31
0.0
  0
ARC
  5
39B
330
1F
100
AcDbEntity
  8
0
  6
Continuous
 62
     7
370
    35
100
AcDbCircle
 10
185.6173251765
 20
284.9142582948
 30
0.0
 40
0.3810000000000306
100
AcDbArc
 50
288.0
 51
353.0
  0
LINE
  5
39C
330
1F
100
AcDbEntity
  8
0
  6
Continuous
 62
     7
370
    35
100
AcDbLine
 10
185.9954852603
 20
284.867826075
 30
0.0
 11
186.1616800269
 21
286.221373829
 31
0.0
  0
ARC
  5
39D
330
1F
100
AcDbEntity
  8
0
  6
Continuous
 62
     7
370
    35
100
AcDbCircle
 10
189.8641931996
 20
270.7418719212
 30
0.0
 40
15.91614221813659
100
AcDbArc
 50
94.5482578997
 51
103.4517421003
  0
LINE
  5
39E
330
1F
100
AcDbEntity
  8
0
  6
Continuous
 62
     7
370
    35
100
AcDbLine
 10
189.1783931996
 20
285.3719491675
 30
0.0
 11
188.6020633251
 21
286.6078925719
 31
0.0
  0
ARC
  5
39F
330
1F
100
AcDbEntity
  8
0
  6
Continuous
 62
     7
370
    35
100
AcDbCircle
 10
189.5236964664
 20
285.5329667252
 30
0.0
 40
0.3809999999999864
100
AcDbArc
 50
205.0
 51
270.0
  0
LINE
  5
3A0
330
1F
100
AcDbEntity
  8
0
  6
Continuous
 62
     7
370
    35
100
AcDbLine
 10
189.5236964664
 20
285.1519667252
 30
0.0
 11
190.2046899327
 21
285.1519667252
 31
0.0
  0
ARC
  5
3A1
330
1F
100
AcDbEntity
  8
0
  6
Continuous
 62
     7
370
    35
100
AcDbCircle
 10
190.2046899327
 20
285.5329667252
 30
0.0
 40
0.3810000000000286
100
AcDbArc
 50
270.0
 51
335.0
  0
LINE
  5
3A2
330
1F
100
AcDbEntity
  8
0
  6
Continuous
 62
     7
370
    35
100
AcDbLine
 10
190.5499931996
 20
285.3719491675
 30
0.0
 11
191.1263230741
 21
286.6078925719
 31
0.0
  0
ARC
  5
3A3
330
1F
100
AcDbEntity
  8
0
  6
Continuous
 62
     7
370
    35
100
AcDbCircle
 10
189.8641931996
 20
270.7418719212
 30
0.0
 40
15.9161422181366
100
AcDbArc
 50
76.5482578997
 51
85.4517421003
  0
LINE
  5
3A4
330
1F
100
AcDbEntity
  8
0
  6
Continuous
 62
     7
370
    35
100
AcDbLine
 10
193.7329011388
 20
284.867826075
 30
0.0
 11
193.5667063722
 21
286.221373829
 31
0.0
  0
ARC
  5
3A5
330
1F
100
AcDbEntity
  8
0
  6
Continuous
 62
     7
370
    35
100
AcDbCircle
 10
194.1110612226
 20
284.9142582948
 30
0.0
 40
0.3810000000000847
100
AcDbArc
 50
187.0
 51
252.0
  0
LINE
  5
3A6
330
1F
100
AcDbEntity
  8
0
  6
Continuous
 62
     7
370
    35
100
AcDbLine
 10
193.9933257477
 20
284.5519057621
 30
0.0
 11
194.6409890214
 21
284.3414672079
 31
0.0
  0
ARC
  5
3A7
330
1F
100
AcDbEntity
  8
0
  6
Continuous
 62
     7
370
    35
100
AcDbCircle
 10
194.7587244963
 20
284.7038197407
 30
0.0
 40
0.3809999999999766
100
AcDbArc
 50
252.0
 51
317.0
  0
LINE
  5
3A8
330
1F
100
AcDbEntity
  8
0
  6
Continuous
 62
     7
370
    35
100
AcDbLine
 10
195.0373702566
 20
284.4439783655
 30
0.0
 11
195.9674200553
 21
285.4413346684
 31
0.0
  0
ARC
  5
3A9
330
1F
100
AcDbEntity
  8
0
  6
Continuous
 62
     7
370
    35
100
AcDbCircle
 10
189.8641931996
 20
270.7418719212
 30
0.0
 40
15.9161422181366
100
AcDbArc
 50
58.5482578997
 51
67.4517421003
  0
LINE
  5
3AA
330
1F
100
AcDbEntity
  8
0
  6
Continuous
 62
     7
370
    35
100
AcDbLine
 10
197.9087129901
 20
282.9809561685
 30
0.0
 11
198.168921633
 21
284.3196135874
 31
0.0
  0
ARC
  5
3AB
330
1F
100
AcDbEntity
  8
0
  6
Continuous
 62
     7
370
    35
100
AcDbCircle
 10
198.282712947
 20
282.9082579413
 30
0.0
 40
0.3809999999999759
100
AcDbArc
 50
169.0
 51
234.0
  0
LINE
  5
3AC
330
1F
100
AcDbEntity
  8
0
  6
Continuous
 62
     7
370
    35
100
AcDbLine
 10
198.0587667659
 20
282.6000224664
 30
0.0
 11
198.6097020532
 21
282.19974455
 31
0.0
  0
ARC
  5
3AD
330
1F
100
AcDbEntity
  8
0
  6
Continuous
 62
     7
370
    35
100
AcDbCircle
 10
198.8336482343
 20
282.5079800249
 30
0.0
 40
0.3810000000000238
100
AcDbArc
 50
234.0
 51
299.0
  0
LINE
  5
3AE
330
1F
100
AcDbEntity
  8
0
  6
Continuous
 62
     7
370
    35
100
AcDbLine
 10
199.0183606996
 20
282.1747499165
 30
0.0
 11
200.2110906682
 21
282.835890934
 31
0.0
  0
ARC
  5
3AF
330
1F
100
AcDbEntity
  8
0
  6
Continuous
 62
     7
370
    35
100
AcDbCircle
 10
189.8641931996
 20
270.7418719212
 30
0.0
 40
15.91614221813659
100
AcDbArc
 50
40.5482578997
 51
49.4517421003
  0
LINE
  5
3B0
330
1F
100
AcDbEntity
  8
0
  6
Continuous
 62
     7
370
    35
100
AcDbLine
 10
201.2970711949
 20
279.8960394212
 30
0.0
 11
201.9582122124
 21
281.0887693898
 31
0.0
  0
ARC
  5
3B1
330
1F
100
AcDbEntity
  8
0
  6
Continuous
 62
     7
370
    35
100
AcDbCircle
 10
201.6303013033
 20
279.7113269559
 30
0.0
 40
0.3810000000000238
100
AcDbArc
 50
151.0
 51
216.0
  0
LINE
  5
3B2
330
1F
100
AcDbEntity
  8
0
  6
Continuous
 62
     7
370
    35
100
AcDbLine
 10
201.3220658284
 20
279.4873807748
 30
0.0
 11
201.7223437448
 21
278.9364454875
 31
0.0
  0
ARC
  5
3B3
330
1F
100
AcDbEntity
  8
0
  6
Continuous
 62
     7
370
    35
100
AcDbCircle
 10
202.0305792197
 20
279.1603916686
 30
0.0
 40
0.3810000000000169
100
AcDbArc
 50
216.0
 51
281.0
  0
LINE
  5
3B4
330
1F
100
AcDbEntity
  8
0
  6
Continuous
 62
     7
370
    35
100
AcDbLine
 10
202.1032774469
 20
278.7863917117
 30
0.0
 11
203.4419348658
 21
279.0466003547
 31
0.0
  0
ARC
  5
3B5
330
1F
100
AcDbEntity
  8
0
  6
Continuous
 62
     7
370
    35
100
AcDbCircle
 10
189.8641931996
 20
270.7418719212
 30
0.0
 40
15.91614221813659
100
AcDbArc
 50
22.5482578997
 51
31.4517421003
  0
LINE
  5
3B6
330
1F
100
AcDbEntity
  8
0
  6
Continuous
 62
     7
370
    35
100
AcDbLine
 10
203.5662996439
 20
275.9150489782
 30
0.0
 11
204.5636559467
 21
276.8450987769
 31
0.0
  0
ARC
  5
3B7
330
1F
100
AcDbEntity
  8
0
  6
Continuous
 62
     7
370
    35
100
AcDbCircle
 10
203.826141019
 20
275.6364032179
 30
0.0
 40
0.3810000000000108
100
AcDbArc
 50
133.0
 51
198.0
  0
ARC
  5
3B8
330
1F
100
AcDbEntity
  8
0
  6
Continuous
 62
     7
370
    35
100
AcDbCircle
 10
189.8641931996
 20
270.7418719212
 30
0.0
 40
2.500000000000033
100
AcDbArc
 50
70.0
 51
290.0
  0
ARC
  5
3B9
330
1F
100
AcDbEntity
  8
0
  6
Continuous
 62
     7
370
    35
100
AcDbCircle
 10
191.1676426845
 20
267.1606738941
 30
0.0
 40
1.311031339298094
100
AcDbArc
 50
34.5726335533
 51
110.0
  0
ARC
  5
3BA
330
1F
100
AcDbEntity
  8
0
  6
Continuous
 62
     7
370
    35
100
AcDbCircle
 10
196.3641931996
 20
270.7418719212
 30
0.0
 40
5.000000000000004
100
AcDbArc
 50
214.5726335533
 51
145.4273664467
  0
ARC
  5
3BB
330
1F
100
AcDbEntity
  8
0
  6
Continuous
 62
     7
370
    35
100
AcDbCircle
 10
191.1676426845
 20
274.3230699483
 30
0.0
 40
1.311031339298125
100
AcDbArc
 50
250.0
 51
325.4273664467
  0
ENDSEC
  0
SECTION
  2
OBJECTS
  0
DICTIONARY
  5
C
330
0
100
AcDbDictionary
281
     1
  3
ACAD_GROUP
350
D
  3
ACAD_LAYOUT
350
1A
  3
ACAD_MLINESTYLE
350
17
  3
ACAD_PLOTSETTINGS
350
19
  3
ACAD_PLOTSTYLENAME
350
E
  3
ACAD_SCALELIST
350
47
  0
DICTIONARY
  5
D
102
{ACAD_REACTORS
330
C
102
}
330
C
100
AcDbDictionary
281
     1
  0
DICTIONARY
  5
1A
102
{ACAD_REACTORS
330
C
102
}
330
C
100
AcDbDictionary
281
     1
  3
Layout1
350
1E
  3
Layout2
350
26
  3
Model
350
22
  0
DICTIONARY
  5
17
102
{ACAD_REACTORS
330
C
102
}
330
C
100
AcDbDictionary
281
     1
  3
Standard
350
18
  0
DICTIONARY
  5
19
102
{ACAD_REACTORS
330
C
102
}
330
C
100
AcDbDictionary
281
     1
  0
ACDBDICTIONARYWDFLT
  5
E
102
{ACAD_REACTORS
330
C
102
}
330
C
100
AcDbDictionary
281
     1
  3
Normal
350
F
100
AcDbDictionaryWithDefault
340
F
  0
DICTIONARY
  5
47
102
{ACAD_REACTORS
330
C
102
}
330
C
100
AcDbDictionary
281
     1
  3
A0
350
48
  3
A1
350
49
  3
A2
350
4A
  3
A3
350
4B
  3
A4
350
4C
  3
A5
350
4D
  3
A6
350
4E
  3
A7
350
4F
  3
A8
350
50
  3
A9
350
51
  3
B0
350
52
  3
B1
350
53
  3
B2
350
54
  3
B3
350
55
  3
B4
350
56
  3
B5
350
57
  3
B6
350
58
  3
B7
350
59
  3
B8
350
5A
  3
B9
350
5B
  3
C0
350
5C
  3
C1
350
5D
  3
C2
350
5E
  3
C3
350
5F
  3
C4
350
60
  3
C5
350
61
  3
C6
350
62
  3
C7
350
63
  3
C8
350
64
  3
C9
350
65
  3
D0
350
66
  3
D1
350
67
  3
D2
350
68
  0
LAYOUT
  5
1E
102
{ACAD_REACTORS
330
1A
102
}
330
1A
100
AcDbPlotSettings
  1

  2
none_device
  4

  6

 40
0.0
 41
0.0
 42
0.0
 43
0.0
 44
0.0
 45
0.0
 46
0.0
 47
0.0
 48
0.0
 49
0.0
140
0.0
141
0.0
142
1.0
143
1.0
 70
   688
 72
     1
 73
     0
 74
     5
  7

 75
    16
147
1.0
148
0.0
149
0.0
100
AcDbLayout
  1
Layout1
 70
     1
 71
     1
 10
0.0
 20
0.0
 11
420.0
 21
297.0
 12
0.0
 22
0.0
 32
0.0
 14
1.0000000000E+20
 24
1.0000000000E+20
 34
1.0000000000E+20
 15
-1.0000000000E+20
 25
-1.0000000000E+20
 35
-1.0000000000E+20
146
0.0
 13
0.0
 23
0.0
 33
0.0
 16
1.0
 26
0.0
 36
0.0
 17
0.0
 27
1.0
 37
0.0
 76
     0
330
1B
  0
LAYOUT
  5
26
102
{ACAD_REACTORS
330
1A
102
}
330
1A
100
AcDbPlotSettings
  1

  2
none_device
  4

  6

 40
0.0
 41
0.0
 42
0.0
 43
0.0
 44
0.0
 45
0.0
 46
0.0
 47
0.0
 48
0.0
 49
0.0
140
0.0
141
0.0
142
1.0
143
1.0
 70
   688
 72
     1
 73
     0
 74
     5
  7

 75
    16
147
1.0
148
0.0
149
0.0
100
AcDbLayout
  1
Layout2
 70
     1
 71
     2
 10
0.0
 20
0.0
 11
0.0
 21
0.0
 12
0.0
 22
0.0
 32
0.0
 14
0.0
 24
0.0
 34
0.0
 15
0.0
 25
0.0
 35
0.0
146
0.0
 13
0.0
 23
0.0
 33
0.0
 16
1.0
 26
0.0
 36
0.0
 17
0.0
 27
1.0
 37
0.0
 76
     0
330
23
  0
LAYOUT
  5
22
102
{ACAD_REACTORS
330
1A
102
}
330
1A
100
AcDbPlotSettings
  1

  2
none_device
  4
Letter_(8.50_x_11.00_Inches)
  6

 40
6.35
 41
6.35
 42
6.35000508
 43
6.35000508
 44
215.9
 45
279.4
 46
0.0
 47
0.0
 48
0.0
 49
0.0
140
0.0
141
0.0
142
1.0
143
1.0
 70
  1712
 72
     1
 73
     0
 74
     0
  7

 75
     0
147
1.0
148
0.0
149
0.0
100
AcDbLayout
  1
Model
 70
     1
 71
     0
 10
0.0
 20
0.0
 11
300.0
 21
300.0
 12
0.0
 22
0.0
 32
0.0
 14
0.0
 24
0.0
 34
0.0
 15
300.0
 25
300.0
 35
0.0
146
0.0
 13
0.0
 23
0.0
 33
0.0
 16
1.0
 26
0.0
 36
0.0
 17
0.0
 27
1.0
 37
0.0
 76
     0
330
1F
331
29
  0
MLINESTYLE
  5
18
102
{ACAD_REACTORS
330
17
102
}
330
17
100
AcDbMlineStyle
  2
Standard
 70
     0
  3

 62
   256
 51
90.0
 52
90.0
 71
     2
 49
0.5
 62
   256
  6
BYLAYER
 49
-0.5
 62
   256
  6
BYLAYER
  0
ACDBPLACEHOLDER
  5
F
102
{ACAD_REACTORS
330
E
102
}
330
E
  0
SCALE
  5
48
102
{ACAD_REACTORS
330
47
102
}
330
47
100
AcDbScale
 70
     0
300
1:1
140
1.0
141
1.0
290
     1
  0
SCALE
  5
49
102
{ACAD_REACTORS
330
47
102
}
330
47
100
AcDbScale
 70
     0
300
1:2
140
1.0
141
2.0
290
     0
  0
SCALE
  5
4A
102
{ACAD_REACTORS
330
47
102
}
330
47
100
AcDbScale
 70
     0
300
1:4
140
1.0
141
4.0
290
     0
  0
SCALE
  5
4B
102
{ACAD_REACTORS
330
47
102
}
330
47
100
AcDbScale
 70
     0
300
1:5
140
1.0
141
5.0
290
     0
  0
SCALE
  5
4C
102
{ACAD_REACTORS
330
47
102
}
330
47
100
AcDbScale
 70
     0
300
1:8
140
1.0
141
8.0
290
     0
  0
SCALE
  5
4D
102
{ACAD_REACTORS
330
47
102
}
330
47
100
AcDbScale
 70
     0
300
1:10
140
1.0
141
10.0
290
     0
  0
SCALE
  5
4E
102
{ACAD_REACTORS
330
47
102
}
330
47
100
AcDbScale
 70
     0
300
1:16
140
1.0
141
16.0
290
     0
  0
SCALE
  5
4F
102
{ACAD_REACTORS
330
47
102
}
330
47
100
AcDbScale
 70
     0
300
1:20
140
1.0
141
20.0
290
     0
  0
SCALE
  5
50
102
{ACAD_REACTORS
330
47
102
}
330
47
100
AcDbScale
 70
     0
300
1:30
140
1.0
141
30.0
290
     0
  0
SCALE
  5
51
102
{ACAD_REACTORS
330
47
102
}
330
47
100
AcDbScale
 70
     0
300
1:40
140
1.0
141
40.0
290
     0
  0
SCALE
  5
52
102
{ACAD_REACTORS
330
47
102
}
330
47
100
AcDbScale
 70
     0
300
1:50
140
1.0
141
50.0
290
     0
  0
SCALE
  5
53
102
{ACAD_REACTORS
330
47
102
}
330
47
100
AcDbScale
 70
     0
300
1:100
140
1.0
141
100.0
290
     0
  0
SCALE
  5
54
102
{ACAD_REACTORS
330
47
102
}
330
47
100
AcDbScale
 70
     0
300
2:1
140
2.0
141
1.0
290
     0
  0
SCALE
  5
55
102
{ACAD_REACTORS
330
47
102
}
330
47
100
AcDbScale
 70
     0
300
4:1
140
4.0
141
1.0
290
     0
  0
SCALE
  5
56
102
{ACAD_REACTORS
330
47
102
}
330
47
100
AcDbScale
 70
     0
300
8:1
140
8.0
141
1.0
290
     0
  0
SCALE
  5
57
102
{ACAD_REACTORS
330
47
102
}
330
47
100
AcDbScale
 70
     0
300
10:1
140
10.0
141
1.0
290
     0
  0
SCALE
  5
58
102
{ACAD_REACTORS
330
47
102
}
330
47
100
AcDbScale
 70
     0
300
100:1
140
100.0
141
1.0
290
     0
  0
SCALE
  5
59
102
{ACAD_REACTORS
330
47
102
}
330
47
100
AcDbScale
 70
     0
300
1/128" = 1'-0"
140
0.0078125
141
12.0
290
     0
  0
SCALE
  5
5A
102
{ACAD_REACTORS
330
47
102
}
330
47
100
AcDbScale
 70
     0
300
1/64" = 1'-0"
140
0.015625
141
12.0
290
     0
  0
SCALE
  5
5B
102
{ACAD_REACTORS
330
47
102
}
330
47
100
AcDbScale
 70
     0
300
1/32" = 1'-0"
140
0.03125
141
12.0
290
     0
  0
SCALE
  5
5C
102
{ACAD_REACTORS
330
47
102
}
330
47
100
AcDbScale
 70
     0
300
1/16" = 1'-0"
140
0.0625
141
12.0
290
     0
  0
SCALE
  5
5D
102
{ACAD_REACTORS
330
47
102
}
330
47
100
AcDbScale
 70
     0
300
3/32" = 1'-0"
140
0.09375
141
12.0
290
     0
  0
SCALE
  5
5E
102
{ACAD_REACTORS
330
47
102
}
330
47
100
AcDbScale
 70
     0
300
1/8" = 1'-0"
140
0.125
141
12.0
290
     0
  0
SCALE
  5
5F
102
{ACAD_REACTORS
330
47
102
}
330
47
100
AcDbScale
 70
     0
300
3/16" = 1'-0"
140
0.1875
141
12.0
290
     0
  0
SCALE
  5
60
102
{ACAD_REACTORS
330
47
102
}
330
47
100
AcDbScale
 70
     0
300
1/4" = 1'-0"
140
0.25
141
12.0
290
     0
  0
SCALE
  5
61
102
{ACAD_REACTORS
330
47
102
}
330
47
100
AcDbScale
 70
     0
300
3/8" = 1'-0"
140
0.375
141
12.0
290
     0
  0
SCALE
  5
62
102
{ACAD_REACTORS
330
47
102
}
330
47
100
AcDbScale
 70
     0
300
1/2" = 1'-0"
140
0.5
141
12.0
290
     0
  0
SCALE
  5
63
102
{ACAD_REACTORS
330
47
102
}
330
47
100
AcDbScale
 70
     0
300
3/4" = 1'-0"
140
0.75
141
12.0
290
     0
  0
SCALE
  5
64
102
{ACAD_REACTORS
330
47
102
}
330
47
100
AcDbScale
 70
     0
300
1" = 1'-0"
140
1.0
141
12.0
290
     0
  0
SCALE
  5
65
102
{ACAD_REACTORS
330
47
102
}
330
47
100
AcDbScale
 70
     0
300
1-1/2" = 1'-0"
140
1.5
141
12.0
290
     0
  0
SCALE
  5
66
102
{ACAD_REACTORS
330
47
102
}
330
47
100
AcDbScale
 70
     0
300
3" = 1'-0"
140
3.0
141
12.0
290
     0
  0
SCALE
  5
67
102
{ACAD_REACTORS
330
47
102
}
330
47
100
AcDbScale
 70
     0
300
6" = 1'-0"
140
6.0
141
12.0
290
     0
  0
SCALE
  5
68
102
{ACAD_REACTORS
330
47
102
}
330
47
100
AcDbScale
 70
     0
300
1'-0" = 1'-0"
140
12.0
141
12.0
290
     0
  0
ENDSEC
  0
EOF
