  0
SECTION
  2
HEADER
  9
$ACADVER
  1
AC1015
  9
$ACADMAINTVER
 70
     6
  9
$DWGCODEPAGE
  3
ANSI_1252
  9
$INSBASE
 10
0.0
 20
0.0
 30
0.0
  9
$EXTMIN
 10
-3.8093877982
 20
-3.8093877982
 30
0.0
  9
$EXTMAX
 10
3.8093877982
 20
3.8093877982
 30
0.0
  9
$LIMMIN
 10
0.0
 20
0.0
  9
$LIMMAX
 10
12.0
 20
9.0
  9
$ORTHOMODE
 70
     0
  9
$REGENMODE
 70
     1
  9
$FILLMODE
 70
     1
  9
$QTEXTMODE
 70
     0
  9
$MIRRTEXT
 70
     1
  9
$LTSCALE
 40
1.0
  9
$ATTMODE
 70
     1
  9
$TEXTSIZE
 40
0.1377952756
  9
$TRACEWID
 40
0.05
  9
$TEXTSTYLE
  7
Standard
  9
$CLAYER
  8
0
  9
$CELTYPE
  6
ByLayer
  9
$CECOLOR
 62
   256
  9
$CELTSCALE
 40
1.0
  9
$DISPSILH
 70
     0
  9
$DIMSCALE
 40
1.0
  9
$DIMASZ
 40
0.13
  9
$DIMEXO
 40
0.0393700787
  9
$DIMDLI
 40
0.38
  9
$DIMRND
 40
0.0
  9
$DIMDLE
 40
0.0
  9
$DIMEXE
 40
0.0393700787
  9
$DIMTP
 40
0.0
  9
$DIMTM
 40
0.0
  9
$DIMTXT
 40
0.1377952756
  9
$DIMCEN
 40
0.09
  9
$DIMTSZ
 40
0.0
  9
$DIMTOL
 70
     0
  9
$DIMLIM
 70
     0
  9
$DIMTIH
 70
     1
  9
$DIMTOH
 70
     1
  9
$DIMSE1
 70
     0
  9
$DIMSE2
 70
     0
  9
$DIMTAD
 70
     1
  9
$DIMZIN
 70
     0
  9
$DIMBLK
  1

  9
$DIMASO
 70
     1
  9
$DIMSHO
 70
     1
  9
$DIMPOST
  1

  9
$DIMAPOST
  1

  9
$DIMALT
 70
     0
  9
$DIMALTD
 70
     2
  9
$DIMALTF
 40
25.4
  9
$DIMLFAC
 40
1.0
  9
$DIMTOFL
 70
     0
  9
$DIMTVP
 40
0.0
  9
$DIMTIX
 70
     0
  9
$DIMSOXD
 70
     0
  9
$DIMSAH
 70
     0
  9
$DIMBLK1
  1

  9
$DIMBLK2
  1

  9
$DIMSTYLE
  2
Standard
  9
$DIMCLRD
 70
     0
  9
$DIMCLRE
 70
     0
  9
$DIMCLRT
 70
     0
  9
$DIMTFAC
 40
1.0
  9
$DIMGAP
 40
0.06
  9
$DIMJUST
 70
     0
  9
$DIMSD1
 70
     0
  9
$DIMSD2
 70
     0
  9
$DIMTOLJ
 70
     1
  9
$DIMTZIN
 70
     0
  9
$DIMALTZ
 70
     0
  9
$DIMALTTZ
 70
     0
  9
$DIMUPT
 70
     0
  9
$DIMDEC
 70
     3
  9
$DIMTDEC
 70
     3
  9
$DIMALTU
 70
     2
  9
$DIMALTTD
 70
     2
  9
$DIMTXSTY
  7
Standard
  9
$DIMAUNIT
 70
     0
  9
$DIMADEC
 70
     2
  9
$DIMALTRND
 40
0.0
  9
$DIMAZIN
 70
     0
  9
$DIMDSEP
 70
    46
  9
$DIMATFIT
 70
     3
  9
$DIMFRAC
 70
     0
  9
$DIMLDRBLK
  1

  9
$DIMLUNIT
 70
     2
  9
$DIMLWD
 70
    -2
  9
$DIMLWE
 70
    -2
  9
$DIMTMOVE
 70
     0
  9
$LUNITS
 70
     2
  9
$LUPREC
 70
     3
  9
$SKETCHINC
 40
0.1
  9
$FILLETRAD
 40
0.5
  9
$AUNITS
 70
     0
  9
$AUPREC
 70
     2
  9
$MENU
  1
.
  9
$ELEVATION
 40
0.0
  9
$PELEVATION
 40
0.0
  9
$THICKNESS
 40
0.0
  9
$LIMCHECK
 70
     0
  9
$CHAMFERA
 40
0.0
  9
$CHAMFERB
 40
0.0
  9
$CHAMFERC
 40
0.0
  9
$CHAMFERD
 40
0.0
  9
$SKPOLY
 70
     0
  9
$TDCREATE
 40
2458065.520268125
  9
$TDUCREATE
 40
2458065.728601458
  9
$TDUPDATE
 40
2458065.52029265
  9
$TDUUPDATE
 40
2458065.728625984
  9
$TDINDWG
 40
0.0000000116
  9
$TDUSRTIMER
 40
0.0000000116
  9
$USRTIMER
 70
     1
  9
$ANGBASE
 50
0.0
  9
$ANGDIR
 70
     0
  9
$PDMODE
 70
     0
  9
$PDSIZE
 40
-1.0
  9
$PLINEWID
 40
0.0
  9
$SPLFRAME
 70
     0
  9
$SPLINETYPE
 70
     6
  9
$SPLINESEGS
 70
     8
  9
$HANDSEED
  5
347
  9
$SURFTAB1
 70
     6
  9
$SURFTAB2
 70
     6
  9
$SURFTYPE
 70
     6
  9
$SURFU
 70
     6
  9
$SURFV
 70
     6
  9
$UCSBASE
  2

  9
$UCSNAME
  2

  9
$UCSORG
 10
0.0
 20
0.0
 30
0.0
  9
$UCSXDIR
 10
1.0
 20
0.0
 30
0.0
  9
$UCSYDIR
 10
0.0
 20
1.0
 30
0.0
  9
$UCSORTHOREF
  2

  9
$UCSORTHOVIEW
 70
     0
  9
$UCSORGTOP
 10
0.0
 20
0.0
 30
0.0
  9
$UCSORGBOTTOM
 10
0.0
 20
0.0
 30
0.0
  9
$UCSORGLEFT
 10
0.0
 20
0.0
 30
0.0
  9
$UCSORGRIGHT
 10
0.0
 20
0.0
 30
0.0
  9
$UCSORGFRONT
 10
0.0
 20
0.0
 30
0.0
  9
$UCSORGBACK
 10
0.0
 20
0.0
 30
0.0
  9
$PUCSBASE
  2

  9
$PUCSNAME
  2

  9
$PUCSORG
 10
0.0
 20
0.0
 30
0.0
  9
$PUCSXDIR
 10
1.0
 20
0.0
 30
0.0
  9
$PUCSYDIR
 10
0.0
 20
1.0
 30
0.0
  9
$PUCSORTHOREF
  2

  9
$PUCSORTHOVIEW
 70
     0
  9
$PUCSORGTOP
 10
0.0
 20
0.0
 30
0.0
  9
$PUCSORGBOTTOM
 10
0.0
 20
0.0
 30
0.0
  9
$PUCSORGLEFT
 10
0.0
 20
0.0
 30
0.0
  9
$PUCSORGRIGHT
 10
0.0
 20
0.0
 30
0.0
  9
$PUCSORGFRONT
 10
0.0
 20
0.0
 30
0.0
  9
$PUCSORGBACK
 10
0.0
 20
0.0
 30
0.0
  9
$USERI1
 70
     0
  9
$USERI2
 70
     0
  9
$USERI3
 70
     0
  9
$USERI4
 70
     0
  9
$USERI5
 70
     0
  9
$USERR1
 40
0.0
  9
$USERR2
 40
0.0
  9
$USERR3
 40
0.0
  9
$USERR4
 40
0.0
  9
$USERR5
 40
0.0
  9
$WORLDVIEW
 70
     1
  9
$SHADEDGE
 70
     3
  9
$SHADEDIF
 70
    70
  9
$TILEMODE
 70
     1
  9
$MAXACTVP
 70
    64
  9
$PINSBASE
 10
0.0
 20
0.0
 30
0.0
  9
$PLIMCHECK
 70
     0
  9
$PEXTMIN
 10
1.0000000000E+20
 20
1.0000000000E+20
 30
1.0000000000E+20
  9
$PEXTMAX
 10
-1.0000000000E+20
 20
-1.0000000000E+20
 30
-1.0000000000E+20
  9
$PLIMMIN
 10
0.0
 20
0.0
  9
$PLIMMAX
 10
12.0
 20
9.0
  9
$UNITMODE
 70
     0
  9
$VISRETAIN
 70
     1
  9
$PLINEGEN
 70
     0
  9
$PSLTSCALE
 70
     1
  9
$TREEDEPTH
 70
  3020
  9
$CMLSTYLE
  2
Standard
  9
$CMLJUST
 70
     0
  9
$CMLSCALE
 40
1.0
  9
$PROXYGRAPHICS
 70
     1
  9
$MEASUREMENT
 70
     0
  9
$CELWEIGHT
370
    -1
  9
$ENDCAPS
280
     0
  9
$JOINSTYLE
280
     0
  9
$LWDISPLAY
290
     1
  9
$INSUNITS
 70
     1
  9
$HYPERLINKBASE
  1

  9
$STYLESHEET
  1

  9
$XEDIT
290
     1
  9
$CEPSNTYPE
380
     0
  9
$PSTYLEMODE
290
     1
  9
$FINGERPRINTGUID
  2
{172431E2-66A0-4C0B-8183-BEC18EAAB3D3}
  9
$VERSIONGUID
  2
{FAEB1C32-E019-11D5-929B-00C0DF256EC4}
  9
$EXTNAMES
290
     1
  9
$PSVPSCALE
 40
0.0
  9
$OLESTARTUP
290
     0
  0
ENDSEC
  0
SECTION
  2
CLASSES
  0
CLASS
  1
ACDBDICTIONARYWDFLT
  2
AcDbDictionaryWithDefault
  3
ObjectDBX Classes
 90
        0
280
     0
281
     0
  0
CLASS
  1
VISUALSTYLE
  2
AcDbVisualStyle
  3
ObjectDBX Classes
 90
     4095
280
     0
281
     0
  0
CLASS
  1
MATERIAL
  2
AcDbMaterial
  3
ObjectDBX Classes
 90
     1153
280
     0
281
     0
  0
CLASS
  1
SCALE
  2
AcDbScale
  3
ObjectDBX Classes
 90
     1153
280
     0
281
     0
  0
CLASS
  1
TABLESTYLE
  2
AcDbTableStyle
  3
ObjectDBX Classes
 90
     4095
280
     0
281
     0
  0
CLASS
  1
MLEADERSTYLE
  2
AcDbMLeaderStyle
  3
ACDB_MLEADERSTYLE_CLASS
 90
     4095
280
     0
281
     0
  0
CLASS
  1
SUN
  2
AcDbSun
  3
SCENEOE
 90
     1153
280
     0
281
     0
  0
CLASS
  1
ACDBPLACEHOLDER
  2
AcDbPlaceHolder
  3
ObjectDBX Classes
 90
        0
280
     0
281
     0
  0
CLASS
  1
LAYOUT
  2
AcDbLayout
  3
ObjectDBX Classes
 90
        0
280
     0
281
     0
  0
ENDSEC
  0
SECTION
  2
TABLES
  0
TABLE
  2
VPORT
  5
8
330
0
100
AcDbSymbolTable
 70
     1
  0
VPORT
  5
29
330
8
100
AcDbSymbolTableRecord
100
AcDbViewportTableRecord
  2
*Active
 70
     0
 10
0.0
 20
0.0
 11
1.0
 21
1.0
 12
0.0
 22
0.0
 13
0.0
 23
0.0
 14
0.5
 24
0.5
 15
0.5
 25
0.5
 16
0.0
 26
0.0
 36
1.0
 17
0.0
 27
0.0
 37
0.0
 40
7.7711511084
 41
1.0
 42
50.0
 43
0.0
 44
0.0
 50
0.0
 51
0.0
 71
     0
 72
   100
 73
     1
 74
     3
 75
     0
 76
     0
 77
     0
 78
     0
281
     0
 65
     1
110
0.0
120
0.0
130
0.0
111
1.0
121
0.0
131
0.0
112
0.0
122
1.0
132
0.0
 79
     0
146
0.0
  0
ENDTAB
  0
TABLE
  2
LTYPE
  5
5
330
0
100
AcDbSymbolTable
 70
     6
  0
LTYPE
  5
14
330
5
100
AcDbSymbolTableRecord
100
AcDbLinetypeTableRecord
  2
ByBlock
 70
     0
  3

 72
    65
 73
     0
 40
0.0
  0
LTYPE
  5
15
330
5
100
AcDbSymbolTableRecord
100
AcDbLinetypeTableRecord
  2
ByLayer
 70
     0
  3

 72
    65
 73
     0
 40
0.0
  0
LTYPE
  5
16
330
5
100
AcDbSymbolTableRecord
100
AcDbLinetypeTableRecord
  2
Continuous
 70
     0
  3
Solid line
 72
    65
 73
     0
 40
0.0
  0
LTYPE
  5
6E
330
5
100
AcDbSymbolTableRecord
100
AcDbLinetypeTableRecord
  2
HIDDEN
 70
     0
  3
Hidden __ __ __ __ __ __ __ __ __ __ __ __ __ __
 72
    65
 73
     2
 40
0.075
 49
0.05
 74
     0
 49
-0.025
 74
     0
  0
LTYPE
  5
6F
330
5
100
AcDbSymbolTableRecord
100
AcDbLinetypeTableRecord
  2
PHANTOM
 70
     0
  3
Phantom ______  __  __  ______  __  __  ______
 72
    65
 73
     6
 40
0.5
 49
0.25
 74
     0
 49
-0.05
 74
     0
 49
0.05
 74
     0
 49
-0.05
 74
     0
 49
0.05
 74
     0
 49
-0.05
 74
     0
  0
LTYPE
  5
70
330
5
100
AcDbSymbolTableRecord
100
AcDbLinetypeTableRecord
  2
CENTER
 70
     0
  3
Center ____ _ ____ _ ____ _ ____ _ ____ _ ____
 72
    65
 73
     4
 40
0.4
 49
0.25
 74
     0
 49
-0.05
 74
     0
 49
0.05
 74
     0
 49
-0.05
 74
     0
  0
LTYPE
  5
71
330
5
100
AcDbSymbolTableRecord
100
AcDbLinetypeTableRecord
  2
CENTERX2
 70
     0
  3
Center (2x) ________  __  ________  __  _____
 72
    65
 73
     4
 40
0.8
 49
0.5
 74
     0
 49
-0.1
 74
     0
 49
0.1
 74
     0
 49
-0.1
 74
     0
  0
LTYPE
  5
72
330
5
100
AcDbSymbolTableRecord
100
AcDbLinetypeTableRecord
  2
DOT2
 70
     0
  3
Dot (.5x) ........................................
 72
    65
 73
     2
 40
0.025
 49
0.0
 74
     0
 49
-0.025
 74
     0
  0
ENDTAB
  0
TABLE
  2
LAYER
  5
2
330
0
100
AcDbSymbolTable
 70
     1
  0
LAYER
  5
10
330
2
100
AcDbSymbolTableRecord
100
AcDbLayerTableRecord
  2
0
 70
     0
 62
     7
  6
Continuous
370
    -3
390
F
  0
ENDTAB
  0
TABLE
  2
STYLE
  5
3
330
0
100
AcDbSymbolTable
 70
     2
  0
STYLE
  5
11
330
3
100
AcDbSymbolTableRecord
100
AcDbTextStyleTableRecord
  2
Standard
 70
     0
 40
0.0
 41
1.0
 50
0.0
 71
     0
 42
0.1377952756
  3
txt
  4

  0
STYLE
  5
344
330
3
100
AcDbSymbolTableRecord
100
AcDbTextStyleTableRecord
  2
SLDTEXTSTYLE0
 70
     0
 40
0.0
 41
0.7
 50
0.0
 71
     0
 42
0.1377952756
  3
TXT
  4

  0
ENDTAB
  0
TABLE
  2
VIEW
  5
6
330
0
100
AcDbSymbolTable
 70
     0
  0
ENDTAB
  0
TABLE
  2
UCS
  5
7
330
0
100
AcDbSymbolTable
 70
     0
  0
ENDTAB
  0
TABLE
  2
APPID
  5
9
330
0
100
AcDbSymbolTable
 70
     1
  0
APPID
  5
12
330
9
100
AcDbSymbolTableRecord
100
AcDbRegAppTableRecord
  2
ACAD
 70
     0
  0
ENDTAB
  0
TABLE
  2
DIMSTYLE
  5
A
330
0
100
AcDbSymbolTable
 70
     1
100
AcDbDimStyleTable
  0
DIMSTYLE
105
27
330
A
100
AcDbSymbolTableRecord
100
AcDbDimStyleTableRecord
  2
Standard
 70
     0
178
     0
340
11
  0
ENDTAB
  0
TABLE
  2
BLOCK_RECORD
  5
1
330
0
100
AcDbSymbolTable
 70
     1
  0
BLOCK_RECORD
  5
1F
330
1
100
AcDbSymbolTableRecord
100
AcDbBlockTableRecord
  2
*Model_Space
340
22
  0
BLOCK_RECORD
  5
1B
330
1
100
AcDbSymbolTableRecord
100
AcDbBlockTableRecord
  2
*Paper_Space
340
1E
  0
BLOCK_RECORD
  5
23
330
1
100
AcDbSymbolTableRecord
100
AcDbBlockTableRecord
  2
*Paper_Space0
340
26
  0
ENDTAB
  0
ENDSEC
  0
SECTION
  2
BLOCKS
  0
BLOCK
  5
20
330
1F
100
AcDbEntity
  8
0
100
AcDbBlockBegin
  2
*Model_Space
 70
     0
 10
0.0
 20
0.0
 30
0.0
  3
*Model_Space
  1

  0
ENDBLK
  5
21
330
1F
100
AcDbEntity
  8
0
100
AcDbBlockEnd
  0
BLOCK
  5
1C
330
1B
100
AcDbEntity
 67
     1
  8
0
100
AcDbBlockBegin
  2
*Paper_Space
 70
     0
 10
0.0
 20
0.0
 30
0.0
  3
*Paper_Space
  1

  0
ENDBLK
  5
1D
330
1B
100
AcDbEntity
 67
     1
  8
0
100
AcDbBlockEnd
  0
BLOCK
  5
24
330
23
100
AcDbEntity
  8
0
100
AcDbBlockBegin
  2
*Paper_Space0
 70
     0
 10
0.0
 20
0.0
 30
0.0
  3
*Paper_Space0
  1

  0
ENDBLK
  5
25
330
23
100
AcDbEntity
  8
0
100
AcDbBlockEnd
  0
ENDSEC
  0
SECTION
  2
ENTITIES
  0
CIRCLE
  5
73
330
1F
100
AcDbEntity
  8
0
  6
Continuous
 62
     7
370
    25
100
AcDbCircle
 10
0.0
 20
0.0
 30
0.0
 40
0.125
  0
ARC
  5
74
330
1F
100
AcDbEntity
  8
0
  6
Continuous
 62
     7
370
    25
100
AcDbCircle
 10
3.760098256
 20
0.2104821795
 30
0.0
 40
0.0149999999999999
100
AcDbArc
 50
118.0
 51
183.0
  0
LINE
  5
75
330
1F
100
AcDbEntity
  8
0
  6
Continuous
 62
     7
370
    25
100
AcDbLine
 10
3.7530561825
 20
0.2237263934
 30
0.0
 11
3.8015395689
 21
0.2495054672
 31
0.0
  0
ARC
  5
76
330
1F
100
AcDbEntity
  8
0
  6
Continuous
 62
     7
370
    25
100
AcDbCircle
 10
0.0
 20
0.0
 30
0.0
 40
3.809718634205489
100
AcDbArc
 50
3.7550934315
 51
5.2449065685
  0
LINE
  5
77
330
1F
100
AcDbEntity
  8
0
  6
Continuous
 62
     7
370
    25
100
AcDbLine
 10
3.7418483518
 20
0.3661353859
 30
0.0
 11
3.7937675628
 21
0.3482581679
 31
0.0
  0
ARC
  5
78
330
1F
100
AcDbEntity
  8
0
  6
Continuous
 62
     7
370
    25
100
AcDbCircle
 10
3.7467318741
 20
0.3803181646
 30
0.0
 40
0.0149999999999997
100
AcDbArc
 50
186.0
 51
251.0
  0
LINE
  5
79
330
1F
100
AcDbEntity
  8
0
  6
Continuous
 62
     7
370
    25
100
AcDbLine
 10
3.7290115574
 20
0.4054141318
 30
0.0
 11
3.7318140456
 21
0.3787502376
 31
0.0
  0
ARC
  5
7A
330
1F
100
AcDbEntity
  8
0
  6
Continuous
 62
     7
370
    25
100
AcDbCircle
 10
3.7439293859
 20
0.4069820588
 30
0.0
 40
0.015
100
AcDbArc
 50
121.0
 51
186.0
  0
LINE
  5
7B
330
1F
100
AcDbEntity
  8
0
  6
Continuous
 62
     7
370
    25
100
AcDbLine
 10
3.7362038147
 20
0.4198395683
 30
0.0
 11
3.7832715838
 21
0.4481207371
 31
0.0
  0
ARC
  5
7C
330
1F
100
AcDbEntity
  8
0
  6
Continuous
 62
     7
370
    25
100
AcDbCircle
 10
0.0
 20
0.0
 30
0.0
 40
3.809718634205489
100
AcDbArc
 50
6.7550934315
 51
8.2449065685
  0
LINE
  5
7D
330
1F
100
AcDbEntity
  8
0
  6
Continuous
 62
     7
370
    25
100
AcDbLine
 10
3.7175582331
 20
0.5614668217
 30
0.0
 11
3.7703419119
 21
0.5463313454
 31
0.0
  0
ARC
  5
7E
330
1F
100
AcDbEntity
  8
0
  6
Continuous
 62
     7
370
    25
100
AcDbCircle
 10
3.7216927934
 20
0.5758857472
 30
0.0
 40
0.0149999999999997
100
AcDbArc
 50
189.0
 51
254.0
  0
LINE
  5
7F
330
1F
100
AcDbEntity
  8
0
  6
Continuous
 62
     7
370
    25
100
AcDbLine
 10
3.7026833404
 20
0.6000199116
 30
0.0
 11
3.7068774683
 21
0.5735392302
 31
0.0
  0
ARC
  5
80
330
1F
100
AcDbEntity
  8
0
  6
Continuous
 62
     7
370
    25
100
AcDbCircle
 10
3.7174986655
 20
0.6023664285
 30
0.0
 40
0.0149999999999994
100
AcDbArc
 50
124.0
 51
189.0
  0
LINE
  5
81
330
1F
100
AcDbEntity
  8
0
  6
Continuous
 62
     7
370
    25
100
AcDbLine
 10
3.709110772
 20
0.6148019921
 30
0.0
 11
3.7546339143
 21
0.6455077393
 31
0.0
  0
ARC
  5
82
330
1F
100
AcDbEntity
  8
0
  6
Continuous
 62
     7
370
    25
100
AcDbCircle
 10
0.0
 20
0.0
 30
0.0
 40
3.80971863420549
100
AcDbArc
 50
9.7550934315
 51
11.2449065685
  0
LINE
  5
83
330
1F
100
AcDbEntity
  8
0
  6
Continuous
 62
     7
370
    25
100
AcDbLine
 10
3.6830785457
 20
0.755259316
 30
0.0
 11
3.736582016
 21
0.7429070666
 31
0.0
  0
ARC
  5
84
330
1F
100
AcDbEntity
  8
0
  6
Continuous
 62
     7
370
    25
100
AcDbCircle
 10
3.6864528115
 20
0.769874867
 30
0.0
 40
0.0149999999999995
100
AcDbArc
 50
192.0
 51
257.0
  0
LINE
  5
85
330
1F
100
AcDbEntity
  8
0
  6
Continuous
 62
     7
370
    25
100
AcDbLine
 10
3.6662063258
 20
0.7929810784
 30
0.0
 11
3.6717805975
 21
0.7667561916
 31
0.0
  0
ARC
  5
86
330
1F
100
AcDbEntity
  8
0
  6
Continuous
 62
     7
370
    25
100
AcDbCircle
 10
3.6808785398
 20
0.7960997538
 30
0.0
 40
0.0149999999999995
100
AcDbArc
 50
127.0
 51
192.0
  0
LINE
  5
87
330
1F
100
AcDbEntity
  8
0
  6
Continuous
 62
     7
370
    25
100
AcDbLine
 10
3.6718513144
 20
0.8080792864
 30
0.0
 11
3.7157050542
 21
0.8411254496
 31
0.0
  0
ARC
  5
88
330
1F
100
AcDbEntity
  8
0
  6
Continuous
 62
     7
370
    25
100
AcDbCircle
 10
0.0
 20
0.0
 30
0.0
 40
3.809718634205489
100
AcDbArc
 50
12.7550934315
 51
14.2449065685
  0
LINE
  5
89
330
1F
100
AcDbEntity
  8
0
  6
Continuous
 62
     7
370
    25
100
AcDbLine
 10
3.6385037961
 20
0.9469816969
 30
0.0
 11
3.6925804085
 21
0.9374465312
 31
0.0
  0
ARC
  5
8A
330
1F
100
AcDbEntity
  8
0
  6
Continuous
 62
     7
370
    25
100
AcDbCircle
 10
3.6411085187
 20
0.9617538132
 30
0.0
 40
0.0149999999999998
100
AcDbArc
 50
195.0
 51
260.0
  0
LINE
  5
8B
330
1F
100
AcDbEntity
  8
0
  6
Continuous
 62
     7
370
    25
100
AcDbLine
 10
3.6196804944
 20
0.9837687392
 30
0.0
 11
3.6266196313
 21
0.9578715276
 31
0.0
  0
ARC
  5
8C
330
1F
100
AcDbEntity
  8
0
  6
Continuous
 62
     7
370
    25
100
AcDbCircle
 10
3.6341693818
 20
0.9876510249
 30
0.0
 40
0.0149999999999997
100
AcDbArc
 50
130.0
 51
195.0
  0
LINE
  5
8D
330
1F
100
AcDbEntity
  8
0
  6
Continuous
 62
     7
370
    25
100
AcDbLine
 10
3.6245275676
 20
0.9991416916
 30
0.0
 11
3.6665917048
 21
1.0344376936
 31
0.0
  0
ARC
  5
8E
330
1F
100
AcDbEntity
  8
0
  6
Continuous
 62
     7
370
    25
100
AcDbCircle
 10
0.0
 20
0.0
 30
0.0
 40
3.809718634205489
100
AcDbArc
 50
15.7550934315
 51
17.2449065685
  0
LINE
  5
8F
330
1F
100
AcDbEntity
  8
0
  6
Continuous
 62
     7
370
    25
100
AcDbLine
 10
3.5839561604
 20
1.1361084669
 30
0.0
 11
3.6384576947
 21
1.1294165199
 31
0.0
  0
ARC
  5
90
330
1F
100
AcDbEntity
  8
0
  6
Continuous
 62
     7
370
    25
100
AcDbCircle
 10
3.5857842006
 20
1.1509966592
 30
0.0
 40
0.0149999999999997
100
AcDbArc
 50
198.0
 51
263.0
  0
LINE
  5
91
330
1F
100
AcDbEntity
  8
0
  6
Continuous
 62
     7
370
    25
100
AcDbLine
 10
3.5632333704
 20
1.1718599583
 30
0.0
 11
3.5715183528
 21
1.1463614043
 31
0.0
  0
ARC
  5
92
330
1F
100
AcDbEntity
  8
0
  6
Continuous
 62
     7
370
    25
100
AcDbCircle
 10
3.5774992181
 20
1.1764952133
 30
0.0
 40
0.0149999999999997
100
AcDbArc
 50
133.0
 51
198.0
  0
LINE
  5
93
330
1F
100
AcDbEntity
  8
0
  6
Continuous
 62
     7
370
    25
100
AcDbLine
 10
3.5672692427
 20
1.1874655188
 30
0.0
 11
3.6074284825
 21
1.2249146157
 31
0.0
  0
ARC
  5
94
330
1F
100
AcDbEntity
  8
0
  6
Continuous
 62
     7
370
    25
100
AcDbCircle
 10
0.0
 20
0.0
 30
0.0
 40
3.809718634205489
100
AcDbArc
 50
18.7550934315
 51
20.2449065685
  0
LINE
  5
95
330
1F
100
AcDbEntity
  8
0
  6
Continuous
 62
     7
370
    25
100
AcDbLine
 10
3.5195851501
 20
1.3221212425
 30
0.0
 11
3.5743622213
 21
1.3182908566
 31
0.0
  0
ARC
  5
96
330
1F
100
AcDbEntity
  8
0
  6
Continuous
 62
     7
370
    25
100
AcDbCircle
 10
3.5206314972
 20
1.3370847033
 30
0.0
 40
0.0149999999999997
100
AcDbArc
 50
201.0
 51
266.0
  0
LINE
  5
97
330
1F
100
AcDbEntity
  8
0
  6
Continuous
 62
     7
370
    25
100
AcDbLine
 10
3.4970196714
 20
1.3567391908
 30
0.0
 11
3.5066277908
 21
1.331709184
 31
0.0
  0
ARC
  5
98
330
1F
100
AcDbEntity
  8
0
  6
Continuous
 62
     7
370
    25
100
AcDbCircle
 10
3.5110233778
 20
1.36211471
 30
0.0
 40
0.015
100
AcDbArc
 50
136.0
 51
201.0
  0
LINE
  5
99
330
1F
100
AcDbEntity
  8
0
  6
Continuous
 62
     7
370
    25
100
AcDbLine
 10
3.5002332808
 20
1.3725345856
 30
0.0
 11
3.5383775494
 21
1.412034132
 31
0.0
  0
ARC
  5
9A
330
1F
100
AcDbEntity
  8
0
  6
Continuous
 62
     7
370
    25
100
AcDbCircle
 10
0.0
 20
0.0
 30
0.0
 40
3.80971863420549
100
AcDbArc
 50
21.7550934315
 51
23.2449065685
  0
LINE
  5
9B
330
1F
100
AcDbEntity
  8
0
  6
Continuous
 62
     7
370
    25
100
AcDbLine
 10
3.4455672014
 20
1.5045101757
 30
0.0
 11
3.5004696696
 21
1.5035518496
 31
0.0
  0
ARC
  5
9C
330
1F
100
AcDbEntity
  8
0
  6
Continuous
 62
     7
370
    25
100
AcDbCircle
 10
3.4458289875
 20
1.5195078911
 30
0.0
 40
0.0149999999999999
100
AcDbArc
 50
204.0
 51
269.0
  0
LINE
  5
9D
330
1F
100
AcDbEntity
  8
0
  6
Continuous
 62
     7
370
    25
100
AcDbLine
 10
3.4212208845
 20
1.5378996953
 30
0.0
 11
3.4321258057
 21
1.5134068415
 31
0.0
  0
ARC
  5
9E
330
1F
100
AcDbEntity
  8
0
  6
Continuous
 62
     7
370
    25
100
AcDbCircle
 10
3.4349240664
 20
1.544000745
 30
0.0
 40
0.0149999999999993
100
AcDbArc
 50
139.0
 51
204.0
  0
LINE
  5
9F
330
1F
100
AcDbEntity
  8
0
  6
Continuous
 62
     7
370
    25
100
AcDbLine
 10
3.4236034227
 20
1.5538416304
 30
0.0
 11
3.4596281694
 21
1.5952833609
 31
0.0
  0
ARC
  5
A0
330
1F
100
AcDbEntity
  8
0
  6
Continuous
 62
     7
370
    25
100
AcDbCircle
 10
0.0
 20
0.0
 30
0.0
 40
3.80971863420549
100
AcDbArc
 50
24.7550934315
 51
26.2449065685
  0
LINE
  5
A1
330
1F
100
AcDbEntity
  8
0
  6
Continuous
 62
     7
370
    25
100
AcDbLine
 10
3.3621051926
 20
1.6827753511
 30
0.0
 11
3.4169825737
 21
1.6846917115
 31
0.0
  0
ARC
  5
A2
330
1F
100
AcDbEntity
  8
0
  6
Continuous
 62
     7
370
    25
100
AcDbCircle
 10
3.3615817002
 20
1.6977662135
 30
0.0
 40
0.0149999999999993
100
AcDbArc
 50
207.0
 51
272.0
  0
LINE
  5
A3
330
1F
100
AcDbEntity
  8
0
  6
Continuous
 62
     7
370
    25
100
AcDbLine
 10
3.3360447691
 20
1.7148449238
 30
0.0
 11
3.3482166023
 21
1.690956356
 31
0.0
  0
ARC
  5
A4
330
1F
100
AcDbEntity
  8
0
  6
Continuous
 62
     7
370
    25
100
AcDbCircle
 10
3.3494098669
 20
1.7216547813
 30
0.0
 40
0.0149999999999993
100
AcDbArc
 50
142.0
 51
207.0
  0
LINE
  5
A5
330
1F
100
AcDbEntity
  8
0
  6
Continuous
 62
     7
370
    25
100
AcDbLine
 10
3.3375897056
 20
1.7308897034
 30
0.0
 11
3.371396189
 21
1.774160029
 31
0.0
  0
ARC
  5
A6
330
1F
100
AcDbEntity
  8
0
  6
Continuous
 62
     7
370
    25
100
AcDbCircle
 10
0.0
 20
0.0
 30
0.0
 40
3.809718634205489
100
AcDbArc
 50
27.7550934315
 51
29.2449065685
  0
LINE
  5
A7
330
1F
100
AcDbEntity
  8
0
  6
Continuous
 62
     7
370
    25
100
AcDbLine
 10
3.2694278871
 20
1.8564281562
 30
0.0
 11
3.3241297662
 21
1.8612139505
 31
0.0
  0
ARC
  5
A8
330
1F
100
AcDbEntity
  8
0
  6
Continuous
 62
     7
370
    25
100
AcDbCircle
 10
3.268120551
 20
1.8713710767
 30
0.0
 40
0.0149999999999997
100
AcDbArc
 50
210.0
 51
275.0
  0
LINE
  5
A9
330
1F
100
AcDbEntity
  8
0
  6
Continuous
 62
     7
370
    25
100
AcDbLine
 10
3.2417247868
 20
1.8870898815
 30
0.0
 11
3.2551301699
 21
1.8638710767
 31
0.0
  0
ARC
  5
AA
330
1F
100
AcDbEntity
  8
0
  6
Continuous
 62
     7
370
    25
100
AcDbCircle
 10
3.2547151678
 20
1.8945898815
 30
0.0
 40
0.015
100
AcDbArc
 50
145.0
 51
210.0
  0
LINE
  5
AB
330
1F
100
AcDbEntity
  8
0
  6
Continuous
 62
     7
370
    25
100
AcDbLine
 10
3.2424278871
 20
1.903193528
 30
0.0
 11
3.2739234461
 21
1.9481738477
 31
0.0
  0
ARC
  5
AC
330
1F
100
AcDbEntity
  8
0
  6
Continuous
 62
     7
370
    25
100
AcDbCircle
 10
0.0
 20
0.0
 30
0.0
 40
3.809718634205489
100
AcDbArc
 50
30.7550934315
 51
32.2449065685
  0
LINE
  5
AD
330
1F
100
AcDbEntity
  8
0
  6
Continuous
 62
     7
370
    25
100
AcDbLine
 10
3.1677893071
 20
2.0249926208
 30
0.0
 11
3.22216575
 21
2.0326347314
 31
0.0
  0
ARC
  5
AE
330
1F
100
AcDbEntity
  8
0
  6
Continuous
 62
     7
370
    25
100
AcDbCircle
 10
3.1657017106
 20
2.0398466418
 30
0.0
 40
0.0149999999999998
100
AcDbArc
 50
213.0
 51
278.0
  0
LINE
  5
AF
330
1F
100
AcDbEntity
  8
0
  6
Continuous
 62
     7
370
    25
100
AcDbLine
 10
3.1385194621
 20
2.054162457
 30
0.0
 11
3.1531216521
 21
2.0316770563
 31
0.0
  0
ARC
  5
B0
330
1F
100
AcDbEntity
  8
0
  6
Continuous
 62
     7
370
    25
100
AcDbCircle
 10
3.1510995207
 20
2.0623320425
 30
0.0
 40
0.015
100
AcDbArc
 50
148.0
 51
213.0
  0
LINE
  5
B1
330
1F
100
AcDbEntity
  8
0
  6
Continuous
 62
     7
370
    25
100
AcDbLine
 10
3.1383787992
 20
2.0702808314
 30
0.0
 11
3.1674771065
 21
2.1168478574
 31
0.0
  0
ARC
  5
B2
330
1F
100
AcDbEntity
  8
0
  6
Continuous
 62
     7
370
    25
100
AcDbCircle
 10
0.0
 20
0.0
 30
0.0
 40
3.809718634205489
100
AcDbArc
 50
33.7550934315
 51
35.2449065685
  0
LINE
  5
B3
330
1F
100
AcDbEntity
  8
0
  6
Continuous
 62
     7
370
    25
100
AcDbLine
 10
3.0574680368
 20
2.1880067213
 30
0.0
 11
3.1113700014
 21
2.1984842019
 31
0.0
  0
ARC
  5
B4
330
1F
100
AcDbEntity
  8
0
  6
Continuous
 62
     7
370
    25
100
AcDbCircle
 10
3.0546059018
 20
2.2027311291
 30
0.0
 40
0.0149999999999994
100
AcDbArc
 50
216.0
 51
281.0
  0
LINE
  5
B5
330
1F
100
AcDbEntity
  8
0
  6
Continuous
 62
     7
370
    25
100
AcDbLine
 10
3.0267116738
 20
2.2156047159
 30
0.0
 11
3.0424706469
 21
2.1939143503
 31
0.0
  0
ARC
  5
B6
330
1F
100
AcDbEntity
  8
0
  6
Continuous
 62
     7
370
    25
100
AcDbCircle
 10
3.0388469287
 20
2.2244214947
 30
0.0
 40
0.0149999999999996
100
AcDbArc
 50
151.0
 51
216.0
  0
LINE
  5
B7
330
1F
100
AcDbEntity
  8
0
  6
Continuous
 62
     7
370
    25
100
AcDbLine
 10
3.0257276331
 20
2.231693639
 30
0.0
 11
3.0523489324
 21
2.2797197342
 31
0.0
  0
ARC
  5
B8
330
1F
100
AcDbEntity
  8
0
  6
Continuous
 62
     7
370
    25
100
AcDbCircle
 10
0.0
 20
0.0
 30
0.0
 40
3.809718634205489
100
AcDbArc
 50
36.7550934315
 51
38.2449065685
  0
LINE
  5
B9
330
1F
100
AcDbEntity
  8
0
  6
Continuous
 62
     7
370
    25
100
AcDbLine
 10
2.938766459
 20
2.3450236475
 30
0.0
 11
2.992046204
 21
2.3583077799
 31
0.0
  0
ARC
  5
BA
330
1F
100
AcDbEntity
  8
0
  6
Continuous
 62
     7
370
    25
100
AcDbCircle
 10
2.9351376306
 20
2.3595780834
 30
0.0
 40
0.0150000000000003
100
AcDbArc
 50
219.0
 51
284.0
  0
LINE
  5
BB
330
1F
100
AcDbEntity
  8
0
  6
Continuous
 62
     7
370
    25
100
AcDbLine
 10
2.9066078792
 20
2.3709741564
 30
0.0
 11
2.9234804412
 21
2.3501382776
 31
0.0
  0
ARC
  5
BC
330
1F
100
AcDbEntity
  8
0
  6
Continuous
 62
     7
370
    25
100
AcDbCircle
 10
2.9182650686
 20
2.3804139623
 30
0.0
 40
0.0149999999999998
100
AcDbArc
 50
154.0
 51
219.0
  0
LINE
  5
BD
330
1F
100
AcDbEntity
  8
0
  6
Continuous
 62
     7
370
    25
100
AcDbLine
 10
2.9047831579
 20
2.3869895295
 30
0.0
 11
2.928854482
 21
2.4363430577
 31
0.0
  0
ARC
  5
BE
330
1F
100
AcDbEntity
  8
0
  6
Continuous
 62
     7
370
    25
100
AcDbCircle
 10
0.0
 20
0.0
 30
0.0
 40
3.80971863420549
100
AcDbArc
 50
39.7550934315
 51
41.2449065685
  0
LINE
  5
BF
330
1F
100
AcDbEntity
  8
0
  6
Continuous
 62
     7
370
    25
100
AcDbLine
 10
2.8120099267
 20
2.4956130269
 30
0.0
 11
2.8645214159
 21
2.5116674003
 31
0.0
  0
ARC
  5
C0
330
1F
100
AcDbEntity
  8
0
  6
Continuous
 62
     7
370
    25
100
AcDbCircle
 10
2.8076243512
 20
2.5099575983
 30
0.0
 40
0.0149999999999997
100
AcDbArc
 50
222.0
 51
287.0
  0
LINE
  5
C1
330
1F
100
AcDbEntity
  8
0
  6
Continuous
 62
     7
370
    25
100
AcDbLine
 10
2.7785372744
 20
2.5198449215
 30
0.0
 11
2.7964771788
 21
2.4999206392
 31
0.0
  0
ARC
  5
C2
330
1F
100
AcDbEntity
  8
0
  6
Continuous
 62
     7
370
    25
100
AcDbCircle
 10
2.7896844468
 20
2.5298818806
 30
0.0
 40
0.0149999999999998
100
AcDbArc
 50
157.0
 51
222.0
  0
LINE
  5
C3
330
1F
100
AcDbEntity
  8
0
  6
Continuous
 62
     7
370
    25
100
AcDbLine
 10
2.775876874
 20
2.5357428475
 30
0.0
 11
2.7973322451
 21
2.5862885343
 31
0.0
  0
ARC
  5
C4
330
1F
100
AcDbEntity
  8
0
  6
Continuous
 62
     7
370
    25
100
AcDbCircle
 10
0.0
 20
0.0
 30
0.0
 40
3.809718634205489
100
AcDbArc
 50
42.7550934315
 51
44.2449065685
  0
LINE
  5
C5
330
1F
100
AcDbEntity
  8
0
  6
Continuous
 62
     7
370
    25
100
AcDbLine
 10
2.6775458707
 20
2.6393621045
 30
0.0
 11
2.7291451737
 21
2.6581427149
 31
0.0
  0
ARC
  5
C6
330
1F
100
AcDbEntity
  8
0
  6
Continuous
 62
     7
370
    25
100
AcDbCircle
 10
2.6724155685
 20
2.6534574938
 30
0.0
 40
0.0150000000000003
100
AcDbArc
 50
225.0
 51
290.0
  0
LINE
  5
C7
330
1F
100
AcDbEntity
  8
0
  6
Continuous
 62
     7
370
    25
100
AcDbLine
 10
2.6428508921
 20
2.6618089668
 30
0.0
 11
2.6618089668
 21
2.6428508921
 31
0.0
  0
ARC
  5
C8
330
1F
100
AcDbEntity
  8
0
  6
Continuous
 62
     7
370
    25
100
AcDbCircle
 10
2.6534574938
 20
2.6724155685
 30
0.0
 40
0.0149999999999996
100
AcDbArc
 50
160.0
 51
225.0
  0
LINE
  5
C9
330
1F
100
AcDbEntity
  8
0
  6
Continuous
 62
     7
370
    25
100
AcDbLine
 10
2.6393621045
 20
2.6775458707
 30
0.0
 11
2.6581427149
 21
2.7291451737
 31
0.0
  0
ARC
  5
CA
330
1F
100
AcDbEntity
  8
0
  6
Continuous
 62
     7
370
    25
100
AcDbCircle
 10
0.0
 20
0.0
 30
0.0
 40
3.809718634205489
100
AcDbArc
 50
45.7550934315
 51
47.2449065685
  0
LINE
  5
CB
330
1F
100
AcDbEntity
  8
0
  6
Continuous
 62
     7
370
    25
100
AcDbLine
 10
2.5357428475
 20
2.775876874
 30
0.0
 11
2.5862885343
 21
2.7973322451
 31
0.0
  0
ARC
  5
CC
330
1F
100
AcDbEntity
  8
0
  6
Continuous
 62
     7
370
    25
100
AcDbCircle
 10
2.5298818806
 20
2.7896844468
 30
0.0
 40
0.015
100
AcDbArc
 50
228.0
 51
293.0
  0
LINE
  5
CD
330
1F
100
AcDbEntity
  8
0
  6
Continuous
 62
     7
370
    25
100
AcDbLine
 10
2.4999206392
 20
2.7964771788
 30
0.0
 11
2.5198449215
 21
2.7785372744
 31
0.0
  0
ARC
  5
CE
330
1F
100
AcDbEntity
  8
0
  6
Continuous
 62
     7
370
    25
100
AcDbCircle
 10
2.5099575983
 20
2.8076243512
 30
0.0
 40
0.0149999999999993
100
AcDbArc
 50
163.0
 51
228.0
  0
LINE
  5
CF
330
1F
100
AcDbEntity
  8
0
  6
Continuous
 62
     7
370
    25
100
AcDbLine
 10
2.4956130269
 20
2.8120099267
 30
0.0
 11
2.5116674003
 21
2.8645214159
 31
0.0
  0
ARC
  5
D0
330
1F
100
AcDbEntity
  8
0
  6
Continuous
 62
     7
370
    25
100
AcDbCircle
 10
0.0
 20
0.0
 30
0.0
 40
3.80971863420549
100
AcDbArc
 50
48.7550934315
 51
50.2449065685
  0
LINE
  5
D1
330
1F
100
AcDbEntity
  8
0
  6
Continuous
 62
     7
370
    25
100
AcDbLine
 10
2.3869895295
 20
2.9047831579
 30
0.0
 11
2.4363430577
 21
2.928854482
 31
0.0
  0
ARC
  5
D2
330
1F
100
AcDbEntity
  8
0
  6
Continuous
 62
     7
370
    25
100
AcDbCircle
 10
2.3804139623
 20
2.9182650686
 30
0.0
 40
0.0149999999999993
100
AcDbArc
 50
231.0
 51
296.0
  0
LINE
  5
D3
330
1F
100
AcDbEntity
  8
0
  6
Continuous
 62
     7
370
    25
100
AcDbLine
 10
2.3501382776
 20
2.9234804412
 30
0.0
 11
2.3709741564
 21
2.9066078792
 31
0.0
  0
ARC
  5
D4
330
1F
100
AcDbEntity
  8
0
  6
Continuous
 62
     7
370
    25
100
AcDbCircle
 10
2.3595780834
 20
2.9351376306
 30
0.0
 40
0.0149999999999996
100
AcDbArc
 50
166.0
 51
231.0
  0
LINE
  5
D5
330
1F
100
AcDbEntity
  8
0
  6
Continuous
 62
     7
370
    25
100
AcDbLine
 10
2.3450236475
 20
2.938766459
 30
0.0
 11
2.3583077799
 21
2.992046204
 31
0.0
  0
ARC
  5
D6
330
1F
100
AcDbEntity
  8
0
  6
Continuous
 62
     7
370
    25
100
AcDbCircle
 10
0.0
 20
0.0
 30
0.0
 40
3.809718634205489
100
AcDbArc
 50
51.7550934315
 51
53.2449065685
  0
LINE
  5
D7
330
1F
100
AcDbEntity
  8
0
  6
Continuous
 62
     7
370
    25
100
AcDbLine
 10
2.231693639
 20
3.0257276331
 30
0.0
 11
2.2797197342
 21
3.0523489324
 31
0.0
  0
ARC
  5
D8
330
1F
100
AcDbEntity
  8
0
  6
Continuous
 62
     7
370
    25
100
AcDbCircle
 10
2.2244214947
 20
3.0388469287
 30
0.0
 40
0.0149999999999995
100
AcDbArc
 50
234.0
 51
299.0
  0
LINE
  5
D9
330
1F
100
AcDbEntity
  8
0
  6
Continuous
 62
     7
370
    25
100
AcDbLine
 10
2.1939143503
 20
3.0424706469
 30
0.0
 11
2.2156047159
 21
3.0267116738
 31
0.0
  0
ARC
  5
DA
330
1F
100
AcDbEntity
  8
0
  6
Continuous
 62
     7
370
    25
100
AcDbCircle
 10
2.2027311291
 20
3.0546059018
 30
0.0
 40
0.015
100
AcDbArc
 50
169.0
 51
234.0
  0
LINE
  5
DB
330
1F
100
AcDbEntity
  8
0
  6
Continuous
 62
     7
370
    25
100
AcDbLine
 10
2.1880067213
 20
3.0574680368
 30
0.0
 11
2.1984842019
 21
3.1113700014
 31
0.0
  0
ARC
  5
DC
330
1F
100
AcDbEntity
  8
0
  6
Continuous
 62
     7
370
    25
100
AcDbCircle
 10
0.0
 20
0.0
 30
0.0
 40
3.809718634205489
100
AcDbArc
 50
54.7550934315
 51
56.2449065685
  0
LINE
  5
DD
330
1F
100
AcDbEntity
  8
0
  6
Continuous
 62
     7
370
    25
100
AcDbLine
 10
2.0702808314
 20
3.1383787992
 30
0.0
 11
2.1168478574
 21
3.1674771065
 31
0.0
  0
ARC
  5
DE
330
1F
100
AcDbEntity
  8
0
  6
Continuous
 62
     7
370
    25
100
AcDbCircle
 10
2.0623320425
 20
3.1510995207
 30
0.0
 40
0.0149999999999996
100
AcDbArc
 50
237.0
 51
302.0
  0
LINE
  5
DF
330
1F
100
AcDbEntity
  8
0
  6
Continuous
 62
     7
370
    25
100
AcDbLine
 10
2.0316770563
 20
3.1531216521
 30
0.0
 11
2.054162457
 21
3.1385194621
 31
0.0
  0
ARC
  5
E0
330
1F
100
AcDbEntity
  8
0
  6
Continuous
 62
     7
370
    25
100
AcDbCircle
 10
2.0398466418
 20
3.1657017106
 30
0.0
 40
0.0149999999999993
100
AcDbArc
 50
172.0
 51
237.0
  0
LINE
  5
E1
330
1F
100
AcDbEntity
  8
0
  6
Continuous
 62
     7
370
    25
100
AcDbLine
 10
2.0249926208
 20
3.1677893071
 30
0.0
 11
2.0326347314
 21
3.22216575
 31
0.0
  0
ARC
  5
E2
330
1F
100
AcDbEntity
  8
0
  6
Continuous
 62
     7
370
    25
100
AcDbCircle
 10
0.0
 20
0.0
 30
0.0
 40
3.809718634205489
100
AcDbArc
 50
57.7550934315
 51
59.2449065685
  0
LINE
  5
E3
330
1F
100
AcDbEntity
  8
0
  6
Continuous
 62
     7
370
    25
100
AcDbLine
 10
1.903193528
 20
3.2424278871
 30
0.0
 11
1.9481738477
 21
3.2739234461
 31
0.0
  0
ARC
  5
E4
330
1F
100
AcDbEntity
  8
0
  6
Continuous
 62
     7
370
    25
100
AcDbCircle
 10
1.8945898815
 20
3.2547151678
 30
0.0
 40
0.0150000000000004
100
AcDbArc
 50
240.0
 51
305.0
  0
LINE
  5
E5
330
1F
100
AcDbEntity
  8
0
  6
Continuous
 62
     7
370
    25
100
AcDbLine
 10
1.8638710767
 20
3.2551301699
 30
0.0
 11
1.8870898815
 21
3.2417247868
 31
0.0
  0
ARC
  5
E6
330
1F
100
AcDbEntity
  8
0
  6
Continuous
 62
     7
370
    25
100
AcDbCircle
 10
1.8713710767
 20
3.268120551
 30
0.0
 40
0.0149999999999996
100
AcDbArc
 50
175.0
 51
240.0
  0
LINE
  5
E7
330
1F
100
AcDbEntity
  8
0
  6
Continuous
 62
     7
370
    25
100
AcDbLine
 10
1.8564281562
 20
3.2694278871
 30
0.0
 11
1.8612139505
 21
3.3241297662
 31
0.0
  0
ARC
  5
E8
330
1F
100
AcDbEntity
  8
0
  6
Continuous
 62
     7
370
    25
100
AcDbCircle
 10
0.0
 20
0.0
 30
0.0
 40
3.809718634205489
100
AcDbArc
 50
60.7550934315
 51
62.2449065685
  0
LINE
  5
E9
330
1F
100
AcDbEntity
  8
0
  6
Continuous
 62
     7
370
    25
100
AcDbLine
 10
1.7308897034
 20
3.3375897056
 30
0.0
 11
1.774160029
 21
3.371396189
 31
0.0
  0
ARC
  5
EA
330
1F
100
AcDbEntity
  8
0
  6
Continuous
 62
     7
370
    25
100
AcDbCircle
 10
1.7216547813
 20
3.3494098669
 30
0.0
 40
0.015
100
AcDbArc
 50
243.0
 51
308.0
  0
LINE
  5
EB
330
1F
100
AcDbEntity
  8
0
  6
Continuous
 62
     7
370
    25
100
AcDbLine
 10
1.690956356
 20
3.3482166023
 30
0.0
 11
1.7148449238
 21
3.3360447691
 31
0.0
  0
ARC
  5
EC
330
1F
100
AcDbEntity
  8
0
  6
Continuous
 62
     7
370
    25
100
AcDbCircle
 10
1.6977662135
 20
3.3615817002
 30
0.0
 40
0.0149999999999995
100
AcDbArc
 50
178.0
 51
243.0
  0
LINE
  5
ED
330
1F
100
AcDbEntity
  8
0
  6
Continuous
 62
     7
370
    25
100
AcDbLine
 10
1.6827753511
 20
3.3621051926
 30
0.0
 11
1.6846917115
 21
3.4169825737
 31
0.0
  0
ARC
  5
EE
330
1F
100
AcDbEntity
  8
0
  6
Continuous
 62
     7
370
    25
100
AcDbCircle
 10
0.0
 20
0.0
 30
0.0
 40
3.809718634205489
100
AcDbArc
 50
63.7550934315
 51
65.2449065685
  0
LINE
  5
EF
330
1F
100
AcDbEntity
  8
0
  6
Continuous
 62
     7
370
    25
100
AcDbLine
 10
1.5538416304
 20
3.4236034227
 30
0.0
 11
1.5952833609
 21
3.4596281694
 31
0.0
  0
ARC
  5
F0
330
1F
100
AcDbEntity
  8
0
  6
Continuous
 62
     7
370
    25
100
AcDbCircle
 10
1.544000745
 20
3.4349240664
 30
0.0
 40
0.0150000000000002
100
AcDbArc
 50
246.0
 51
311.0
  0
LINE
  5
F1
330
1F
100
AcDbEntity
  8
0
  6
Continuous
 62
     7
370
    25
100
AcDbLine
 10
1.5134068415
 20
3.4321258057
 30
0.0
 11
1.5378996953
 21
3.4212208845
 31
0.0
  0
ARC
  5
F2
330
1F
100
AcDbEntity
  8
0
  6
Continuous
 62
     7
370
    25
100
AcDbCircle
 10
1.5195078911
 20
3.4458289875
 30
0.0
 40
0.0149999999999996
100
AcDbArc
 50
181.0
 51
246.0
  0
LINE
  5
F3
330
1F
100
AcDbEntity
  8
0
  6
Continuous
 62
     7
370
    25
100
AcDbLine
 10
1.5045101757
 20
3.4455672014
 30
0.0
 11
1.5035518496
 21
3.5004696696
 31
0.0
  0
ARC
  5
F4
330
1F
100
AcDbEntity
  8
0
  6
Continuous
 62
     7
370
    25
100
AcDbCircle
 10
0.0
 20
0.0
 30
0.0
 40
3.809718634205489
100
AcDbArc
 50
66.7550934315
 51
68.2449065685
  0
LINE
  5
F5
330
1F
100
AcDbEntity
  8
0
  6
Continuous
 62
     7
370
    25
100
AcDbLine
 10
1.3725345856
 20
3.5002332808
 30
0.0
 11
1.412034132
 21
3.5383775494
 31
0.0
  0
ARC
  5
F6
330
1F
100
AcDbEntity
  8
0
  6
Continuous
 62
     7
370
    25
100
AcDbCircle
 10
1.36211471
 20
3.5110233778
 30
0.0
 40
0.0150000000000002
100
AcDbArc
 50
249.0
 51
314.0
  0
LINE
  5
F7
330
1F
100
AcDbEntity
  8
0
  6
Continuous
 62
     7
370
    25
100
AcDbLine
 10
1.331709184
 20
3.5066277908
 30
0.0
 11
1.3567391908
 21
3.4970196714
 31
0.0
  0
ARC
  5
F8
330
1F
100
AcDbEntity
  8
0
  6
Continuous
 62
     7
370
    25
100
AcDbCircle
 10
1.3370847033
 20
3.5206314972
 30
0.0
 40
0.0149999999999994
100
AcDbArc
 50
184.0
 51
249.0
  0
LINE
  5
F9
330
1F
100
AcDbEntity
  8
0
  6
Continuous
 62
     7
370
    25
100
AcDbLine
 10
1.3221212425
 20
3.5195851501
 30
0.0
 11
1.3182908566
 21
3.5743622213
 31
0.0
  0
ARC
  5
FA
330
1F
100
AcDbEntity
  8
0
  6
Continuous
 62
     7
370
    25
100
AcDbCircle
 10
0.0
 20
0.0
 30
0.0
 40
3.809718634205488
100
AcDbArc
 50
69.7550934315
 51
71.2449065685
  0
LINE
  5
FB
330
1F
100
AcDbEntity
  8
0
  6
Continuous
 62
     7
370
    25
100
AcDbLine
 10
1.1874655188
 20
3.5672692427
 30
0.0
 11
1.2249146157
 21
3.6074284825
 31
0.0
  0
ARC
  5
FC
330
1F
100
AcDbEntity
  8
0
  6
Continuous
 62
     7
370
    25
100
AcDbCircle
 10
1.1764952133
 20
3.5774992181
 30
0.0
 40
0.0149999999999995
100
AcDbArc
 50
252.0
 51
317.0
  0
LINE
  5
FD
330
1F
100
AcDbEntity
  8
0
  6
Continuous
 62
     7
370
    25
100
AcDbLine
 10
1.1463614043
 20
3.5715183528
 30
0.0
 11
1.1718599583
 21
3.5632333704
 31
0.0
  0
ARC
  5
FE
330
1F
100
AcDbEntity
  8
0
  6
Continuous
 62
     7
370
    25
100
AcDbCircle
 10
1.1509966592
 20
3.5857842006
 30
0.0
 40
0.0149999999999999
100
AcDbArc
 50
187.0
 51
252.0
  0
LINE
  5
FF
330
1F
100
AcDbEntity
  8
0
  6
Continuous
 62
     7
370
    25
100
AcDbLine
 10
1.1361084669
 20
3.5839561604
 30
0.0
 11
1.1294165199
 21
3.6384576947
 31
0.0
  0
ARC
  5
100
330
1F
100
AcDbEntity
  8
0
  6
Continuous
 62
     7
370
    25
100
AcDbCircle
 10
0.0
 20
0.0
 30
0.0
 40
3.809718634205489
100
AcDbArc
 50
72.7550934315
 51
74.2449065685
  0
LINE
  5
101
330
1F
100
AcDbEntity
  8
0
  6
Continuous
 62
     7
370
    25
100
AcDbLine
 10
0.9991416916
 20
3.6245275676
 30
0.0
 11
1.0344376936
 21
3.6665917048
 31
0.0
  0
ARC
  5
102
330
1F
100
AcDbEntity
  8
0
  6
Continuous
 62
     7
370
    25
100
AcDbCircle
 10
0.9876510249
 20
3.6341693818
 30
0.0
 40
0.0149999999999998
100
AcDbArc
 50
255.0
 51
320.0
  0
LINE
  5
103
330
1F
100
AcDbEntity
  8
0
  6
Continuous
 62
     7
370
    25
100
AcDbLine
 10
0.9578715276
 20
3.6266196313
 30
0.0
 11
0.9837687392
 21
3.6196804944
 31
0.0
  0
ARC
  5
104
330
1F
100
AcDbEntity
  8
0
  6
Continuous
 62
     7
370
    25
100
AcDbCircle
 10
0.9617538132
 20
3.6411085187
 30
0.0
 40
0.0149999999999997
100
AcDbArc
 50
190.0
 51
255.0
  0
LINE
  5
105
330
1F
100
AcDbEntity
  8
0
  6
Continuous
 62
     7
370
    25
100
AcDbLine
 10
0.9469816969
 20
3.6385037961
 30
0.0
 11
0.9374465312
 21
3.6925804085
 31
0.0
  0
ARC
  5
106
330
1F
100
AcDbEntity
  8
0
  6
Continuous
 62
     7
370
    25
100
AcDbCircle
 10
0.0
 20
0.0
 30
0.0
 40
3.809718634205489
100
AcDbArc
 50
75.7550934315
 51
77.2449065685
  0
LINE
  5
107
330
1F
100
AcDbEntity
  8
0
  6
Continuous
 62
     7
370
    25
100
AcDbLine
 10
0.8080792864
 20
3.6718513144
 30
0.0
 11
0.8411254496
 21
3.7157050542
 31
0.0
  0
ARC
  5
108
330
1F
100
AcDbEntity
  8
0
  6
Continuous
 62
     7
370
    25
100
AcDbCircle
 10
0.7960997538
 20
3.6808785398
 30
0.0
 40
0.0149999999999994
100
AcDbArc
 50
258.0
 51
323.0
  0
LINE
  5
109
330
1F
100
AcDbEntity
  8
0
  6
Continuous
 62
     7
370
    25
100
AcDbLine
 10
0.7667561916
 20
3.6717805975
 30
0.0
 11
0.7929810784
 21
3.6662063258
 31
0.0
  0
ARC
  5
10A
330
1F
100
AcDbEntity
  8
0
  6
Continuous
 62
     7
370
    25
100
AcDbCircle
 10
0.769874867
 20
3.6864528115
 30
0.0
 40
0.0149999999999995
100
AcDbArc
 50
193.0
 51
258.0
  0
LINE
  5
10B
330
1F
100
AcDbEntity
  8
0
  6
Continuous
 62
     7
370
    25
100
AcDbLine
 10
0.755259316
 20
3.6830785457
 30
0.0
 11
0.7429070666
 21
3.736582016
 31
0.0
  0
ARC
  5
10C
330
1F
100
AcDbEntity
  8
0
  6
Continuous
 62
     7
370
    25
100
AcDbCircle
 10
0.0
 20
0.0
 30
0.0
 40
3.809718634205489
100
AcDbArc
 50
78.7550934315
 51
80.2449065685
  0
LINE
  5
10D
330
1F
100
AcDbEntity
  8
0
  6
Continuous
 62
     7
370
    25
100
AcDbLine
 10
0.6148019921
 20
3.709110772
 30
0.0
 11
0.6455077393
 21
3.7546339143
 31
0.0
  0
ARC
  5
10E
330
1F
100
AcDbEntity
  8
0
  6
Continuous
 62
     7
370
    25
100
AcDbCircle
 10
0.6023664285
 20
3.7174986655
 30
0.0
 40
0.0149999999999995
100
AcDbArc
 50
261.0
 51
326.0
  0
LINE
  5
10F
330
1F
100
AcDbEntity
  8
0
  6
Continuous
 62
     7
370
    25
100
AcDbLine
 10
0.5735392302
 20
3.7068774683
 30
0.0
 11
0.6000199116
 21
3.7026833404
 31
0.0
  0
ARC
  5
110
330
1F
100
AcDbEntity
  8
0
  6
Continuous
 62
     7
370
    25
100
AcDbCircle
 10
0.5758857472
 20
3.7216927934
 30
0.0
 40
0.0149999999999996
100
AcDbArc
 50
196.0
 51
261.0
  0
LINE
  5
111
330
1F
100
AcDbEntity
  8
0
  6
Continuous
 62
     7
370
    25
100
AcDbLine
 10
0.5614668217
 20
3.7175582331
 30
0.0
 11
0.5463313454
 21
3.7703419119
 31
0.0
  0
ARC
  5
112
330
1F
100
AcDbEntity
  8
0
  6
Continuous
 62
     7
370
    25
100
AcDbCircle
 10
0.0
 20
0.0
 30
0.0
 40
3.809718634205489
100
AcDbArc
 50
81.7550934315
 51
83.2449065685
  0
LINE
  5
113
330
1F
100
AcDbEntity
  8
0
  6
Continuous
 62
     7
370
    25
100
AcDbLine
 10
0.4198395683
 20
3.7362038147
 30
0.0
 11
0.4481207371
 21
3.7832715838
 31
0.0
  0
ARC
  5
114
330
1F
100
AcDbEntity
  8
0
  6
Continuous
 62
     7
370
    25
100
AcDbCircle
 10
0.4069820588
 20
3.7439293859
 30
0.0
 40
0.0149999999999997
100
AcDbArc
 50
264.0
 51
329.0
  0
LINE
  5
115
330
1F
100
AcDbEntity
  8
0
  6
Continuous
 62
     7
370
    25
100
AcDbLine
 10
0.3787502376
 20
3.7318140456
 30
0.0
 11
0.4054141318
 21
3.7290115574
 31
0.0
  0
ARC
  5
116
330
1F
100
AcDbEntity
  8
0
  6
Continuous
 62
     7
370
    25
100
AcDbCircle
 10
0.3803181646
 20
3.7467318741
 30
0.0
 40
0.0149999999999998
100
AcDbArc
 50
199.0
 51
264.0
  0
LINE
  5
117
330
1F
100
AcDbEntity
  8
0
  6
Continuous
 62
     7
370
    25
100
AcDbLine
 10
0.3661353859
 20
3.7418483518
 30
0.0
 11
0.3482581679
 21
3.7937675628
 31
0.0
  0
ARC
  5
118
330
1F
100
AcDbEntity
  8
0
  6
Continuous
 62
     7
370
    25
100
AcDbCircle
 10
0.0
 20
0.0
 30
0.0
 40
3.809718634205489
100
AcDbArc
 50
84.7550934315
 51
86.2449065685
  0
LINE
  5
119
330
1F
100
AcDbEntity
  8
0
  6
Continuous
 62
     7
370
    25
100
AcDbLine
 10
0.2237263934
 20
3.7530561825
 30
0.0
 11
0.2495054672
 21
3.8015395689
 31
0.0
  0
ARC
  5
11A
330
1F
100
AcDbEntity
  8
0
  6
Continuous
 62
     7
370
    25
100
AcDbCircle
 10
0.2104821795
 20
3.760098256
 30
0.0
 40
0.0149999999999998
100
AcDbArc
 50
267.0
 51
332.0
  0
LINE
  5
11B
330
1F
100
AcDbEntity
  8
0
  6
Continuous
 62
     7
370
    25
100
AcDbLine
 10
0.182923117
 20
3.7465219801
 30
0.0
 11
0.2096971402
 21
3.745118813
 31
0.0
  0
ARC
  5
11C
330
1F
100
AcDbEntity
  8
0
  6
Continuous
 62
     7
370
    25
100
AcDbCircle
 10
0.1837081563
 20
3.7615014231
 30
0.0
 40
0.0149999999999995
100
AcDbArc
 50
202.0
 51
267.0
  0
LINE
  5
11D
330
1F
100
AcDbEntity
  8
0
  6
Continuous
 62
     7
370
    25
100
AcDbLine
 10
0.1698003985
 20
3.7558823242
 30
0.0
 11
0.1492304391
 21
3.8067947604
 31
0.0
  0
ARC
  5
11E
330
1F
100
AcDbEntity
  8
0
  6
Continuous
 62
     7
370
    25
100
AcDbCircle
 10
0.0
 20
0.0
 30
0.0
 40
3.80971863420549
100
AcDbArc
 50
87.7550934315
 51
89.2449065685
  0
LINE
  5
11F
330
1F
100
AcDbEntity
  8
0
  6
Continuous
 62
     7
370
    25
100
AcDbLine
 10
0.027
 20
3.7596216842
 30
0.0
 11
0.0502063201
 21
3.8093877982
 31
0.0
  0
ARC
  5
120
330
1F
100
AcDbEntity
  8
0
  6
Continuous
 62
     7
370
    25
100
AcDbCircle
 10
0.0134053832
 20
3.7659609581
 30
0.0
 40
0.0149999999999999
100
AcDbArc
 50
270.0
 51
335.0
  0
LINE
  5
121
330
1F
100
AcDbEntity
  8
0
  6
Continuous
 62
     7
370
    25
100
AcDbLine
 10
-0.0134053832
 20
3.7509609581
 30
0.0
 11
0.0134053832
 21
3.7509609581
 31
0.0
  0
ARC
  5
122
330
1F
100
AcDbEntity
  8
0
  6
Continuous
 62
     7
370
    25
100
AcDbCircle
 10
-0.0134053832
 20
3.7659609581
 30
0.0
 40
0.0149999999999994
100
AcDbArc
 50
205.0
 51
270.0
  0
LINE
  5
123
330
1F
100
AcDbEntity
  8
0
  6
Continuous
 62
     7
370
    25
100
AcDbLine
 10
-0.027
 20
3.7596216842
 30
0.0
 11
-0.0502063201
 21
3.8093877982
 31
0.0
  0
ARC
  5
124
330
1F
100
AcDbEntity
  8
0
  6
Continuous
 62
     7
370
    25
100
AcDbCircle
 10
0.0
 20
0.0
 30
0.0
 40
3.809718634205489
100
AcDbArc
 50
90.7550934315
 51
92.2449065685
  0
LINE
  5
125
330
1F
100
AcDbEntity
  8
0
  6
Continuous
 62
     7
370
    25
100
AcDbLine
 10
-0.1698003985
 20
3.7558823242
 30
0.0
 11
-0.1492304391
 21
3.8067947604
 31
0.0
  0
ARC
  5
126
330
1F
100
AcDbEntity
  8
0
  6
Continuous
 62
     7
370
    25
100
AcDbCircle
 10
-0.1837081563
 20
3.7615014231
 30
0.0
 40
0.0149999999999999
100
AcDbArc
 50
273.0
 51
338.0
  0
LINE
  5
127
330
1F
100
AcDbEntity
  8
0
  6
Continuous
 62
     7
370
    25
100
AcDbLine
 10
-0.2096971402
 20
3.745118813
 30
0.0
 11
-0.182923117
 21
3.7465219801
 31
0.0
  0
ARC
  5
128
330
1F
100
AcDbEntity
  8
0
  6
Continuous
 62
     7
370
    25
100
AcDbCircle
 10
-0.2104821795
 20
3.760098256
 30
0.0
 40
0.0149999999999999
100
AcDbArc
 50
208.0
 51
273.0
  0
LINE
  5
129
330
1F
100
AcDbEntity
  8
0
  6
Continuous
 62
     7
370
    25
100
AcDbLine
 10
-0.2237263934
 20
3.7530561825
 30
0.0
 11
-0.2495054672
 21
3.8015395689
 31
0.0
  0
ARC
  5
12A
330
1F
100
AcDbEntity
  8
0
  6
Continuous
 62
     7
370
    25
100
AcDbCircle
 10
0.0
 20
0.0
 30
0.0
 40
3.80971863420549
100
AcDbArc
 50
93.7550934315
 51
95.2449065685
  0
LINE
  5
12B
330
1F
100
AcDbEntity
  8
0
  6
Continuous
 62
     7
370
    25
100
AcDbLine
 10
-0.3661353859
 20
3.7418483518
 30
0.0
 11
-0.3482581679
 21
3.7937675628
 31
0.0
  0
ARC
  5
12C
330
1F
100
AcDbEntity
  8
0
  6
Continuous
 62
     7
370
    25
100
AcDbCircle
 10
-0.3803181646
 20
3.7467318741
 30
0.0
 40
0.0149999999999996
100
AcDbArc
 50
276.0
 51
341.0
  0
LINE
  5
12D
330
1F
100
AcDbEntity
  8
0
  6
Continuous
 62
     7
370
    25
100
AcDbLine
 10
-0.4054141318
 20
3.7290115574
 30
0.0
 11
-0.3787502376
 21
3.7318140456
 31
0.0
  0
ARC
  5
12E
330
1F
100
AcDbEntity
  8
0
  6
Continuous
 62
     7
370
    25
100
AcDbCircle
 10
-0.4069820588
 20
3.7439293859
 30
0.0
 40
0.0149999999999997
100
AcDbArc
 50
211.0
 51
276.0
  0
LINE
  5
12F
330
1F
100
AcDbEntity
  8
0
  6
Continuous
 62
     7
370
    25
100
AcDbLine
 10
-0.4198395683
 20
3.7362038147
 30
0.0
 11
-0.4481207371
 21
3.7832715838
 31
0.0
  0
ARC
  5
130
330
1F
100
AcDbEntity
  8
0
  6
Continuous
 62
     7
370
    25
100
AcDbCircle
 10
0.0
 20
0.0
 30
0.0
 40
3.809718634205489
100
AcDbArc
 50
96.7550934315
 51
98.2449065685
  0
LINE
  5
131
330
1F
100
AcDbEntity
  8
0
  6
Continuous
 62
     7
370
    25
100
AcDbLine
 10
-0.5614668217
 20
3.7175582331
 30
0.0
 11
-0.5463313454
 21
3.7703419119
 31
0.0
  0
ARC
  5
132
330
1F
100
AcDbEntity
  8
0
  6
Continuous
 62
     7
370
    25
100
AcDbCircle
 10
-0.5758857472
 20
3.7216927934
 30
0.0
 40
0.0149999999999997
100
AcDbArc
 50
279.0
 51
344.0
  0
LINE
  5
133
330
1F
100
AcDbEntity
  8
0
  6
Continuous
 62
     7
370
    25
100
AcDbLine
 10
-0.6000199116
 20
3.7026833404
 30
0.0
 11
-0.5735392302
 21
3.7068774683
 31
0.0
  0
ARC
  5
134
330
1F
100
AcDbEntity
  8
0
  6
Continuous
 62
     7
370
    25
100
AcDbCircle
 10
-0.6023664285
 20
3.7174986655
 30
0.0
 40
0.0149999999999994
100
AcDbArc
 50
214.0
 51
279.0
  0
LINE
  5
135
330
1F
100
AcDbEntity
  8
0
  6
Continuous
 62
     7
370
    25
100
AcDbLine
 10
-0.6148019921
 20
3.709110772
 30
0.0
 11
-0.6455077393
 21
3.7546339143
 31
0.0
  0
ARC
  5
136
330
1F
100
AcDbEntity
  8
0
  6
Continuous
 62
     7
370
    25
100
AcDbCircle
 10
0.0
 20
0.0
 30
0.0
 40
3.809718634205489
100
AcDbArc
 50
99.7550934315
 51
101.2449065685
  0
LINE
  5
137
330
1F
100
AcDbEntity
  8
0
  6
Continuous
 62
     7
370
    25
100
AcDbLine
 10
-0.755259316
 20
3.6830785457
 30
0.0
 11
-0.7429070666
 21
3.736582016
 31
0.0
  0
ARC
  5
138
330
1F
100
AcDbEntity
  8
0
  6
Continuous
 62
     7
370
    25
100
AcDbCircle
 10
-0.769874867
 20
3.6864528115
 30
0.0
 40
0.0149999999999996
100
AcDbArc
 50
282.0
 51
347.0
  0
LINE
  5
139
330
1F
100
AcDbEntity
  8
0
  6
Continuous
 62
     7
370
    25
100
AcDbLine
 10
-0.7929810784
 20
3.6662063258
 30
0.0
 11
-0.7667561916
 21
3.6717805975
 31
0.0
  0
ARC
  5
13A
330
1F
100
AcDbEntity
  8
0
  6
Continuous
 62
     7
370
    25
100
AcDbCircle
 10
-0.7960997538
 20
3.6808785398
 30
0.0
 40
0.0149999999999995
100
AcDbArc
 50
217.0
 51
282.0
  0
LINE
  5
13B
330
1F
100
AcDbEntity
  8
0
  6
Continuous
 62
     7
370
    25
100
AcDbLine
 10
-0.8080792864
 20
3.6718513144
 30
0.0
 11
-0.8411254496
 21
3.7157050542
 31
0.0
  0
ARC
  5
13C
330
1F
100
AcDbEntity
  8
0
  6
Continuous
 62
     7
370
    25
100
AcDbCircle
 10
0.0
 20
0.0
 30
0.0
 40
3.809718634205489
100
AcDbArc
 50
102.7550934315
 51
104.2449065685
  0
LINE
  5
13D
330
1F
100
AcDbEntity
  8
0
  6
Continuous
 62
     7
370
    25
100
AcDbLine
 10
-0.9469816969
 20
3.6385037961
 30
0.0
 11
-0.9374465312
 21
3.6925804085
 31
0.0
  0
ARC
  5
13E
330
1F
100
AcDbEntity
  8
0
  6
Continuous
 62
     7
370
    25
100
AcDbCircle
 10
-0.9617538132
 20
3.6411085187
 30
0.0
 40
0.0149999999999998
100
AcDbArc
 50
285.0
 51
350.0
  0
LINE
  5
13F
330
1F
100
AcDbEntity
  8
0
  6
Continuous
 62
     7
370
    25
100
AcDbLine
 10
-0.9837687392
 20
3.6196804944
 30
0.0
 11
-0.9578715276
 21
3.6266196313
 31
0.0
  0
ARC
  5
140
330
1F
100
AcDbEntity
  8
0
  6
Continuous
 62
     7
370
    25
100
AcDbCircle
 10
-0.9876510249
 20
3.6341693818
 30
0.0
 40
0.0149999999999997
100
AcDbArc
 50
220.0
 51
285.0
  0
LINE
  5
141
330
1F
100
AcDbEntity
  8
0
  6
Continuous
 62
     7
370
    25
100
AcDbLine
 10
-0.9991416916
 20
3.6245275676
 30
0.0
 11
-1.0344376936
 21
3.6665917048
 31
0.0
  0
ARC
  5
142
330
1F
100
AcDbEntity
  8
0
  6
Continuous
 62
     7
370
    25
100
AcDbCircle
 10
0.0
 20
0.0
 30
0.0
 40
3.809718634205489
100
AcDbArc
 50
105.7550934315
 51
107.2449065685
  0
LINE
  5
143
330
1F
100
AcDbEntity
  8
0
  6
Continuous
 62
     7
370
    25
100
AcDbLine
 10
-1.1361084669
 20
3.5839561604
 30
0.0
 11
-1.1294165199
 21
3.6384576947
 31
0.0
  0
ARC
  5
144
330
1F
100
AcDbEntity
  8
0
  6
Continuous
 62
     7
370
    25
100
AcDbCircle
 10
-1.1509966592
 20
3.5857842006
 30
0.0
 40
0.0149999999999996
100
AcDbArc
 50
288.0
 51
353.0
  0
LINE
  5
145
330
1F
100
AcDbEntity
  8
0
  6
Continuous
 62
     7
370
    25
100
AcDbLine
 10
-1.1718599583
 20
3.5632333704
 30
0.0
 11
-1.1463614043
 21
3.5715183528
 31
0.0
  0
ARC
  5
146
330
1F
100
AcDbEntity
  8
0
  6
Continuous
 62
     7
370
    25
100
AcDbCircle
 10
-1.1764952133
 20
3.5774992181
 30
0.0
 40
0.0149999999999995
100
AcDbArc
 50
223.0
 51
288.0
  0
LINE
  5
147
330
1F
100
AcDbEntity
  8
0
  6
Continuous
 62
     7
370
    25
100
AcDbLine
 10
-1.1874655188
 20
3.5672692427
 30
0.0
 11
-1.2249146157
 21
3.6074284825
 31
0.0
  0
ARC
  5
148
330
1F
100
AcDbEntity
  8
0
  6
Continuous
 62
     7
370
    25
100
AcDbCircle
 10
0.0
 20
0.0
 30
0.0
 40
3.809718634205489
100
AcDbArc
 50
108.7550934315
 51
110.2449065685
  0
LINE
  5
149
330
1F
100
AcDbEntity
  8
0
  6
Continuous
 62
     7
370
    25
100
AcDbLine
 10
-1.3221212425
 20
3.5195851501
 30
0.0
 11
-1.3182908566
 21
3.5743622213
 31
0.0
  0
ARC
  5
14A
330
1F
100
AcDbEntity
  8
0
  6
Continuous
 62
     7
370
    25
100
AcDbCircle
 10
-1.3370847033
 20
3.5206314972
 30
0.0
 40
0.0149999999999997
100
AcDbArc
 50
291.0
 51
356.0
  0
LINE
  5
14B
330
1F
100
AcDbEntity
  8
0
  6
Continuous
 62
     7
370
    25
100
AcDbLine
 10
-1.3567391908
 20
3.4970196714
 30
0.0
 11
-1.331709184
 21
3.5066277908
 31
0.0
  0
ARC
  5
14C
330
1F
100
AcDbEntity
  8
0
  6
Continuous
 62
     7
370
    25
100
AcDbCircle
 10
-1.36211471
 20
3.5110233778
 30
0.0
 40
0.0149999999999997
100
AcDbArc
 50
226.0
 51
291.0
  0
LINE
  5
14D
330
1F
100
AcDbEntity
  8
0
  6
Continuous
 62
     7
370
    25
100
AcDbLine
 10
-1.3725345856
 20
3.5002332808
 30
0.0
 11
-1.412034132
 21
3.5383775494
 31
0.0
  0
ARC
  5
14E
330
1F
100
AcDbEntity
  8
0
  6
Continuous
 62
     7
370
    25
100
AcDbCircle
 10
0.0
 20
0.0
 30
0.0
 40
3.809718634205489
100
AcDbArc
 50
111.7550934315
 51
113.2449065685
  0
LINE
  5
14F
330
1F
100
AcDbEntity
  8
0
  6
Continuous
 62
     7
370
    25
100
AcDbLine
 10
-1.5045101757
 20
3.4455672014
 30
0.0
 11
-1.5035518496
 21
3.5004696696
 31
0.0
  0
ARC
  5
150
330
1F
100
AcDbEntity
  8
0
  6
Continuous
 62
     7
370
    25
100
AcDbCircle
 10
-1.5195078911
 20
3.4458289875
 30
0.0
 40
0.0149999999999999
100
AcDbArc
 50
294.0
 51
359.0
  0
LINE
  5
151
330
1F
100
AcDbEntity
  8
0
  6
Continuous
 62
     7
370
    25
100
AcDbLine
 10
-1.5378996953
 20
3.4212208845
 30
0.0
 11
-1.5134068415
 21
3.4321258057
 31
0.0
  0
ARC
  5
152
330
1F
100
AcDbEntity
  8
0
  6
Continuous
 62
     7
370
    25
100
AcDbCircle
 10
-1.544000745
 20
3.4349240664
 30
0.0
 40
0.0149999999999996
100
AcDbArc
 50
229.0
 51
294.0
  0
LINE
  5
153
330
1F
100
AcDbEntity
  8
0
  6
Continuous
 62
     7
370
    25
100
AcDbLine
 10
-1.5538416304
 20
3.4236034227
 30
0.0
 11
-1.5952833609
 21
3.4596281694
 31
0.0
  0
ARC
  5
154
330
1F
100
AcDbEntity
  8
0
  6
Continuous
 62
     7
370
    25
100
AcDbCircle
 10
0.0
 20
0.0
 30
0.0
 40
3.809718634205489
100
AcDbArc
 50
114.7550934315
 51
116.2449065685
  0
LINE
  5
155
330
1F
100
AcDbEntity
  8
0
  6
Continuous
 62
     7
370
    25
100
AcDbLine
 10
-1.6827753511
 20
3.3621051926
 30
0.0
 11
-1.6846917115
 21
3.4169825737
 31
0.0
  0
ARC
  5
156
330
1F
100
AcDbEntity
  8
0
  6
Continuous
 62
     7
370
    25
100
AcDbCircle
 10
-1.6977662135
 20
3.3615817002
 30
0.0
 40
0.0149999999999995
100
AcDbArc
 50
297.0
 51
2.0
  0
LINE
  5
157
330
1F
100
AcDbEntity
  8
0
  6
Continuous
 62
     7
370
    25
100
AcDbLine
 10
-1.7148449238
 20
3.3360447691
 30
0.0
 11
-1.690956356
 21
3.3482166023
 31
0.0
  0
ARC
  5
158
330
1F
100
AcDbEntity
  8
0
  6
Continuous
 62
     7
370
    25
100
AcDbCircle
 10
-1.7216547813
 20
3.3494098669
 30
0.0
 40
0.0150000000000003
100
AcDbArc
 50
232.0
 51
297.0
  0
LINE
  5
159
330
1F
100
AcDbEntity
  8
0
  6
Continuous
 62
     7
370
    25
100
AcDbLine
 10
-1.7308897034
 20
3.3375897056
 30
0.0
 11
-1.774160029
 21
3.371396189
 31
0.0
  0
ARC
  5
15A
330
1F
100
AcDbEntity
  8
0
  6
Continuous
 62
     7
370
    25
100
AcDbCircle
 10
0.0
 20
0.0
 30
0.0
 40
3.809718634205489
100
AcDbArc
 50
117.7550934315
 51
119.2449065685
  0
LINE
  5
15B
330
1F
100
AcDbEntity
  8
0
  6
Continuous
 62
     7
370
    25
100
AcDbLine
 10
-1.8564281562
 20
3.2694278871
 30
0.0
 11
-1.8612139505
 21
3.3241297662
 31
0.0
  0
ARC
  5
15C
330
1F
100
AcDbEntity
  8
0
  6
Continuous
 62
     7
370
    25
100
AcDbCircle
 10
-1.8713710767
 20
3.268120551
 30
0.0
 40
0.0149999999999997
100
AcDbArc
 50
300.0
 51
5.0
  0
LINE
  5
15D
330
1F
100
AcDbEntity
  8
0
  6
Continuous
 62
     7
370
    25
100
AcDbLine
 10
-1.8870898815
 20
3.2417247868
 30
0.0
 11
-1.8638710767
 21
3.2551301699
 31
0.0
  0
ARC
  5
15E
330
1F
100
AcDbEntity
  8
0
  6
Continuous
 62
     7
370
    25
100
AcDbCircle
 10
-1.8945898815
 20
3.2547151678
 30
0.0
 40
0.015
100
AcDbArc
 50
235.0
 51
300.0
  0
LINE
  5
15F
330
1F
100
AcDbEntity
  8
0
  6
Continuous
 62
     7
370
    25
100
AcDbLine
 10
-1.903193528
 20
3.2424278871
 30
0.0
 11
-1.9481738477
 21
3.2739234461
 31
0.0
  0
ARC
  5
160
330
1F
100
AcDbEntity
  8
0
  6
Continuous
 62
     7
370
    25
100
AcDbCircle
 10
0.0
 20
0.0
 30
0.0
 40
3.809718634205489
100
AcDbArc
 50
120.7550934315
 51
122.2449065685
  0
LINE
  5
161
330
1F
100
AcDbEntity
  8
0
  6
Continuous
 62
     7
370
    25
100
AcDbLine
 10
-2.0249926208
 20
3.1677893071
 30
0.0
 11
-2.0326347314
 21
3.22216575
 31
0.0
  0
ARC
  5
162
330
1F
100
AcDbEntity
  8
0
  6
Continuous
 62
     7
370
    25
100
AcDbCircle
 10
-2.0398466418
 20
3.1657017106
 30
0.0
 40
0.0149999999999998
100
AcDbArc
 50
303.0
 51
8.0
  0
LINE
  5
163
330
1F
100
AcDbEntity
  8
0
  6
Continuous
 62
     7
370
    25
100
AcDbLine
 10
-2.054162457
 20
3.1385194621
 30
0.0
 11
-2.0316770563
 21
3.1531216521
 31
0.0
  0
ARC
  5
164
330
1F
100
AcDbEntity
  8
0
  6
Continuous
 62
     7
370
    25
100
AcDbCircle
 10
-2.0623320425
 20
3.1510995207
 30
0.0
 40
0.015
100
AcDbArc
 50
238.0
 51
303.0
  0
LINE
  5
165
330
1F
100
AcDbEntity
  8
0
  6
Continuous
 62
     7
370
    25
100
AcDbLine
 10
-2.0702808314
 20
3.1383787992
 30
0.0
 11
-2.1168478574
 21
3.1674771065
 31
0.0
  0
ARC
  5
166
330
1F
100
AcDbEntity
  8
0
  6
Continuous
 62
     7
370
    25
100
AcDbCircle
 10
0.0
 20
0.0
 30
0.0
 40
3.80971863420549
100
AcDbArc
 50
123.7550934315
 51
125.2449065685
  0
LINE
  5
167
330
1F
100
AcDbEntity
  8
0
  6
Continuous
 62
     7
370
    25
100
AcDbLine
 10
-2.1880067213
 20
3.0574680368
 30
0.0
 11
-2.1984842019
 21
3.1113700014
 31
0.0
  0
ARC
  5
168
330
1F
100
AcDbEntity
  8
0
  6
Continuous
 62
     7
370
    25
100
AcDbCircle
 10
-2.2027311291
 20
3.0546059018
 30
0.0
 40
0.0149999999999999
100
AcDbArc
 50
306.0
 51
11.0
  0
LINE
  5
169
330
1F
100
AcDbEntity
  8
0
  6
Continuous
 62
     7
370
    25
100
AcDbLine
 10
-2.2156047159
 20
3.0267116738
 30
0.0
 11
-2.1939143503
 21
3.0424706469
 31
0.0
  0
ARC
  5
16A
330
1F
100
AcDbEntity
  8
0
  6
Continuous
 62
     7
370
    25
100
AcDbCircle
 10
-2.2244214947
 20
3.0388469287
 30
0.0
 40
0.0149999999999992
100
AcDbArc
 50
241.0
 51
306.0
  0
LINE
  5
16B
330
1F
100
AcDbEntity
  8
0
  6
Continuous
 62
     7
370
    25
100
AcDbLine
 10
-2.231693639
 20
3.0257276331
 30
0.0
 11
-2.2797197342
 21
3.0523489324
 31
0.0
  0
ARC
  5
16C
330
1F
100
AcDbEntity
  8
0
  6
Continuous
 62
     7
370
    25
100
AcDbCircle
 10
0.0
 20
0.0
 30
0.0
 40
3.809718634205489
100
AcDbArc
 50
126.7550934315
 51
128.2449065685
  0
LINE
  5
16D
330
1F
100
AcDbEntity
  8
0
  6
Continuous
 62
     7
370
    25
100
AcDbLine
 10
-2.3450236475
 20
2.938766459
 30
0.0
 11
-2.3583077799
 21
2.992046204
 31
0.0
  0
ARC
  5
16E
330
1F
100
AcDbEntity
  8
0
  6
Continuous
 62
     7
370
    25
100
AcDbCircle
 10
-2.3595780834
 20
2.9351376306
 30
0.0
 40
0.015
100
AcDbArc
 50
309.0
 51
14.0
  0
LINE
  5
16F
330
1F
100
AcDbEntity
  8
0
  6
Continuous
 62
     7
370
    25
100
AcDbLine
 10
-2.3709741564
 20
2.9066078792
 30
0.0
 11
-2.3501382776
 21
2.9234804412
 31
0.0
  0
ARC
  5
170
330
1F
100
AcDbEntity
  8
0
  6
Continuous
 62
     7
370
    25
100
AcDbCircle
 10
-2.3804139623
 20
2.9182650686
 30
0.0
 40
0.0149999999999994
100
AcDbArc
 50
244.0
 51
309.0
  0
LINE
  5
171
330
1F
100
AcDbEntity
  8
0
  6
Continuous
 62
     7
370
    25
100
AcDbLine
 10
-2.3869895295
 20
2.9047831579
 30
0.0
 11
-2.4363430577
 21
2.928854482
 31
0.0
  0
ARC
  5
172
330
1F
100
AcDbEntity
  8
0
  6
Continuous
 62
     7
370
    25
100
AcDbCircle
 10
0.0
 20
0.0
 30
0.0
 40
3.809718634205489
100
AcDbArc
 50
129.7550934315
 51
131.2449065685
  0
LINE
  5
173
330
1F
100
AcDbEntity
  8
0
  6
Continuous
 62
     7
370
    25
100
AcDbLine
 10
-2.4956130269
 20
2.8120099267
 30
0.0
 11
-2.5116674003
 21
2.8645214159
 31
0.0
  0
ARC
  5
174
330
1F
100
AcDbEntity
  8
0
  6
Continuous
 62
     7
370
    25
100
AcDbCircle
 10
-2.5099575983
 20
2.8076243512
 30
0.0
 40
0.0149999999999998
100
AcDbArc
 50
312.0
 51
17.0
  0
LINE
  5
175
330
1F
100
AcDbEntity
  8
0
  6
Continuous
 62
     7
370
    25
100
AcDbLine
 10
-2.5198449215
 20
2.7785372744
 30
0.0
 11
-2.4999206392
 21
2.7964771788
 31
0.0
  0
ARC
  5
176
330
1F
100
AcDbEntity
  8
0
  6
Continuous
 62
     7
370
    25
100
AcDbCircle
 10
-2.5298818806
 20
2.7896844468
 30
0.0
 40
0.0150000000000002
100
AcDbArc
 50
247.0
 51
312.0
  0
LINE
  5
177
330
1F
100
AcDbEntity
  8
0
  6
Continuous
 62
     7
370
    25
100
AcDbLine
 10
-2.5357428475
 20
2.775876874
 30
0.0
 11
-2.5862885343
 21
2.7973322451
 31
0.0
  0
ARC
  5
178
330
1F
100
AcDbEntity
  8
0
  6
Continuous
 62
     7
370
    25
100
AcDbCircle
 10
0.0
 20
0.0
 30
0.0
 40
3.809718634205489
100
AcDbArc
 50
132.7550934315
 51
134.2449065685
  0
LINE
  5
179
330
1F
100
AcDbEntity
  8
0
  6
Continuous
 62
     7
370
    25
100
AcDbLine
 10
-2.6393621045
 20
2.6775458707
 30
0.0
 11
-2.6581427149
 21
2.7291451737
 31
0.0
  0
ARC
  5
17A
330
1F
100
AcDbEntity
  8
0
  6
Continuous
 62
     7
370
    25
100
AcDbCircle
 10
-2.6534574938
 20
2.6724155685
 30
0.0
 40
0.0149999999999999
100
AcDbArc
 50
315.0
 51
20.0
  0
LINE
  5
17B
330
1F
100
AcDbEntity
  8
0
  6
Continuous
 62
     7
370
    25
100
AcDbLine
 10
-2.6618089668
 20
2.6428508921
 30
0.0
 11
-2.6428508921
 21
2.6618089668
 31
0.0
  0
ARC
  5
17C
330
1F
100
AcDbEntity
  8
0
  6
Continuous
 62
     7
370
    25
100
AcDbCircle
 10
-2.6724155685
 20
2.6534574938
 30
0.0
 40
0.0149999999999996
100
AcDbArc
 50
250.0
 51
315.0
  0
LINE
  5
17D
330
1F
100
AcDbEntity
  8
0
  6
Continuous
 62
     7
370
    25
100
AcDbLine
 10
-2.6775458707
 20
2.6393621045
 30
0.0
 11
-2.7291451737
 21
2.6581427149
 31
0.0
  0
ARC
  5
17E
330
1F
100
AcDbEntity
  8
0
  6
Continuous
 62
     7
370
    25
100
AcDbCircle
 10
0.0
 20
0.0
 30
0.0
 40
3.809718634205489
100
AcDbArc
 50
135.7550934315
 51
137.2449065685
  0
LINE
  5
17F
330
1F
100
AcDbEntity
  8
0
  6
Continuous
 62
     7
370
    25
100
AcDbLine
 10
-2.775876874
 20
2.5357428475
 30
0.0
 11
-2.7973322451
 21
2.5862885343
 31
0.0
  0
ARC
  5
180
330
1F
100
AcDbEntity
  8
0
  6
Continuous
 62
     7
370
    25
100
AcDbCircle
 10
-2.7896844468
 20
2.5298818806
 30
0.0
 40
0.0149999999999992
100
AcDbArc
 50
318.0
 51
23.0
  0
LINE
  5
181
330
1F
100
AcDbEntity
  8
0
  6
Continuous
 62
     7
370
    25
100
AcDbLine
 10
-2.7964771788
 20
2.4999206392
 30
0.0
 11
-2.7785372744
 21
2.5198449215
 31
0.0
  0
ARC
  5
182
330
1F
100
AcDbEntity
  8
0
  6
Continuous
 62
     7
370
    25
100
AcDbCircle
 10
-2.8076243512
 20
2.5099575983
 30
0.0
 40
0.015
100
AcDbArc
 50
253.0
 51
318.0
  0
LINE
  5
183
330
1F
100
AcDbEntity
  8
0
  6
Continuous
 62
     7
370
    25
100
AcDbLine
 10
-2.8120099267
 20
2.4956130269
 30
0.0
 11
-2.8645214159
 21
2.5116674003
 31
0.0
  0
ARC
  5
184
330
1F
100
AcDbEntity
  8
0
  6
Continuous
 62
     7
370
    25
100
AcDbCircle
 10
0.0
 20
0.0
 30
0.0
 40
3.809718634205489
100
AcDbArc
 50
138.7550934315
 51
140.2449065685
  0
LINE
  5
185
330
1F
100
AcDbEntity
  8
0
  6
Continuous
 62
     7
370
    25
100
AcDbLine
 10
-2.9047831579
 20
2.3869895295
 30
0.0
 11
-2.928854482
 21
2.4363430577
 31
0.0
  0
ARC
  5
186
330
1F
100
AcDbEntity
  8
0
  6
Continuous
 62
     7
370
    25
100
AcDbCircle
 10
-2.9182650686
 20
2.3804139623
 30
0.0
 40
0.0149999999999989
100
AcDbArc
 50
321.0
 51
26.0
  0
LINE
  5
187
330
1F
100
AcDbEntity
  8
0
  6
Continuous
 62
     7
370
    25
100
AcDbLine
 10
-2.9234804412
 20
2.3501382776
 30
0.0
 11
-2.9066078792
 21
2.3709741564
 31
0.0
  0
ARC
  5
188
330
1F
100
AcDbEntity
  8
0
  6
Continuous
 62
     7
370
    25
100
AcDbCircle
 10
-2.9351376306
 20
2.3595780834
 30
0.0
 40
0.0149999999999997
100
AcDbArc
 50
256.0
 51
321.0
  0
LINE
  5
189
330
1F
100
AcDbEntity
  8
0
  6
Continuous
 62
     7
370
    25
100
AcDbLine
 10
-2.938766459
 20
2.3450236475
 30
0.0
 11
-2.992046204
 21
2.3583077799
 31
0.0
  0
ARC
  5
18A
330
1F
100
AcDbEntity
  8
0
  6
Continuous
 62
     7
370
    25
100
AcDbCircle
 10
0.0
 20
0.0
 30
0.0
 40
3.80971863420549
100
AcDbArc
 50
141.7550934315
 51
143.2449065685
  0
LINE
  5
18B
330
1F
100
AcDbEntity
  8
0
  6
Continuous
 62
     7
370
    25
100
AcDbLine
 10
-3.0257276331
 20
2.231693639
 30
0.0
 11
-3.0523489324
 21
2.2797197342
 31
0.0
  0
ARC
  5
18C
330
1F
100
AcDbEntity
  8
0
  6
Continuous
 62
     7
370
    25
100
AcDbCircle
 10
-3.0388469287
 20
2.2244214947
 30
0.0
 40
0.0149999999999999
100
AcDbArc
 50
324.0
 51
29.0
  0
LINE
  5
18D
330
1F
100
AcDbEntity
  8
0
  6
Continuous
 62
     7
370
    25
100
AcDbLine
 10
-3.0424706469
 20
2.1939143503
 30
0.0
 11
-3.0267116738
 21
2.2156047159
 31
0.0
  0
ARC
  5
18E
330
1F
100
AcDbEntity
  8
0
  6
Continuous
 62
     7
370
    25
100
AcDbCircle
 10
-3.0546059018
 20
2.2027311291
 30
0.0
 40
0.0149999999999996
100
AcDbArc
 50
259.0
 51
324.0
  0
LINE
  5
18F
330
1F
100
AcDbEntity
  8
0
  6
Continuous
 62
     7
370
    25
100
AcDbLine
 10
-3.0574680368
 20
2.1880067213
 30
0.0
 11
-3.1113700014
 21
2.1984842019
 31
0.0
  0
ARC
  5
190
330
1F
100
AcDbEntity
  8
0
  6
Continuous
 62
     7
370
    25
100
AcDbCircle
 10
0.0
 20
0.0
 30
0.0
 40
3.809718634205489
100
AcDbArc
 50
144.7550934315
 51
146.2449065685
  0
LINE
  5
191
330
1F
100
AcDbEntity
  8
0
  6
Continuous
 62
     7
370
    25
100
AcDbLine
 10
-3.1383787992
 20
2.0702808314
 30
0.0
 11
-3.1674771065
 21
2.1168478574
 31
0.0
  0
ARC
  5
192
330
1F
100
AcDbEntity
  8
0
  6
Continuous
 62
     7
370
    25
100
AcDbCircle
 10
-3.1510995207
 20
2.0623320425
 30
0.0
 40
0.015
100
AcDbArc
 50
327.0
 51
32.0
  0
LINE
  5
193
330
1F
100
AcDbEntity
  8
0
  6
Continuous
 62
     7
370
    25
100
AcDbLine
 10
-3.1531216521
 20
2.0316770563
 30
0.0
 11
-3.1385194621
 21
2.054162457
 31
0.0
  0
ARC
  5
194
330
1F
100
AcDbEntity
  8
0
  6
Continuous
 62
     7
370
    25
100
AcDbCircle
 10
-3.1657017106
 20
2.0398466418
 30
0.0
 40
0.0149999999999998
100
AcDbArc
 50
262.0
 51
327.0
  0
LINE
  5
195
330
1F
100
AcDbEntity
  8
0
  6
Continuous
 62
     7
370
    25
100
AcDbLine
 10
-3.1677893071
 20
2.0249926208
 30
0.0
 11
-3.22216575
 21
2.0326347314
 31
0.0
  0
ARC
  5
196
330
1F
100
AcDbEntity
  8
0
  6
Continuous
 62
     7
370
    25
100
AcDbCircle
 10
0.0
 20
0.0
 30
0.0
 40
3.809718634205489
100
AcDbArc
 50
147.7550934315
 51
149.2449065685
  0
LINE
  5
197
330
1F
100
AcDbEntity
  8
0
  6
Continuous
 62
     7
370
    25
100
AcDbLine
 10
-3.2424278871
 20
1.903193528
 30
0.0
 11
-3.2739234461
 21
1.9481738477
 31
0.0
  0
ARC
  5
198
330
1F
100
AcDbEntity
  8
0
  6
Continuous
 62
     7
370
    25
100
AcDbCircle
 10
-3.2547151678
 20
1.8945898815
 30
0.0
 40
0.0149999999999997
100
AcDbArc
 50
330.0
 51
35.0
  0
LINE
  5
199
330
1F
100
AcDbEntity
  8
0
  6
Continuous
 62
     7
370
    25
100
AcDbLine
 10
-3.2551301699
 20
1.8638710767
 30
0.0
 11
-3.2417247868
 21
1.8870898815
 31
0.0
  0
ARC
  5
19A
330
1F
100
AcDbEntity
  8
0
  6
Continuous
 62
     7
370
    25
100
AcDbCircle
 10
-3.268120551
 20
1.8713710767
 30
0.0
 40
0.0149999999999997
100
AcDbArc
 50
265.0
 51
330.0
  0
LINE
  5
19B
330
1F
100
AcDbEntity
  8
0
  6
Continuous
 62
     7
370
    25
100
AcDbLine
 10
-3.2694278871
 20
1.8564281562
 30
0.0
 11
-3.3241297662
 21
1.8612139505
 31
0.0
  0
ARC
  5
19C
330
1F
100
AcDbEntity
  8
0
  6
Continuous
 62
     7
370
    25
100
AcDbCircle
 10
0.0
 20
0.0
 30
0.0
 40
3.809718634205489
100
AcDbArc
 50
150.7550934315
 51
152.2449065685
  0
LINE
  5
19D
330
1F
100
AcDbEntity
  8
0
  6
Continuous
 62
     7
370
    25
100
AcDbLine
 10
-3.3375897056
 20
1.7308897034
 30
0.0
 11
-3.371396189
 21
1.774160029
 31
0.0
  0
ARC
  5
19E
330
1F
100
AcDbEntity
  8
0
  6
Continuous
 62
     7
370
    25
100
AcDbCircle
 10
-3.3494098669
 20
1.7216547813
 30
0.0
 40
0.0149999999999994
100
AcDbArc
 50
333.0
 51
38.0
  0
LINE
  5
19F
330
1F
100
AcDbEntity
  8
0
  6
Continuous
 62
     7
370
    25
100
AcDbLine
 10
-3.3482166023
 20
1.690956356
 30
0.0
 11
-3.3360447691
 21
1.7148449238
 31
0.0
  0
ARC
  5
1A0
330
1F
100
AcDbEntity
  8
0
  6
Continuous
 62
     7
370
    25
100
AcDbCircle
 10
-3.3615817002
 20
1.6977662135
 30
0.0
 40
0.0149999999999997
100
AcDbArc
 50
268.0
 51
333.0
  0
LINE
  5
1A1
330
1F
100
AcDbEntity
  8
0
  6
Continuous
 62
     7
370
    25
100
AcDbLine
 10
-3.3621051926
 20
1.6827753511
 30
0.0
 11
-3.4169825737
 21
1.6846917115
 31
0.0
  0
ARC
  5
1A2
330
1F
100
AcDbEntity
  8
0
  6
Continuous
 62
     7
370
    25
100
AcDbCircle
 10
0.0
 20
0.0
 30
0.0
 40
3.809718634205489
100
AcDbArc
 50
153.7550934315
 51
155.2449065685
  0
LINE
  5
1A3
330
1F
100
AcDbEntity
  8
0
  6
Continuous
 62
     7
370
    25
100
AcDbLine
 10
-3.4236034227
 20
1.5538416304
 30
0.0
 11
-3.4596281694
 21
1.5952833609
 31
0.0
  0
ARC
  5
1A4
330
1F
100
AcDbEntity
  8
0
  6
Continuous
 62
     7
370
    25
100
AcDbCircle
 10
-3.4349240664
 20
1.544000745
 30
0.0
 40
0.0149999999999999
100
AcDbArc
 50
336.0
 51
41.0
  0
LINE
  5
1A5
330
1F
100
AcDbEntity
  8
0
  6
Continuous
 62
     7
370
    25
100
AcDbLine
 10
-3.4321258057
 20
1.5134068415
 30
0.0
 11
-3.4212208845
 21
1.5378996953
 31
0.0
  0
ARC
  5
1A6
330
1F
100
AcDbEntity
  8
0
  6
Continuous
 62
     7
370
    25
100
AcDbCircle
 10
-3.4458289875
 20
1.5195078911
 30
0.0
 40
0.0149999999999999
100
AcDbArc
 50
271.0
 51
336.0
  0
LINE
  5
1A7
330
1F
100
AcDbEntity
  8
0
  6
Continuous
 62
     7
370
    25
100
AcDbLine
 10
-3.4455672014
 20
1.5045101757
 30
0.0
 11
-3.5004696696
 21
1.5035518496
 31
0.0
  0
ARC
  5
1A8
330
1F
100
AcDbEntity
  8
0
  6
Continuous
 62
     7
370
    25
100
AcDbCircle
 10
0.0
 20
0.0
 30
0.0
 40
3.809718634205489
100
AcDbArc
 50
156.7550934315
 51
158.2449065685
  0
LINE
  5
1A9
330
1F
100
AcDbEntity
  8
0
  6
Continuous
 62
     7
370
    25
100
AcDbLine
 10
-3.5002332808
 20
1.3725345856
 30
0.0
 11
-3.5383775494
 21
1.412034132
 31
0.0
  0
ARC
  5
1AA
330
1F
100
AcDbEntity
  8
0
  6
Continuous
 62
     7
370
    25
100
AcDbCircle
 10
-3.5110233778
 20
1.36211471
 30
0.0
 40
0.0150000000000002
100
AcDbArc
 50
339.0
 51
44.0
  0
LINE
  5
1AB
330
1F
100
AcDbEntity
  8
0
  6
Continuous
 62
     7
370
    25
100
AcDbLine
 10
-3.5066277908
 20
1.331709184
 30
0.0
 11
-3.4970196714
 21
1.3567391908
 31
0.0
  0
ARC
  5
1AC
330
1F
100
AcDbEntity
  8
0
  6
Continuous
 62
     7
370
    25
100
AcDbCircle
 10
-3.5206314972
 20
1.3370847033
 30
0.0
 40
0.0149999999999995
100
AcDbArc
 50
274.0
 51
339.0
  0
LINE
  5
1AD
330
1F
100
AcDbEntity
  8
0
  6
Continuous
 62
     7
370
    25
100
AcDbLine
 10
-3.5195851501
 20
1.3221212425
 30
0.0
 11
-3.5743622213
 21
1.3182908566
 31
0.0
  0
ARC
  5
1AE
330
1F
100
AcDbEntity
  8
0
  6
Continuous
 62
     7
370
    25
100
AcDbCircle
 10
0.0
 20
0.0
 30
0.0
 40
3.809718634205489
100
AcDbArc
 50
159.7550934315
 51
161.2449065685
  0
LINE
  5
1AF
330
1F
100
AcDbEntity
  8
0
  6
Continuous
 62
     7
370
    25
100
AcDbLine
 10
-3.5672692427
 20
1.1874655188
 30
0.0
 11
-3.6074284825
 21
1.2249146157
 31
0.0
  0
ARC
  5
1B0
330
1F
100
AcDbEntity
  8
0
  6
Continuous
 62
     7
370
    25
100
AcDbCircle
 10
-3.5774992181
 20
1.1764952133
 30
0.0
 40
0.0149999999999994
100
AcDbArc
 50
342.0
 51
47.0
  0
LINE
  5
1B1
330
1F
100
AcDbEntity
  8
0
  6
Continuous
 62
     7
370
    25
100
AcDbLine
 10
-3.5715183528
 20
1.1463614043
 30
0.0
 11
-3.5632333704
 21
1.1718599583
 31
0.0
  0
ARC
  5
1B2
330
1F
100
AcDbEntity
  8
0
  6
Continuous
 62
     7
370
    25
100
AcDbCircle
 10
-3.5857842006
 20
1.1509966592
 30
0.0
 40
0.0149999999999996
100
AcDbArc
 50
277.0
 51
342.0
  0
LINE
  5
1B3
330
1F
100
AcDbEntity
  8
0
  6
Continuous
 62
     7
370
    25
100
AcDbLine
 10
-3.5839561604
 20
1.1361084669
 30
0.0
 11
-3.6384576947
 21
1.1294165199
 31
0.0
  0
ARC
  5
1B4
330
1F
100
AcDbEntity
  8
0
  6
Continuous
 62
     7
370
    25
100
AcDbCircle
 10
0.0
 20
0.0
 30
0.0
 40
3.809718634205489
100
AcDbArc
 50
162.7550934315
 51
164.2449065685
  0
LINE
  5
1B5
330
1F
100
AcDbEntity
  8
0
  6
Continuous
 62
     7
370
    25
100
AcDbLine
 10
-3.6245275676
 20
0.9991416916
 30
0.0
 11
-3.6665917048
 21
1.0344376936
 31
0.0
  0
ARC
  5
1B6
330
1F
100
AcDbEntity
  8
0
  6
Continuous
 62
     7
370
    25
100
AcDbCircle
 10
-3.6341693818
 20
0.9876510249
 30
0.0
 40
0.0149999999999996
100
AcDbArc
 50
345.0
 51
50.0
  0
LINE
  5
1B7
330
1F
100
AcDbEntity
  8
0
  6
Continuous
 62
     7
370
    25
100
AcDbLine
 10
-3.6266196313
 20
0.9578715276
 30
0.0
 11
-3.6196804944
 21
0.9837687392
 31
0.0
  0
ARC
  5
1B8
330
1F
100
AcDbEntity
  8
0
  6
Continuous
 62
     7
370
    25
100
AcDbCircle
 10
-3.6411085187
 20
0.9617538132
 30
0.0
 40
0.0149999999999995
100
AcDbArc
 50
280.0
 51
345.0
  0
LINE
  5
1B9
330
1F
100
AcDbEntity
  8
0
  6
Continuous
 62
     7
370
    25
100
AcDbLine
 10
-3.6385037961
 20
0.9469816969
 30
0.0
 11
-3.6925804085
 21
0.9374465312
 31
0.0
  0
ARC
  5
1BA
330
1F
100
AcDbEntity
  8
0
  6
Continuous
 62
     7
370
    25
100
AcDbCircle
 10
0.0
 20
0.0
 30
0.0
 40
3.809718634205489
100
AcDbArc
 50
165.7550934315
 51
167.2449065685
  0
LINE
  5
1BB
330
1F
100
AcDbEntity
  8
0
  6
Continuous
 62
     7
370
    25
100
AcDbLine
 10
-3.6718513144
 20
0.8080792864
 30
0.0
 11
-3.7157050542
 21
0.8411254496
 31
0.0
  0
ARC
  5
1BC
330
1F
100
AcDbEntity
  8
0
  6
Continuous
 62
     7
370
    25
100
AcDbCircle
 10
-3.6808785398
 20
0.7960997538
 30
0.0
 40
0.0149999999999999
100
AcDbArc
 50
348.0
 51
53.0
  0
LINE
  5
1BD
330
1F
100
AcDbEntity
  8
0
  6
Continuous
 62
     7
370
    25
100
AcDbLine
 10
-3.6717805975
 20
0.7667561916
 30
0.0
 11
-3.6662063258
 21
0.7929810784
 31
0.0
  0
ARC
  5
1BE
330
1F
100
AcDbEntity
  8
0
  6
Continuous
 62
     7
370
    25
100
AcDbCircle
 10
-3.6864528115
 20
0.769874867
 30
0.0
 40
0.0149999999999997
100
AcDbArc
 50
283.0
 51
348.0
  0
LINE
  5
1BF
330
1F
100
AcDbEntity
  8
0
  6
Continuous
 62
     7
370
    25
100
AcDbLine
 10
-3.6830785457
 20
0.755259316
 30
0.0
 11
-3.736582016
 21
0.7429070666
 31
0.0
  0
ARC
  5
1C0
330
1F
100
AcDbEntity
  8
0
  6
Continuous
 62
     7
370
    25
100
AcDbCircle
 10
0.0
 20
0.0
 30
0.0
 40
3.80971863420549
100
AcDbArc
 50
168.7550934315
 51
170.2449065685
  0
LINE
  5
1C1
330
1F
100
AcDbEntity
  8
0
  6
Continuous
 62
     7
370
    25
100
AcDbLine
 10
-3.709110772
 20
0.6148019921
 30
0.0
 11
-3.7546339143
 21
0.6455077393
 31
0.0
  0
ARC
  5
1C2
330
1F
100
AcDbEntity
  8
0
  6
Continuous
 62
     7
370
    25
100
AcDbCircle
 10
-3.7174986655
 20
0.6023664285
 30
0.0
 40
0.0149999999999998
100
AcDbArc
 50
351.0
 51
56.0
  0
LINE
  5
1C3
330
1F
100
AcDbEntity
  8
0
  6
Continuous
 62
     7
370
    25
100
AcDbLine
 10
-3.7068774683
 20
0.5735392302
 30
0.0
 11
-3.7026833404
 21
0.6000199116
 31
0.0
  0
ARC
  5
1C4
330
1F
100
AcDbEntity
  8
0
  6
Continuous
 62
     7
370
    25
100
AcDbCircle
 10
-3.7216927934
 20
0.5758857472
 30
0.0
 40
0.0149999999999998
100
AcDbArc
 50
286.0
 51
351.0
  0
LINE
  5
1C5
330
1F
100
AcDbEntity
  8
0
  6
Continuous
 62
     7
370
    25
100
AcDbLine
 10
-3.7175582331
 20
0.5614668217
 30
0.0
 11
-3.7703419119
 21
0.5463313454
 31
0.0
  0
ARC
  5
1C6
330
1F
100
AcDbEntity
  8
0
  6
Continuous
 62
     7
370
    25
100
AcDbCircle
 10
0.0
 20
0.0
 30
0.0
 40
3.809718634205489
100
AcDbArc
 50
171.7550934315
 51
173.2449065685
  0
LINE
  5
1C7
330
1F
100
AcDbEntity
  8
0
  6
Continuous
 62
     7
370
    25
100
AcDbLine
 10
-3.7362038147
 20
0.4198395683
 30
0.0
 11
-3.7832715838
 21
0.4481207371
 31
0.0
  0
ARC
  5
1C8
330
1F
100
AcDbEntity
  8
0
  6
Continuous
 62
     7
370
    25
100
AcDbCircle
 10
-3.7439293859
 20
0.4069820588
 30
0.0
 40
0.0149999999999998
100
AcDbArc
 50
354.0
 51
59.0
  0
LINE
  5
1C9
330
1F
100
AcDbEntity
  8
0
  6
Continuous
 62
     7
370
    25
100
AcDbLine
 10
-3.7318140456
 20
0.3787502376
 30
0.0
 11
-3.7290115574
 21
0.4054141318
 31
0.0
  0
ARC
  5
1CA
330
1F
100
AcDbEntity
  8
0
  6
Continuous
 62
     7
370
    25
100
AcDbCircle
 10
-3.7467318741
 20
0.3803181646
 30
0.0
 40
0.0149999999999996
100
AcDbArc
 50
289.0
 51
354.0
  0
LINE
  5
1CB
330
1F
100
AcDbEntity
  8
0
  6
Continuous
 62
     7
370
    25
100
AcDbLine
 10
-3.7418483518
 20
0.3661353859
 30
0.0
 11
-3.7937675628
 21
0.3482581679
 31
0.0
  0
ARC
  5
1CC
330
1F
100
AcDbEntity
  8
0
  6
Continuous
 62
     7
370
    25
100
AcDbCircle
 10
0.0
 20
0.0
 30
0.0
 40
3.809718634205489
100
AcDbArc
 50
174.7550934315
 51
176.2449065685
  0
LINE
  5
1CD
330
1F
100
AcDbEntity
  8
0
  6
Continuous
 62
     7
370
    25
100
AcDbLine
 10
-3.7530561825
 20
0.2237263934
 30
0.0
 11
-3.8015395689
 21
0.2495054672
 31
0.0
  0
ARC
  5
1CE
330
1F
100
AcDbEntity
  8
0
  6
Continuous
 62
     7
370
    25
100
AcDbCircle
 10
-3.760098256
 20
0.2104821795
 30
0.0
 40
0.0149999999999998
100
AcDbArc
 50
357.0
 51
62.0
  0
LINE
  5
1CF
330
1F
100
AcDbEntity
  8
0
  6
Continuous
 62
     7
370
    25
100
AcDbLine
 10
-3.7465219801
 20
0.182923117
 30
0.0
 11
-3.745118813
 21
0.2096971402
 31
0.0
  0
ARC
  5
1D0
330
1F
100
AcDbEntity
  8
0
  6
Continuous
 62
     7
370
    25
100
AcDbCircle
 10
-3.7615014231
 20
0.1837081563
 30
0.0
 40
0.0149999999999995
100
AcDbArc
 50
292.0
 51
357.0
  0
LINE
  5
1D1
330
1F
100
AcDbEntity
  8
0
  6
Continuous
 62
     7
370
    25
100
AcDbLine
 10
-3.7558823242
 20
0.1698003985
 30
0.0
 11
-3.8067947604
 21
0.1492304391
 31
0.0
  0
ARC
  5
1D2
330
1F
100
AcDbEntity
  8
0
  6
Continuous
 62
     7
370
    25
100
AcDbCircle
 10
0.0
 20
0.0
 30
0.0
 40
3.809718634205489
100
AcDbArc
 50
177.7550934315
 51
179.2449065685
  0
LINE
  5
1D3
330
1F
100
AcDbEntity
  8
0
  6
Continuous
 62
     7
370
    25
100
AcDbLine
 10
-3.7596216842
 20
0.027
 30
0.0
 11
-3.8093877982
 21
0.0502063201
 31
0.0
  0
ARC
  5
1D4
330
1F
100
AcDbEntity
  8
0
  6
Continuous
 62
     7
370
    25
100
AcDbCircle
 10
-3.7659609581
 20
0.0134053832
 30
0.0
 40
0.0149999999999996
100
AcDbArc
 50
0.0
 51
65.0
  0
LINE
  5
1D5
330
1F
100
AcDbEntity
  8
0
  6
Continuous
 62
     7
370
    25
100
AcDbLine
 10
-3.7509609581
 20
-0.0134053832
 30
0.0
 11
-3.7509609581
 21
0.0134053832
 31
0.0
  0
ARC
  5
1D6
330
1F
100
AcDbEntity
  8
0
  6
Continuous
 62
     7
370
    25
100
AcDbCircle
 10
-3.7659609581
 20
-0.0134053832
 30
0.0
 40
0.0149999999999996
100
AcDbArc
 50
295.0
 51
0.0
  0
LINE
  5
1D7
330
1F
100
AcDbEntity
  8
0
  6
Continuous
 62
     7
370
    25
100
AcDbLine
 10
-3.7596216842
 20
-0.027
 30
0.0
 11
-3.8093877982
 21
-0.0502063201
 31
0.0
  0
ARC
  5
1D8
330
1F
100
AcDbEntity
  8
0
  6
Continuous
 62
     7
370
    25
100
AcDbCircle
 10
0.0
 20
0.0
 30
0.0
 40
3.809718634205489
100
AcDbArc
 50
180.7550934315
 51
182.2449065685
  0
LINE
  5
1D9
330
1F
100
AcDbEntity
  8
0
  6
Continuous
 62
     7
370
    25
100
AcDbLine
 10
-3.7558823242
 20
-0.1698003985
 30
0.0
 11
-3.8067947604
 21
-0.1492304391
 31
0.0
  0
ARC
  5
1DA
330
1F
100
AcDbEntity
  8
0
  6
Continuous
 62
     7
370
    25
100
AcDbCircle
 10
-3.7615014231
 20
-0.1837081563
 30
0.0
 40
0.0149999999999996
100
AcDbArc
 50
3.0
 51
68.0
  0
LINE
  5
1DB
330
1F
100
AcDbEntity
  8
0
  6
Continuous
 62
     7
370
    25
100
AcDbLine
 10
-3.745118813
 20
-0.2096971402
 30
0.0
 11
-3.7465219801
 21
-0.182923117
 31
0.0
  0
ARC
  5
1DC
330
1F
100
AcDbEntity
  8
0
  6
Continuous
 62
     7
370
    25
100
AcDbCircle
 10
-3.760098256
 20
-0.2104821795
 30
0.0
 40
0.0149999999999995
100
AcDbArc
 50
298.0
 51
3.0
  0
LINE
  5
1DD
330
1F
100
AcDbEntity
  8
0
  6
Continuous
 62
     7
370
    25
100
AcDbLine
 10
-3.7530561825
 20
-0.2237263934
 30
0.0
 11
-3.8015395689
 21
-0.2495054672
 31
0.0
  0
ARC
  5
1DE
330
1F
100
AcDbEntity
  8
0
  6
Continuous
 62
     7
370
    25
100
AcDbCircle
 10
0.0
 20
0.0
 30
0.0
 40
3.809718634205489
100
AcDbArc
 50
183.7550934315
 51
185.2449065685
  0
LINE
  5
1DF
330
1F
100
AcDbEntity
  8
0
  6
Continuous
 62
     7
370
    25
100
AcDbLine
 10
-3.7418483518
 20
-0.3661353859
 30
0.0
 11
-3.7937675628
 21
-0.3482581679
 31
0.0
  0
ARC
  5
1E0
330
1F
100
AcDbEntity
  8
0
  6
Continuous
 62
     7
370
    25
100
AcDbCircle
 10
-3.7467318741
 20
-0.3803181646
 30
0.0
 40
0.0149999999999997
100
AcDbArc
 50
6.0
 51
71.0
  0
LINE
  5
1E1
330
1F
100
AcDbEntity
  8
0
  6
Continuous
 62
     7
370
    25
100
AcDbLine
 10
-3.7290115574
 20
-0.4054141318
 30
0.0
 11
-3.7318140456
 21
-0.3787502376
 31
0.0
  0
ARC
  5
1E2
330
1F
100
AcDbEntity
  8
0
  6
Continuous
 62
     7
370
    25
100
AcDbCircle
 10
-3.7439293859
 20
-0.4069820588
 30
0.0
 40
0.0149999999999999
100
AcDbArc
 50
301.0
 51
6.0
  0
LINE
  5
1E3
330
1F
100
AcDbEntity
  8
0
  6
Continuous
 62
     7
370
    25
100
AcDbLine
 10
-3.7362038147
 20
-0.4198395683
 30
0.0
 11
-3.7832715838
 21
-0.4481207371
 31
0.0
  0
ARC
  5
1E4
330
1F
100
AcDbEntity
  8
0
  6
Continuous
 62
     7
370
    25
100
AcDbCircle
 10
0.0
 20
0.0
 30
0.0
 40
3.80971863420549
100
AcDbArc
 50
186.7550934315
 51
188.2449065685
  0
LINE
  5
1E5
330
1F
100
AcDbEntity
  8
0
  6
Continuous
 62
     7
370
    25
100
AcDbLine
 10
-3.7175582331
 20
-0.5614668217
 30
0.0
 11
-3.7703419119
 21
-0.5463313454
 31
0.0
  0
ARC
  5
1E6
330
1F
100
AcDbEntity
  8
0
  6
Continuous
 62
     7
370
    25
100
AcDbCircle
 10
-3.7216927934
 20
-0.5758857472
 30
0.0
 40
0.0149999999999997
100
AcDbArc
 50
9.0
 51
74.0
  0
LINE
  5
1E7
330
1F
100
AcDbEntity
  8
0
  6
Continuous
 62
     7
370
    25
100
AcDbLine
 10
-3.7026833404
 20
-0.6000199116
 30
0.0
 11
-3.7068774683
 21
-0.5735392302
 31
0.0
  0
ARC
  5
1E8
330
1F
100
AcDbEntity
  8
0
  6
Continuous
 62
     7
370
    25
100
AcDbCircle
 10
-3.7174986655
 20
-0.6023664285
 30
0.0
 40
0.0149999999999992
100
AcDbArc
 50
304.0
 51
9.0
  0
LINE
  5
1E9
330
1F
100
AcDbEntity
  8
0
  6
Continuous
 62
     7
370
    25
100
AcDbLine
 10
-3.709110772
 20
-0.6148019921
 30
0.0
 11
-3.7546339143
 21
-0.6455077393
 31
0.0
  0
ARC
  5
1EA
330
1F
100
AcDbEntity
  8
0
  6
Continuous
 62
     7
370
    25
100
AcDbCircle
 10
0.0
 20
0.0
 30
0.0
 40
3.809718634205489
100
AcDbArc
 50
189.7550934315
 51
191.2449065685
  0
LINE
  5
1EB
330
1F
100
AcDbEntity
  8
0
  6
Continuous
 62
     7
370
    25
100
AcDbLine
 10
-3.6830785457
 20
-0.755259316
 30
0.0
 11
-3.736582016
 21
-0.7429070666
 31
0.0
  0
ARC
  5
1EC
330
1F
100
AcDbEntity
  8
0
  6
Continuous
 62
     7
370
    25
100
AcDbCircle
 10
-3.6864528115
 20
-0.769874867
 30
0.0
 40
0.0149999999999997
100
AcDbArc
 50
12.0
 51
77.0
  0
LINE
  5
1ED
330
1F
100
AcDbEntity
  8
0
  6
Continuous
 62
     7
370
    25
100
AcDbLine
 10
-3.6662063258
 20
-0.7929810784
 30
0.0
 11
-3.6717805975
 21
-0.7667561916
 31
0.0
  0
ARC
  5
1EE
330
1F
100
AcDbEntity
  8
0
  6
Continuous
 62
     7
370
    25
100
AcDbCircle
 10
-3.6808785398
 20
-0.7960997538
 30
0.0
 40
0.0149999999999996
100
AcDbArc
 50
307.0
 51
12.0
  0
LINE
  5
1EF
330
1F
100
AcDbEntity
  8
0
  6
Continuous
 62
     7
370
    25
100
AcDbLine
 10
-3.6718513144
 20
-0.8080792864
 30
0.0
 11
-3.7157050542
 21
-0.8411254496
 31
0.0
  0
ARC
  5
1F0
330
1F
100
AcDbEntity
  8
0
  6
Continuous
 62
     7
370
    25
100
AcDbCircle
 10
0.0
 20
0.0
 30
0.0
 40
3.809718634205489
100
AcDbArc
 50
192.7550934315
 51
194.2449065685
  0
LINE
  5
1F1
330
1F
100
AcDbEntity
  8
0
  6
Continuous
 62
     7
370
    25
100
AcDbLine
 10
-3.6385037961
 20
-0.9469816969
 30
0.0
 11
-3.6925804085
 21
-0.9374465312
 31
0.0
  0
ARC
  5
1F2
330
1F
100
AcDbEntity
  8
0
  6
Continuous
 62
     7
370
    25
100
AcDbCircle
 10
-3.6411085187
 20
-0.9617538132
 30
0.0
 40
0.0149999999999999
100
AcDbArc
 50
15.0
 51
80.0
  0
LINE
  5
1F3
330
1F
100
AcDbEntity
  8
0
  6
Continuous
 62
     7
370
    25
100
AcDbLine
 10
-3.6196804944
 20
-0.9837687392
 30
0.0
 11
-3.6266196313
 21
-0.9578715276
 31
0.0
  0
ARC
  5
1F4
330
1F
100
AcDbEntity
  8
0
  6
Continuous
 62
     7
370
    25
100
AcDbCircle
 10
-3.6341693818
 20
-0.9876510249
 30
0.0
 40
0.0149999999999996
100
AcDbArc
 50
310.0
 51
15.0
  0
LINE
  5
1F5
330
1F
100
AcDbEntity
  8
0
  6
Continuous
 62
     7
370
    25
100
AcDbLine
 10
-3.6245275676
 20
-0.9991416916
 30
0.0
 11
-3.6665917048
 21
-1.0344376936
 31
0.0
  0
ARC
  5
1F6
330
1F
100
AcDbEntity
  8
0
  6
Continuous
 62
     7
370
    25
100
AcDbCircle
 10
0.0
 20
0.0
 30
0.0
 40
3.809718634205489
100
AcDbArc
 50
195.7550934315
 51
197.2449065685
  0
LINE
  5
1F7
330
1F
100
AcDbEntity
  8
0
  6
Continuous
 62
     7
370
    25
100
AcDbLine
 10
-3.5839561604
 20
-1.1361084669
 30
0.0
 11
-3.6384576947
 21
-1.1294165199
 31
0.0
  0
ARC
  5
1F8
330
1F
100
AcDbEntity
  8
0
  6
Continuous
 62
     7
370
    25
100
AcDbCircle
 10
-3.5857842006
 20
-1.1509966592
 30
0.0
 40
0.0149999999999996
100
AcDbArc
 50
18.0
 51
83.0
  0
LINE
  5
1F9
330
1F
100
AcDbEntity
  8
0
  6
Continuous
 62
     7
370
    25
100
AcDbLine
 10
-3.5632333704
 20
-1.1718599583
 30
0.0
 11
-3.5715183528
 21
-1.1463614043
 31
0.0
  0
ARC
  5
1FA
330
1F
100
AcDbEntity
  8
0
  6
Continuous
 62
     7
370
    25
100
AcDbCircle
 10
-3.5774992181
 20
-1.1764952133
 30
0.0
 40
0.0150000000000001
100
AcDbArc
 50
313.0
 51
18.0
  0
LINE
  5
1FB
330
1F
100
AcDbEntity
  8
0
  6
Continuous
 62
     7
370
    25
100
AcDbLine
 10
-3.5672692427
 20
-1.1874655188
 30
0.0
 11
-3.6074284825
 21
-1.2249146157
 31
0.0
  0
ARC
  5
1FC
330
1F
100
AcDbEntity
  8
0
  6
Continuous
 62
     7
370
    25
100
AcDbCircle
 10
0.0
 20
0.0
 30
0.0
 40
3.809718634205489
100
AcDbArc
 50
198.7550934315
 51
200.2449065685
  0
LINE
  5
1FD
330
1F
100
AcDbEntity
  8
0
  6
Continuous
 62
     7
370
    25
100
AcDbLine
 10
-3.5195851501
 20
-1.3221212425
 30
0.0
 11
-3.5743622213
 21
-1.3182908566
 31
0.0
  0
ARC
  5
1FE
330
1F
100
AcDbEntity
  8
0
  6
Continuous
 62
     7
370
    25
100
AcDbCircle
 10
-3.5206314972
 20
-1.3370847033
 30
0.0
 40
0.0149999999999997
100
AcDbArc
 50
21.0
 51
86.0
  0
LINE
  5
1FF
330
1F
100
AcDbEntity
  8
0
  6
Continuous
 62
     7
370
    25
100
AcDbLine
 10
-3.4970196714
 20
-1.3567391908
 30
0.0
 11
-3.5066277908
 21
-1.331709184
 31
0.0
  0
ARC
  5
200
330
1F
100
AcDbEntity
  8
0
  6
Continuous
 62
     7
370
    25
100
AcDbCircle
 10
-3.5110233778
 20
-1.36211471
 30
0.0
 40
0.0149999999999994
100
AcDbArc
 50
316.0
 51
21.0
  0
LINE
  5
201
330
1F
100
AcDbEntity
  8
0
  6
Continuous
 62
     7
370
    25
100
AcDbLine
 10
-3.5002332808
 20
-1.3725345856
 30
0.0
 11
-3.5383775494
 21
-1.412034132
 31
0.0
  0
ARC
  5
202
330
1F
100
AcDbEntity
  8
0
  6
Continuous
 62
     7
370
    25
100
AcDbCircle
 10
0.0
 20
0.0
 30
0.0
 40
3.809718634205489
100
AcDbArc
 50
201.7550934315
 51
203.2449065685
  0
LINE
  5
203
330
1F
100
AcDbEntity
  8
0
  6
Continuous
 62
     7
370
    25
100
AcDbLine
 10
-3.4455672014
 20
-1.5045101757
 30
0.0
 11
-3.5004696696
 21
-1.5035518496
 31
0.0
  0
ARC
  5
204
330
1F
100
AcDbEntity
  8
0
  6
Continuous
 62
     7
370
    25
100
AcDbCircle
 10
-3.4458289875
 20
-1.5195078911
 30
0.0
 40
0.0149999999999996
100
AcDbArc
 50
24.0
 51
89.0
  0
LINE
  5
205
330
1F
100
AcDbEntity
  8
0
  6
Continuous
 62
     7
370
    25
100
AcDbLine
 10
-3.4212208845
 20
-1.5378996953
 30
0.0
 11
-3.4321258057
 21
-1.5134068415
 31
0.0
  0
ARC
  5
206
330
1F
100
AcDbEntity
  8
0
  6
Continuous
 62
     7
370
    25
100
AcDbCircle
 10
-3.4349240664
 20
-1.544000745
 30
0.0
 40
0.0149999999999997
100
AcDbArc
 50
319.0
 51
24.0
  0
LINE
  5
207
330
1F
100
AcDbEntity
  8
0
  6
Continuous
 62
     7
370
    25
100
AcDbLine
 10
-3.4236034227
 20
-1.5538416304
 30
0.0
 11
-3.4596281694
 21
-1.5952833609
 31
0.0
  0
ARC
  5
208
330
1F
100
AcDbEntity
  8
0
  6
Continuous
 62
     7
370
    25
100
AcDbCircle
 10
0.0
 20
0.0
 30
0.0
 40
3.809718634205489
100
AcDbArc
 50
204.7550934315
 51
206.2449065685
  0
LINE
  5
209
330
1F
100
AcDbEntity
  8
0
  6
Continuous
 62
     7
370
    25
100
AcDbLine
 10
-3.3621051926
 20
-1.6827753511
 30
0.0
 11
-3.4169825737
 21
-1.6846917115
 31
0.0
  0
ARC
  5
20A
330
1F
100
AcDbEntity
  8
0
  6
Continuous
 62
     7
370
    25
100
AcDbCircle
 10
-3.3615817002
 20
-1.6977662135
 30
0.0
 40
0.0149999999999997
100
AcDbArc
 50
27.0
 51
92.0
  0
LINE
  5
20B
330
1F
100
AcDbEntity
  8
0
  6
Continuous
 62
     7
370
    25
100
AcDbLine
 10
-3.3360447691
 20
-1.7148449238
 30
0.0
 11
-3.3482166023
 21
-1.690956356
 31
0.0
  0
ARC
  5
20C
330
1F
100
AcDbEntity
  8
0
  6
Continuous
 62
     7
370
    25
100
AcDbCircle
 10
-3.3494098669
 20
-1.7216547813
 30
0.0
 40
0.0149999999999998
100
AcDbArc
 50
322.0
 51
27.0
  0
LINE
  5
20D
330
1F
100
AcDbEntity
  8
0
  6
Continuous
 62
     7
370
    25
100
AcDbLine
 10
-3.3375897056
 20
-1.7308897034
 30
0.0
 11
-3.371396189
 21
-1.774160029
 31
0.0
  0
ARC
  5
20E
330
1F
100
AcDbEntity
  8
0
  6
Continuous
 62
     7
370
    25
100
AcDbCircle
 10
0.0
 20
0.0
 30
0.0
 40
3.809718634205489
100
AcDbArc
 50
207.7550934315
 51
209.2449065685
  0
LINE
  5
20F
330
1F
100
AcDbEntity
  8
0
  6
Continuous
 62
     7
370
    25
100
AcDbLine
 10
-3.2694278871
 20
-1.8564281562
 30
0.0
 11
-3.3241297662
 21
-1.8612139505
 31
0.0
  0
ARC
  5
210
330
1F
100
AcDbEntity
  8
0
  6
Continuous
 62
     7
370
    25
100
AcDbCircle
 10
-3.268120551
 20
-1.8713710767
 30
0.0
 40
0.0149999999999996
100
AcDbArc
 50
30.0
 51
95.0
  0
LINE
  5
211
330
1F
100
AcDbEntity
  8
0
  6
Continuous
 62
     7
370
    25
100
AcDbLine
 10
-3.2417247868
 20
-1.8870898815
 30
0.0
 11
-3.2551301699
 21
-1.8638710767
 31
0.0
  0
ARC
  5
212
330
1F
100
AcDbEntity
  8
0
  6
Continuous
 62
     7
370
    25
100
AcDbCircle
 10
-3.2547151678
 20
-1.8945898815
 30
0.0
 40
0.0149999999999989
100
AcDbArc
 50
325.0
 51
30.0
  0
LINE
  5
213
330
1F
100
AcDbEntity
  8
0
  6
Continuous
 62
     7
370
    25
100
AcDbLine
 10
-3.2424278871
 20
-1.903193528
 30
0.0
 11
-3.2739234461
 21
-1.9481738477
 31
0.0
  0
ARC
  5
214
330
1F
100
AcDbEntity
  8
0
  6
Continuous
 62
     7
370
    25
100
AcDbCircle
 10
0.0
 20
0.0
 30
0.0
 40
3.809718634205489
100
AcDbArc
 50
210.7550934315
 51
212.2449065685
  0
LINE
  5
215
330
1F
100
AcDbEntity
  8
0
  6
Continuous
 62
     7
370
    25
100
AcDbLine
 10
-3.1677893071
 20
-2.0249926208
 30
0.0
 11
-3.22216575
 21
-2.0326347314
 31
0.0
  0
ARC
  5
216
330
1F
100
AcDbEntity
  8
0
  6
Continuous
 62
     7
370
    25
100
AcDbCircle
 10
-3.1657017106
 20
-2.0398466418
 30
0.0
 40
0.0150000000000003
100
AcDbArc
 50
33.0
 51
98.0
  0
LINE
  5
217
330
1F
100
AcDbEntity
  8
0
  6
Continuous
 62
     7
370
    25
100
AcDbLine
 10
-3.1385194621
 20
-2.054162457
 30
0.0
 11
-3.1531216521
 21
-2.0316770563
 31
0.0
  0
ARC
  5
218
330
1F
100
AcDbEntity
  8
0
  6
Continuous
 62
     7
370
    25
100
AcDbCircle
 10
-3.1510995207
 20
-2.0623320425
 30
0.0
 40
0.0150000000000002
100
AcDbArc
 50
328.0
 51
33.0
  0
LINE
  5
219
330
1F
100
AcDbEntity
  8
0
  6
Continuous
 62
     7
370
    25
100
AcDbLine
 10
-3.1383787992
 20
-2.0702808314
 30
0.0
 11
-3.1674771065
 21
-2.1168478574
 31
0.0
  0
ARC
  5
21A
330
1F
100
AcDbEntity
  8
0
  6
Continuous
 62
     7
370
    25
100
AcDbCircle
 10
0.0
 20
0.0
 30
0.0
 40
3.809718634205489
100
AcDbArc
 50
213.7550934315
 51
215.2449065685
  0
LINE
  5
21B
330
1F
100
AcDbEntity
  8
0
  6
Continuous
 62
     7
370
    25
100
AcDbLine
 10
-3.0574680368
 20
-2.1880067213
 30
0.0
 11
-3.1113700014
 21
-2.1984842019
 31
0.0
  0
ARC
  5
21C
330
1F
100
AcDbEntity
  8
0
  6
Continuous
 62
     7
370
    25
100
AcDbCircle
 10
-3.0546059018
 20
-2.2027311291
 30
0.0
 40
0.0149999999999996
100
AcDbArc
 50
36.0
 51
101.0
  0
LINE
  5
21D
330
1F
100
AcDbEntity
  8
0
  6
Continuous
 62
     7
370
    25
100
AcDbLine
 10
-3.0267116738
 20
-2.2156047159
 30
0.0
 11
-3.0424706469
 21
-2.1939143503
 31
0.0
  0
ARC
  5
21E
330
1F
100
AcDbEntity
  8
0
  6
Continuous
 62
     7
370
    25
100
AcDbCircle
 10
-3.0388469287
 20
-2.2244214947
 30
0.0
 40
0.0149999999999999
100
AcDbArc
 50
331.0
 51
36.0
  0
LINE
  5
21F
330
1F
100
AcDbEntity
  8
0
  6
Continuous
 62
     7
370
    25
100
AcDbLine
 10
-3.0257276331
 20
-2.231693639
 30
0.0
 11
-3.0523489324
 21
-2.2797197342
 31
0.0
  0
ARC
  5
220
330
1F
100
AcDbEntity
  8
0
  6
Continuous
 62
     7
370
    25
100
AcDbCircle
 10
0.0
 20
0.0
 30
0.0
 40
3.809718634205489
100
AcDbArc
 50
216.7550934315
 51
218.2449065685
  0
LINE
  5
221
330
1F
100
AcDbEntity
  8
0
  6
Continuous
 62
     7
370
    25
100
AcDbLine
 10
-2.938766459
 20
-2.3450236475
 30
0.0
 11
-2.992046204
 21
-2.3583077799
 31
0.0
  0
ARC
  5
222
330
1F
100
AcDbEntity
  8
0
  6
Continuous
 62
     7
370
    25
100
AcDbCircle
 10
-2.9351376306
 20
-2.3595780834
 30
0.0
 40
0.0149999999999995
100
AcDbArc
 50
39.0
 51
104.0
  0
LINE
  5
223
330
1F
100
AcDbEntity
  8
0
  6
Continuous
 62
     7
370
    25
100
AcDbLine
 10
-2.9066078792
 20
-2.3709741564
 30
0.0
 11
-2.9234804412
 21
-2.3501382776
 31
0.0
  0
ARC
  5
224
330
1F
100
AcDbEntity
  8
0
  6
Continuous
 62
     7
370
    25
100
AcDbCircle
 10
-2.9182650686
 20
-2.3804139623
 30
0.0
 40
0.0149999999999997
100
AcDbArc
 50
334.0
 51
39.0
  0
LINE
  5
225
330
1F
100
AcDbEntity
  8
0
  6
Continuous
 62
     7
370
    25
100
AcDbLine
 10
-2.9047831579
 20
-2.3869895295
 30
0.0
 11
-2.928854482
 21
-2.4363430577
 31
0.0
  0
ARC
  5
226
330
1F
100
AcDbEntity
  8
0
  6
Continuous
 62
     7
370
    25
100
AcDbCircle
 10
0.0
 20
0.0
 30
0.0
 40
3.809718634205489
100
AcDbArc
 50
219.7550934315
 51
221.2449065685
  0
LINE
  5
227
330
1F
100
AcDbEntity
  8
0
  6
Continuous
 62
     7
370
    25
100
AcDbLine
 10
-2.8120099267
 20
-2.4956130269
 30
0.0
 11
-2.8645214159
 21
-2.5116674003
 31
0.0
  0
ARC
  5
228
330
1F
100
AcDbEntity
  8
0
  6
Continuous
 62
     7
370
    25
100
AcDbCircle
 10
-2.8076243512
 20
-2.5099575983
 30
0.0
 40
0.0149999999999997
100
AcDbArc
 50
42.0
 51
107.0
  0
LINE
  5
229
330
1F
100
AcDbEntity
  8
0
  6
Continuous
 62
     7
370
    25
100
AcDbLine
 10
-2.7785372744
 20
-2.5198449215
 30
0.0
 11
-2.7964771788
 21
-2.4999206392
 31
0.0
  0
ARC
  5
22A
330
1F
100
AcDbEntity
  8
0
  6
Continuous
 62
     7
370
    25
100
AcDbCircle
 10
-2.7896844468
 20
-2.5298818806
 30
0.0
 40
0.0149999999999998
100
AcDbArc
 50
337.0
 51
42.0
  0
LINE
  5
22B
330
1F
100
AcDbEntity
  8
0
  6
Continuous
 62
     7
370
    25
100
AcDbLine
 10
-2.775876874
 20
-2.5357428475
 30
0.0
 11
-2.7973322451
 21
-2.5862885343
 31
0.0
  0
ARC
  5
22C
330
1F
100
AcDbEntity
  8
0
  6
Continuous
 62
     7
370
    25
100
AcDbCircle
 10
0.0
 20
0.0
 30
0.0
 40
3.809718634205489
100
AcDbArc
 50
222.7550934315
 51
224.2449065685
  0
LINE
  5
22D
330
1F
100
AcDbEntity
  8
0
  6
Continuous
 62
     7
370
    25
100
AcDbLine
 10
-2.6775458707
 20
-2.6393621045
 30
0.0
 11
-2.7291451737
 21
-2.6581427149
 31
0.0
  0
ARC
  5
22E
330
1F
100
AcDbEntity
  8
0
  6
Continuous
 62
     7
370
    25
100
AcDbCircle
 10
-2.6724155685
 20
-2.6534574938
 30
0.0
 40
0.0149999999999999
100
AcDbArc
 50
45.0
 51
110.0
  0
LINE
  5
22F
330
1F
100
AcDbEntity
  8
0
  6
Continuous
 62
     7
370
    25
100
AcDbLine
 10
-2.6428508921
 20
-2.6618089668
 30
0.0
 11
-2.6618089668
 21
-2.6428508921
 31
0.0
  0
ARC
  5
230
330
1F
100
AcDbEntity
  8
0
  6
Continuous
 62
     7
370
    25
100
AcDbCircle
 10
-2.6534574938
 20
-2.6724155685
 30
0.0
 40
0.0149999999999996
100
AcDbArc
 50
340.0
 51
45.0
  0
LINE
  5
231
330
1F
100
AcDbEntity
  8
0
  6
Continuous
 62
     7
370
    25
100
AcDbLine
 10
-2.6393621045
 20
-2.6775458707
 30
0.0
 11
-2.6581427149
 21
-2.7291451737
 31
0.0
  0
ARC
  5
232
330
1F
100
AcDbEntity
  8
0
  6
Continuous
 62
     7
370
    25
100
AcDbCircle
 10
0.0
 20
0.0
 30
0.0
 40
3.80971863420549
100
AcDbArc
 50
225.7550934315
 51
227.2449065685
  0
LINE
  5
233
330
1F
100
AcDbEntity
  8
0
  6
Continuous
 62
     7
370
    25
100
AcDbLine
 10
-2.5357428475
 20
-2.775876874
 30
0.0
 11
-2.5862885343
 21
-2.7973322451
 31
0.0
  0
ARC
  5
234
330
1F
100
AcDbEntity
  8
0
  6
Continuous
 62
     7
370
    25
100
AcDbCircle
 10
-2.5298818806
 20
-2.7896844468
 30
0.0
 40
0.0149999999999998
100
AcDbArc
 50
48.0
 51
113.0
  0
LINE
  5
235
330
1F
100
AcDbEntity
  8
0
  6
Continuous
 62
     7
370
    25
100
AcDbLine
 10
-2.4999206392
 20
-2.7964771788
 30
0.0
 11
-2.5198449215
 21
-2.7785372744
 31
0.0
  0
ARC
  5
236
330
1F
100
AcDbEntity
  8
0
  6
Continuous
 62
     7
370
    25
100
AcDbCircle
 10
-2.5099575983
 20
-2.8076243512
 30
0.0
 40
0.0149999999999997
100
AcDbArc
 50
343.0
 51
48.0
  0
LINE
  5
237
330
1F
100
AcDbEntity
  8
0
  6
Continuous
 62
     7
370
    25
100
AcDbLine
 10
-2.4956130269
 20
-2.8120099267
 30
0.0
 11
-2.5116674003
 21
-2.8645214159
 31
0.0
  0
ARC
  5
238
330
1F
100
AcDbEntity
  8
0
  6
Continuous
 62
     7
370
    25
100
AcDbCircle
 10
0.0
 20
0.0
 30
0.0
 40
3.809718634205489
100
AcDbArc
 50
228.7550934315
 51
230.2449065685
  0
LINE
  5
239
330
1F
100
AcDbEntity
  8
0
  6
Continuous
 62
     7
370
    25
100
AcDbLine
 10
-2.3869895295
 20
-2.9047831579
 30
0.0
 11
-2.4363430577
 21
-2.928854482
 31
0.0
  0
ARC
  5
23A
330
1F
100
AcDbEntity
  8
0
  6
Continuous
 62
     7
370
    25
100
AcDbCircle
 10
-2.3804139623
 20
-2.9182650686
 30
0.0
 40
0.0149999999999989
100
AcDbArc
 50
51.0
 51
116.0
  0
LINE
  5
23B
330
1F
100
AcDbEntity
  8
0
  6
Continuous
 62
     7
370
    25
100
AcDbLine
 10
-2.3501382776
 20
-2.9234804412
 30
0.0
 11
-2.3709741564
 21
-2.9066078792
 31
0.0
  0
ARC
  5
23C
330
1F
100
AcDbEntity
  8
0
  6
Continuous
 62
     7
370
    25
100
AcDbCircle
 10
-2.3595780834
 20
-2.9351376306
 30
0.0
 40
0.0149999999999997
100
AcDbArc
 50
346.0
 51
51.0
  0
LINE
  5
23D
330
1F
100
AcDbEntity
  8
0
  6
Continuous
 62
     7
370
    25
100
AcDbLine
 10
-2.3450236475
 20
-2.938766459
 30
0.0
 11
-2.3583077799
 21
-2.992046204
 31
0.0
  0
ARC
  5
23E
330
1F
100
AcDbEntity
  8
0
  6
Continuous
 62
     7
370
    25
100
AcDbCircle
 10
0.0
 20
0.0
 30
0.0
 40
3.809718634205489
100
AcDbArc
 50
231.7550934315
 51
233.2449065685
  0
LINE
  5
23F
330
1F
100
AcDbEntity
  8
0
  6
Continuous
 62
     7
370
    25
100
AcDbLine
 10
-2.231693639
 20
-3.0257276331
 30
0.0
 11
-2.2797197342
 21
-3.0523489324
 31
0.0
  0
ARC
  5
240
330
1F
100
AcDbEntity
  8
0
  6
Continuous
 62
     7
370
    25
100
AcDbCircle
 10
-2.2244214947
 20
-3.0388469287
 30
0.0
 40
0.0149999999999995
100
AcDbArc
 50
54.0
 51
119.0
  0
LINE
  5
241
330
1F
100
AcDbEntity
  8
0
  6
Continuous
 62
     7
370
    25
100
AcDbLine
 10
-2.1939143503
 20
-3.0424706469
 30
0.0
 11
-2.2156047159
 21
-3.0267116738
 31
0.0
  0
ARC
  5
242
330
1F
100
AcDbEntity
  8
0
  6
Continuous
 62
     7
370
    25
100
AcDbCircle
 10
-2.2027311291
 20
-3.0546059018
 30
0.0
 40
0.0149999999999996
100
AcDbArc
 50
349.0
 51
54.0
  0
LINE
  5
243
330
1F
100
AcDbEntity
  8
0
  6
Continuous
 62
     7
370
    25
100
AcDbLine
 10
-2.1880067213
 20
-3.0574680368
 30
0.0
 11
-2.1984842019
 21
-3.1113700014
 31
0.0
  0
ARC
  5
244
330
1F
100
AcDbEntity
  8
0
  6
Continuous
 62
     7
370
    25
100
AcDbCircle
 10
0.0
 20
0.0
 30
0.0
 40
3.809718634205489
100
AcDbArc
 50
234.7550934315
 51
236.2449065685
  0
LINE
  5
245
330
1F
100
AcDbEntity
  8
0
  6
Continuous
 62
     7
370
    25
100
AcDbLine
 10
-2.0702808314
 20
-3.1383787992
 30
0.0
 11
-2.1168478574
 21
-3.1674771065
 31
0.0
  0
ARC
  5
246
330
1F
100
AcDbEntity
  8
0
  6
Continuous
 62
     7
370
    25
100
AcDbCircle
 10
-2.0623320425
 20
-3.1510995207
 30
0.0
 40
0.0149999999999998
100
AcDbArc
 50
57.0
 51
122.0
  0
LINE
  5
247
330
1F
100
AcDbEntity
  8
0
  6
Continuous
 62
     7
370
    25
100
AcDbLine
 10
-2.0316770563
 20
-3.1531216521
 30
0.0
 11
-2.054162457
 21
-3.1385194621
 31
0.0
  0
ARC
  5
248
330
1F
100
AcDbEntity
  8
0
  6
Continuous
 62
     7
370
    25
100
AcDbCircle
 10
-2.0398466418
 20
-3.1657017106
 30
0.0
 40
0.0149999999999997
100
AcDbArc
 50
352.0
 51
57.0
  0
LINE
  5
249
330
1F
100
AcDbEntity
  8
0
  6
Continuous
 62
     7
370
    25
100
AcDbLine
 10
-2.0249926208
 20
-3.1677893071
 30
0.0
 11
-2.0326347314
 21
-3.22216575
 31
0.0
  0
ARC
  5
24A
330
1F
100
AcDbEntity
  8
0
  6
Continuous
 62
     7
370
    25
100
AcDbCircle
 10
0.0
 20
0.0
 30
0.0
 40
3.809718634205489
100
AcDbArc
 50
237.7550934315
 51
239.2449065685
  0
LINE
  5
24B
330
1F
100
AcDbEntity
  8
0
  6
Continuous
 62
     7
370
    25
100
AcDbLine
 10
-1.903193528
 20
-3.2424278871
 30
0.0
 11
-1.9481738477
 21
-3.2739234461
 31
0.0
  0
ARC
  5
24C
330
1F
100
AcDbEntity
  8
0
  6
Continuous
 62
     7
370
    25
100
AcDbCircle
 10
-1.8945898815
 20
-3.2547151678
 30
0.0
 40
0.0149999999999997
100
AcDbArc
 50
60.0
 51
125.0
  0
LINE
  5
24D
330
1F
100
AcDbEntity
  8
0
  6
Continuous
 62
     7
370
    25
100
AcDbLine
 10
-1.8638710767
 20
-3.2551301699
 30
0.0
 11
-1.8870898815
 21
-3.2417247868
 31
0.0
  0
ARC
  5
24E
330
1F
100
AcDbEntity
  8
0
  6
Continuous
 62
     7
370
    25
100
AcDbCircle
 10
-1.8713710767
 20
-3.268120551
 30
0.0
 40
0.0149999999999997
100
AcDbArc
 50
355.0
 51
60.0
  0
LINE
  5
24F
330
1F
100
AcDbEntity
  8
0
  6
Continuous
 62
     7
370
    25
100
AcDbLine
 10
-1.8564281562
 20
-3.2694278871
 30
0.0
 11
-1.8612139505
 21
-3.3241297662
 31
0.0
  0
ARC
  5
250
330
1F
100
AcDbEntity
  8
0
  6
Continuous
 62
     7
370
    25
100
AcDbCircle
 10
0.0
 20
0.0
 30
0.0
 40
3.809718634205489
100
AcDbArc
 50
240.7550934315
 51
242.2449065685
  0
LINE
  5
251
330
1F
100
AcDbEntity
  8
0
  6
Continuous
 62
     7
370
    25
100
AcDbLine
 10
-1.7308897034
 20
-3.3375897056
 30
0.0
 11
-1.774160029
 21
-3.371396189
 31
0.0
  0
ARC
  5
252
330
1F
100
AcDbEntity
  8
0
  6
Continuous
 62
     7
370
    25
100
AcDbCircle
 10
-1.7216547813
 20
-3.3494098669
 30
0.0
 40
0.0149999999999993
100
AcDbArc
 50
63.0
 51
128.0
  0
LINE
  5
253
330
1F
100
AcDbEntity
  8
0
  6
Continuous
 62
     7
370
    25
100
AcDbLine
 10
-1.690956356
 20
-3.3482166023
 30
0.0
 11
-1.7148449238
 21
-3.3360447691
 31
0.0
  0
ARC
  5
254
330
1F
100
AcDbEntity
  8
0
  6
Continuous
 62
     7
370
    25
100
AcDbCircle
 10
-1.6977662135
 20
-3.3615817002
 30
0.0
 40
0.0150000000000002
100
AcDbArc
 50
358.0
 51
63.0
  0
LINE
  5
255
330
1F
100
AcDbEntity
  8
0
  6
Continuous
 62
     7
370
    25
100
AcDbLine
 10
-1.6827753511
 20
-3.3621051926
 30
0.0
 11
-1.6846917115
 21
-3.4169825737
 31
0.0
  0
ARC
  5
256
330
1F
100
AcDbEntity
  8
0
  6
Continuous
 62
     7
370
    25
100
AcDbCircle
 10
0.0
 20
0.0
 30
0.0
 40
3.809718634205489
100
AcDbArc
 50
243.7550934315
 51
245.2449065685
  0
LINE
  5
257
330
1F
100
AcDbEntity
  8
0
  6
Continuous
 62
     7
370
    25
100
AcDbLine
 10
-1.5538416304
 20
-3.4236034227
 30
0.0
 11
-1.5952833609
 21
-3.4596281694
 31
0.0
  0
ARC
  5
258
330
1F
100
AcDbEntity
  8
0
  6
Continuous
 62
     7
370
    25
100
AcDbCircle
 10
-1.544000745
 20
-3.4349240664
 30
0.0
 40
0.0149999999999992
100
AcDbArc
 50
66.0
 51
131.0
  0
LINE
  5
259
330
1F
100
AcDbEntity
  8
0
  6
Continuous
 62
     7
370
    25
100
AcDbLine
 10
-1.5134068415
 20
-3.4321258057
 30
0.0
 11
-1.5378996953
 21
-3.4212208845
 31
0.0
  0
ARC
  5
25A
330
1F
100
AcDbEntity
  8
0
  6
Continuous
 62
     7
370
    25
100
AcDbCircle
 10
-1.5195078911
 20
-3.4458289875
 30
0.0
 40
0.0149999999999999
100
AcDbArc
 50
1.0
 51
66.0
  0
LINE
  5
25B
330
1F
100
AcDbEntity
  8
0
  6
Continuous
 62
     7
370
    25
100
AcDbLine
 10
-1.5045101757
 20
-3.4455672014
 30
0.0
 11
-1.5035518496
 21
-3.5004696696
 31
0.0
  0
ARC
  5
25C
330
1F
100
AcDbEntity
  8
0
  6
Continuous
 62
     7
370
    25
100
AcDbCircle
 10
0.0
 20
0.0
 30
0.0
 40
3.809718634205489
100
AcDbArc
 50
246.7550934315
 51
248.2449065685
  0
LINE
  5
25D
330
1F
100
AcDbEntity
  8
0
  6
Continuous
 62
     7
370
    25
100
AcDbLine
 10
-1.3725345856
 20
-3.5002332808
 30
0.0
 11
-1.412034132
 21
-3.5383775494
 31
0.0
  0
ARC
  5
25E
330
1F
100
AcDbEntity
  8
0
  6
Continuous
 62
     7
370
    25
100
AcDbCircle
 10
-1.36211471
 20
-3.5110233778
 30
0.0
 40
0.0149999999999997
100
AcDbArc
 50
69.0
 51
134.0
  0
LINE
  5
25F
330
1F
100
AcDbEntity
  8
0
  6
Continuous
 62
     7
370
    25
100
AcDbLine
 10
-1.331709184
 20
-3.5066277908
 30
0.0
 11
-1.3567391908
 21
-3.4970196714
 31
0.0
  0
ARC
  5
260
330
1F
100
AcDbEntity
  8
0
  6
Continuous
 62
     7
370
    25
100
AcDbCircle
 10
-1.3370847033
 20
-3.5206314972
 30
0.0
 40
0.0149999999999995
100
AcDbArc
 50
4.0
 51
69.0
  0
LINE
  5
261
330
1F
100
AcDbEntity
  8
0
  6
Continuous
 62
     7
370
    25
100
AcDbLine
 10
-1.3221212425
 20
-3.5195851501
 30
0.0
 11
-1.3182908566
 21
-3.5743622213
 31
0.0
  0
ARC
  5
262
330
1F
100
AcDbEntity
  8
0
  6
Continuous
 62
     7
370
    25
100
AcDbCircle
 10
0.0
 20
0.0
 30
0.0
 40
3.809718634205489
100
AcDbArc
 50
249.7550934315
 51
251.2449065685
  0
LINE
  5
263
330
1F
100
AcDbEntity
  8
0
  6
Continuous
 62
     7
370
    25
100
AcDbLine
 10
-1.1874655188
 20
-3.5672692427
 30
0.0
 11
-1.2249146157
 21
-3.6074284825
 31
0.0
  0
ARC
  5
264
330
1F
100
AcDbEntity
  8
0
  6
Continuous
 62
     7
370
    25
100
AcDbCircle
 10
-1.1764952133
 20
-3.5774992181
 30
0.0
 40
0.0149999999999991
100
AcDbArc
 50
72.0
 51
137.0
  0
LINE
  5
265
330
1F
100
AcDbEntity
  8
0
  6
Continuous
 62
     7
370
    25
100
AcDbLine
 10
-1.1463614043
 20
-3.5715183528
 30
0.0
 11
-1.1718599583
 21
-3.5632333704
 31
0.0
  0
ARC
  5
266
330
1F
100
AcDbEntity
  8
0
  6
Continuous
 62
     7
370
    25
100
AcDbCircle
 10
-1.1509966592
 20
-3.5857842006
 30
0.0
 40
0.0149999999999996
100
AcDbArc
 50
7.0
 51
72.0
  0
LINE
  5
267
330
1F
100
AcDbEntity
  8
0
  6
Continuous
 62
     7
370
    25
100
AcDbLine
 10
-1.1361084669
 20
-3.5839561604
 30
0.0
 11
-1.1294165199
 21
-3.6384576947
 31
0.0
  0
ARC
  5
268
330
1F
100
AcDbEntity
  8
0
  6
Continuous
 62
     7
370
    25
100
AcDbCircle
 10
0.0
 20
0.0
 30
0.0
 40
3.809718634205489
100
AcDbArc
 50
252.7550934315
 51
254.2449065685
  0
LINE
  5
269
330
1F
100
AcDbEntity
  8
0
  6
Continuous
 62
     7
370
    25
100
AcDbLine
 10
-0.9991416916
 20
-3.6245275676
 30
0.0
 11
-1.0344376936
 21
-3.6665917048
 31
0.0
  0
ARC
  5
26A
330
1F
100
AcDbEntity
  8
0
  6
Continuous
 62
     7
370
    25
100
AcDbCircle
 10
-0.9876510249
 20
-3.6341693818
 30
0.0
 40
0.0149999999999995
100
AcDbArc
 50
75.0
 51
140.0
  0
LINE
  5
26B
330
1F
100
AcDbEntity
  8
0
  6
Continuous
 62
     7
370
    25
100
AcDbLine
 10
-0.9578715276
 20
-3.6266196313
 30
0.0
 11
-0.9837687392
 21
-3.6196804944
 31
0.0
  0
ARC
  5
26C
330
1F
100
AcDbEntity
  8
0
  6
Continuous
 62
     7
370
    25
100
AcDbCircle
 10
-0.9617538132
 20
-3.6411085187
 30
0.0
 40
0.0149999999999996
100
AcDbArc
 50
10.0
 51
75.0
  0
LINE
  5
26D
330
1F
100
AcDbEntity
  8
0
  6
Continuous
 62
     7
370
    25
100
AcDbLine
 10
-0.9469816969
 20
-3.6385037961
 30
0.0
 11
-0.9374465312
 21
-3.6925804085
 31
0.0
  0
ARC
  5
26E
330
1F
100
AcDbEntity
  8
0
  6
Continuous
 62
     7
370
    25
100
AcDbCircle
 10
0.0
 20
0.0
 30
0.0
 40
3.80971863420549
100
AcDbArc
 50
255.7550934315
 51
257.2449065685
  0
LINE
  5
26F
330
1F
100
AcDbEntity
  8
0
  6
Continuous
 62
     7
370
    25
100
AcDbLine
 10
-0.8080792864
 20
-3.6718513144
 30
0.0
 11
-0.8411254496
 21
-3.7157050542
 31
0.0
  0
ARC
  5
270
330
1F
100
AcDbEntity
  8
0
  6
Continuous
 62
     7
370
    25
100
AcDbCircle
 10
-0.7960997538
 20
-3.6808785398
 30
0.0
 40
0.0149999999999998
100
AcDbArc
 50
78.0
 51
143.0
  0
LINE
  5
271
330
1F
100
AcDbEntity
  8
0
  6
Continuous
 62
     7
370
    25
100
AcDbLine
 10
-0.7667561916
 20
-3.6717805975
 30
0.0
 11
-0.7929810784
 21
-3.6662063258
 31
0.0
  0
ARC
  5
272
330
1F
100
AcDbEntity
  8
0
  6
Continuous
 62
     7
370
    25
100
AcDbCircle
 10
-0.769874867
 20
-3.6864528115
 30
0.0
 40
0.0149999999999998
100
AcDbArc
 50
13.0
 51
78.0
  0
LINE
  5
273
330
1F
100
AcDbEntity
  8
0
  6
Continuous
 62
     7
370
    25
100
AcDbLine
 10
-0.755259316
 20
-3.6830785457
 30
0.0
 11
-0.7429070666
 21
-3.736582016
 31
0.0
  0
ARC
  5
274
330
1F
100
AcDbEntity
  8
0
  6
Continuous
 62
     7
370
    25
100
AcDbCircle
 10
0.0
 20
0.0
 30
0.0
 40
3.80971863420549
100
AcDbArc
 50
258.7550934315
 51
260.2449065685
  0
LINE
  5
275
330
1F
100
AcDbEntity
  8
0
  6
Continuous
 62
     7
370
    25
100
AcDbLine
 10
-0.6148019921
 20
-3.709110772
 30
0.0
 11
-0.6455077393
 21
-3.7546339143
 31
0.0
  0
ARC
  5
276
330
1F
100
AcDbEntity
  8
0
  6
Continuous
 62
     7
370
    25
100
AcDbCircle
 10
-0.6023664285
 20
-3.7174986655
 30
0.0
 40
0.0149999999999998
100
AcDbArc
 50
81.0
 51
146.0
  0
LINE
  5
277
330
1F
100
AcDbEntity
  8
0
  6
Continuous
 62
     7
370
    25
100
AcDbLine
 10
-0.5735392302
 20
-3.7068774683
 30
0.0
 11
-0.6000199116
 21
-3.7026833404
 31
0.0
  0
ARC
  5
278
330
1F
100
AcDbEntity
  8
0
  6
Continuous
 62
     7
370
    25
100
AcDbCircle
 10
-0.5758857472
 20
-3.7216927934
 30
0.0
 40
0.0149999999999997
100
AcDbArc
 50
16.0
 51
81.0
  0
LINE
  5
279
330
1F
100
AcDbEntity
  8
0
  6
Continuous
 62
     7
370
    25
100
AcDbLine
 10
-0.5614668217
 20
-3.7175582331
 30
0.0
 11
-0.5463313454
 21
-3.7703419119
 31
0.0
  0
ARC
  5
27A
330
1F
100
AcDbEntity
  8
0
  6
Continuous
 62
     7
370
    25
100
AcDbCircle
 10
0.0
 20
0.0
 30
0.0
 40
3.809718634205489
100
AcDbArc
 50
261.7550934315
 51
263.2449065685
  0
LINE
  5
27B
330
1F
100
AcDbEntity
  8
0
  6
Continuous
 62
     7
370
    25
100
AcDbLine
 10
-0.4198395683
 20
-3.7362038147
 30
0.0
 11
-0.4481207371
 21
-3.7832715838
 31
0.0
  0
ARC
  5
27C
330
1F
100
AcDbEntity
  8
0
  6
Continuous
 62
     7
370
    25
100
AcDbCircle
 10
-0.4069820588
 20
-3.7439293859
 30
0.0
 40
0.0149999999999998
100
AcDbArc
 50
84.0
 51
149.0
  0
LINE
  5
27D
330
1F
100
AcDbEntity
  8
0
  6
Continuous
 62
     7
370
    25
100
AcDbLine
 10
-0.3787502376
 20
-3.7318140456
 30
0.0
 11
-0.4054141318
 21
-3.7290115574
 31
0.0
  0
ARC
  5
27E
330
1F
100
AcDbEntity
  8
0
  6
Continuous
 62
     7
370
    25
100
AcDbCircle
 10
-0.3803181646
 20
-3.7467318741
 30
0.0
 40
0.0149999999999995
100
AcDbArc
 50
19.0
 51
84.0
  0
LINE
  5
27F
330
1F
100
AcDbEntity
  8
0
  6
Continuous
 62
     7
370
    25
100
AcDbLine
 10
-0.3661353859
 20
-3.7418483518
 30
0.0
 11
-0.3482581679
 21
-3.7937675628
 31
0.0
  0
ARC
  5
280
330
1F
100
AcDbEntity
  8
0
  6
Continuous
 62
     7
370
    25
100
AcDbCircle
 10
0.0
 20
0.0
 30
0.0
 40
3.809718634205489
100
AcDbArc
 50
264.7550934315
 51
266.2449065685
  0
LINE
  5
281
330
1F
100
AcDbEntity
  8
0
  6
Continuous
 62
     7
370
    25
100
AcDbLine
 10
-0.2237263934
 20
-3.7530561825
 30
0.0
 11
-0.2495054672
 21
-3.8015395689
 31
0.0
  0
ARC
  5
282
330
1F
100
AcDbEntity
  8
0
  6
Continuous
 62
     7
370
    25
100
AcDbCircle
 10
-0.2104821795
 20
-3.760098256
 30
0.0
 40
0.0149999999999994
100
AcDbArc
 50
87.0
 51
152.0
  0
LINE
  5
283
330
1F
100
AcDbEntity
  8
0
  6
Continuous
 62
     7
370
    25
100
AcDbLine
 10
-0.182923117
 20
-3.7465219801
 30
0.0
 11
-0.2096971402
 21
-3.745118813
 31
0.0
  0
ARC
  5
284
330
1F
100
AcDbEntity
  8
0
  6
Continuous
 62
     7
370
    25
100
AcDbCircle
 10
-0.1837081563
 20
-3.7615014231
 30
0.0
 40
0.0149999999999996
100
AcDbArc
 50
22.0
 51
87.0
  0
LINE
  5
285
330
1F
100
AcDbEntity
  8
0
  6
Continuous
 62
     7
370
    25
100
AcDbLine
 10
-0.1698003985
 20
-3.7558823242
 30
0.0
 11
-0.1492304391
 21
-3.8067947604
 31
0.0
  0
ARC
  5
286
330
1F
100
AcDbEntity
  8
0
  6
Continuous
 62
     7
370
    25
100
AcDbCircle
 10
0.0
 20
0.0
 30
0.0
 40
3.809718634205489
100
AcDbArc
 50
267.7550934315
 51
269.2449065685
  0
LINE
  5
287
330
1F
100
AcDbEntity
  8
0
  6
Continuous
 62
     7
370
    25
100
AcDbLine
 10
-0.027
 20
-3.7596216842
 30
0.0
 11
-0.0502063201
 21
-3.8093877982
 31
0.0
  0
ARC
  5
288
330
1F
100
AcDbEntity
  8
0
  6
Continuous
 62
     7
370
    25
100
AcDbCircle
 10
-0.0134053832
 20
-3.7659609581
 30
0.0
 40
0.0149999999999995
100
AcDbArc
 50
90.0
 51
155.0
  0
LINE
  5
289
330
1F
100
AcDbEntity
  8
0
  6
Continuous
 62
     7
370
    25
100
AcDbLine
 10
0.0134053832
 20
-3.7509609581
 30
0.0
 11
-0.0134053832
 21
-3.7509609581
 31
0.0
  0
ARC
  5
28A
330
1F
100
AcDbEntity
  8
0
  6
Continuous
 62
     7
370
    25
100
AcDbCircle
 10
0.0134053832
 20
-3.7659609581
 30
0.0
 40
0.0149999999999996
100
AcDbArc
 50
25.0
 51
90.0
  0
LINE
  5
28B
330
1F
100
AcDbEntity
  8
0
  6
Continuous
 62
     7
370
    25
100
AcDbLine
 10
0.027
 20
-3.7596216842
 30
0.0
 11
0.0502063201
 21
-3.8093877982
 31
0.0
  0
ARC
  5
28C
330
1F
100
AcDbEntity
  8
0
  6
Continuous
 62
     7
370
    25
100
AcDbCircle
 10
0.0
 20
0.0
 30
0.0
 40
3.809718634205489
100
AcDbArc
 50
270.7550934315
 51
272.2449065685
  0
LINE
  5
28D
330
1F
100
AcDbEntity
  8
0
  6
Continuous
 62
     7
370
    25
100
AcDbLine
 10
0.1698003985
 20
-3.7558823242
 30
0.0
 11
0.1492304391
 21
-3.8067947604
 31
0.0
  0
ARC
  5
28E
330
1F
100
AcDbEntity
  8
0
  6
Continuous
 62
     7
370
    25
100
AcDbCircle
 10
0.1837081563
 20
-3.7615014231
 30
0.0
 40
0.0149999999999997
100
AcDbArc
 50
93.0
 51
158.0
  0
LINE
  5
28F
330
1F
100
AcDbEntity
  8
0
  6
Continuous
 62
     7
370
    25
100
AcDbLine
 10
0.2096971402
 20
-3.745118813
 30
0.0
 11
0.182923117
 21
-3.7465219801
 31
0.0
  0
ARC
  5
290
330
1F
100
AcDbEntity
  8
0
  6
Continuous
 62
     7
370
    25
100
AcDbCircle
 10
0.2104821795
 20
-3.760098256
 30
0.0
 40
0.0149999999999997
100
AcDbArc
 50
28.0
 51
93.0
  0
LINE
  5
291
330
1F
100
AcDbEntity
  8
0
  6
Continuous
 62
     7
370
    25
100
AcDbLine
 10
0.2237263934
 20
-3.7530561825
 30
0.0
 11
0.2495054672
 21
-3.8015395689
 31
0.0
  0
ARC
  5
292
330
1F
100
AcDbEntity
  8
0
  6
Continuous
 62
     7
370
    25
100
AcDbCircle
 10
0.0
 20
0.0
 30
0.0
 40
3.809718634205489
100
AcDbArc
 50
273.7550934315
 51
275.2449065685
  0
LINE
  5
293
330
1F
100
AcDbEntity
  8
0
  6
Continuous
 62
     7
370
    25
100
AcDbLine
 10
0.3661353859
 20
-3.7418483518
 30
0.0
 11
0.3482581679
 21
-3.7937675628
 31
0.0
  0
ARC
  5
294
330
1F
100
AcDbEntity
  8
0
  6
Continuous
 62
     7
370
    25
100
AcDbCircle
 10
0.3803181646
 20
-3.7467318741
 30
0.0
 40
0.0149999999999996
100
AcDbArc
 50
96.0
 51
161.0
  0
LINE
  5
295
330
1F
100
AcDbEntity
  8
0
  6
Continuous
 62
     7
370
    25
100
AcDbLine
 10
0.4054141318
 20
-3.7290115574
 30
0.0
 11
0.3787502376
 21
-3.7318140456
 31
0.0
  0
ARC
  5
296
330
1F
100
AcDbEntity
  8
0
  6
Continuous
 62
     7
370
    25
100
AcDbCircle
 10
0.4069820588
 20
-3.7439293859
 30
0.0
 40
0.0149999999999997
100
AcDbArc
 50
31.0
 51
96.0
  0
LINE
  5
297
330
1F
100
AcDbEntity
  8
0
  6
Continuous
 62
     7
370
    25
100
AcDbLine
 10
0.4198395683
 20
-3.7362038147
 30
0.0
 11
0.4481207371
 21
-3.7832715838
 31
0.0
  0
ARC
  5
298
330
1F
100
AcDbEntity
  8
0
  6
Continuous
 62
     7
370
    25
100
AcDbCircle
 10
0.0
 20
0.0
 30
0.0
 40
3.80971863420549
100
AcDbArc
 50
276.7550934315
 51
278.2449065685
  0
LINE
  5
299
330
1F
100
AcDbEntity
  8
0
  6
Continuous
 62
     7
370
    25
100
AcDbLine
 10
0.5614668217
 20
-3.7175582331
 30
0.0
 11
0.5463313454
 21
-3.7703419119
 31
0.0
  0
ARC
  5
29A
330
1F
100
AcDbEntity
  8
0
  6
Continuous
 62
     7
370
    25
100
AcDbCircle
 10
0.5758857472
 20
-3.7216927934
 30
0.0
 40
0.0149999999999996
100
AcDbArc
 50
99.0
 51
164.0
  0
LINE
  5
29B
330
1F
100
AcDbEntity
  8
0
  6
Continuous
 62
     7
370
    25
100
AcDbLine
 10
0.6000199116
 20
-3.7026833404
 30
0.0
 11
0.5735392302
 21
-3.7068774683
 31
0.0
  0
ARC
  5
29C
330
1F
100
AcDbEntity
  8
0
  6
Continuous
 62
     7
370
    25
100
AcDbCircle
 10
0.6023664285
 20
-3.7174986655
 30
0.0
 40
0.0149999999999999
100
AcDbArc
 50
34.0
 51
99.0
  0
LINE
  5
29D
330
1F
100
AcDbEntity
  8
0
  6
Continuous
 62
     7
370
    25
100
AcDbLine
 10
0.6148019921
 20
-3.709110772
 30
0.0
 11
0.6455077393
 21
-3.7546339143
 31
0.0
  0
ARC
  5
29E
330
1F
100
AcDbEntity
  8
0
  6
Continuous
 62
     7
370
    25
100
AcDbCircle
 10
0.0
 20
0.0
 30
0.0
 40
3.80971863420549
100
AcDbArc
 50
279.7550934315
 51
281.2449065685
  0
LINE
  5
29F
330
1F
100
AcDbEntity
  8
0
  6
Continuous
 62
     7
370
    25
100
AcDbLine
 10
0.755259316
 20
-3.6830785457
 30
0.0
 11
0.7429070666
 21
-3.736582016
 31
0.0
  0
ARC
  5
2A0
330
1F
100
AcDbEntity
  8
0
  6
Continuous
 62
     7
370
    25
100
AcDbCircle
 10
0.769874867
 20
-3.6864528115
 30
0.0
 40
0.0149999999999997
100
AcDbArc
 50
102.0
 51
167.0
  0
LINE
  5
2A1
330
1F
100
AcDbEntity
  8
0
  6
Continuous
 62
     7
370
    25
100
AcDbLine
 10
0.7929810784
 20
-3.6662063258
 30
0.0
 11
0.7667561916
 21
-3.6717805975
 31
0.0
  0
ARC
  5
2A2
330
1F
100
AcDbEntity
  8
0
  6
Continuous
 62
     7
370
    25
100
AcDbCircle
 10
0.7960997538
 20
-3.6808785398
 30
0.0
 40
0.015
100
AcDbArc
 50
37.0
 51
102.0
  0
LINE
  5
2A3
330
1F
100
AcDbEntity
  8
0
  6
Continuous
 62
     7
370
    25
100
AcDbLine
 10
0.8080792864
 20
-3.6718513144
 30
0.0
 11
0.8411254496
 21
-3.7157050542
 31
0.0
  0
ARC
  5
2A4
330
1F
100
AcDbEntity
  8
0
  6
Continuous
 62
     7
370
    25
100
AcDbCircle
 10
0.0
 20
0.0
 30
0.0
 40
3.809718634205489
100
AcDbArc
 50
282.7550934315
 51
284.2449065685
  0
LINE
  5
2A5
330
1F
100
AcDbEntity
  8
0
  6
Continuous
 62
     7
370
    25
100
AcDbLine
 10
0.9469816969
 20
-3.6385037961
 30
0.0
 11
0.9374465312
 21
-3.6925804085
 31
0.0
  0
ARC
  5
2A6
330
1F
100
AcDbEntity
  8
0
  6
Continuous
 62
     7
370
    25
100
AcDbCircle
 10
0.9617538132
 20
-3.6411085187
 30
0.0
 40
0.0149999999999997
100
AcDbArc
 50
105.0
 51
170.0
  0
LINE
  5
2A7
330
1F
100
AcDbEntity
  8
0
  6
Continuous
 62
     7
370
    25
100
AcDbLine
 10
0.9837687392
 20
-3.6196804944
 30
0.0
 11
0.9578715276
 21
-3.6266196313
 31
0.0
  0
ARC
  5
2A8
330
1F
100
AcDbEntity
  8
0
  6
Continuous
 62
     7
370
    25
100
AcDbCircle
 10
0.9876510249
 20
-3.6341693818
 30
0.0
 40
0.0149999999999997
100
AcDbArc
 50
40.0
 51
105.0
  0
LINE
  5
2A9
330
1F
100
AcDbEntity
  8
0
  6
Continuous
 62
     7
370
    25
100
AcDbLine
 10
0.9991416916
 20
-3.6245275676
 30
0.0
 11
1.0344376936
 21
-3.6665917048
 31
0.0
  0
ARC
  5
2AA
330
1F
100
AcDbEntity
  8
0
  6
Continuous
 62
     7
370
    25
100
AcDbCircle
 10
0.0
 20
0.0
 30
0.0
 40
3.809718634205489
100
AcDbArc
 50
285.7550934315
 51
287.2449065685
  0
LINE
  5
2AB
330
1F
100
AcDbEntity
  8
0
  6
Continuous
 62
     7
370
    25
100
AcDbLine
 10
1.1361084669
 20
-3.5839561604
 30
0.0
 11
1.1294165199
 21
-3.6384576947
 31
0.0
  0
ARC
  5
2AC
330
1F
100
AcDbEntity
  8
0
  6
Continuous
 62
     7
370
    25
100
AcDbCircle
 10
1.1509966592
 20
-3.5857842006
 30
0.0
 40
0.0149999999999999
100
AcDbArc
 50
108.0
 51
173.0
  0
LINE
  5
2AD
330
1F
100
AcDbEntity
  8
0
  6
Continuous
 62
     7
370
    25
100
AcDbLine
 10
1.1718599583
 20
-3.5632333704
 30
0.0
 11
1.1463614043
 21
-3.5715183528
 31
0.0
  0
ARC
  5
2AE
330
1F
100
AcDbEntity
  8
0
  6
Continuous
 62
     7
370
    25
100
AcDbCircle
 10
1.1764952133
 20
-3.5774992181
 30
0.0
 40
0.0149999999999998
100
AcDbArc
 50
43.0
 51
108.0
  0
LINE
  5
2AF
330
1F
100
AcDbEntity
  8
0
  6
Continuous
 62
     7
370
    25
100
AcDbLine
 10
1.1874655188
 20
-3.5672692427
 30
0.0
 11
1.2249146157
 21
-3.6074284825
 31
0.0
  0
ARC
  5
2B0
330
1F
100
AcDbEntity
  8
0
  6
Continuous
 62
     7
370
    25
100
AcDbCircle
 10
0.0
 20
0.0
 30
0.0
 40
3.809718634205489
100
AcDbArc
 50
288.7550934315
 51
290.2449065685
  0
LINE
  5
2B1
330
1F
100
AcDbEntity
  8
0
  6
Continuous
 62
     7
370
    25
100
AcDbLine
 10
1.3221212425
 20
-3.5195851501
 30
0.0
 11
1.3182908566
 21
-3.5743622213
 31
0.0
  0
ARC
  5
2B2
330
1F
100
AcDbEntity
  8
0
  6
Continuous
 62
     7
370
    25
100
AcDbCircle
 10
1.3370847033
 20
-3.5206314972
 30
0.0
 40
0.0149999999999999
100
AcDbArc
 50
111.0
 51
176.0
  0
LINE
  5
2B3
330
1F
100
AcDbEntity
  8
0
  6
Continuous
 62
     7
370
    25
100
AcDbLine
 10
1.3567391908
 20
-3.4970196714
 30
0.0
 11
1.331709184
 21
-3.5066277908
 31
0.0
  0
ARC
  5
2B4
330
1F
100
AcDbEntity
  8
0
  6
Continuous
 62
     7
370
    25
100
AcDbCircle
 10
1.36211471
 20
-3.5110233778
 30
0.0
 40
0.0149999999999997
100
AcDbArc
 50
46.0
 51
111.0
  0
LINE
  5
2B5
330
1F
100
AcDbEntity
  8
0
  6
Continuous
 62
     7
370
    25
100
AcDbLine
 10
1.3725345856
 20
-3.5002332808
 30
0.0
 11
1.412034132
 21
-3.5383775494
 31
0.0
  0
ARC
  5
2B6
330
1F
100
AcDbEntity
  8
0
  6
Continuous
 62
     7
370
    25
100
AcDbCircle
 10
0.0
 20
0.0
 30
0.0
 40
3.809718634205489
100
AcDbArc
 50
291.7550934315
 51
293.2449065685
  0
LINE
  5
2B7
330
1F
100
AcDbEntity
  8
0
  6
Continuous
 62
     7
370
    25
100
AcDbLine
 10
1.5045101757
 20
-3.4455672014
 30
0.0
 11
1.5035518496
 21
-3.5004696696
 31
0.0
  0
ARC
  5
2B8
330
1F
100
AcDbEntity
  8
0
  6
Continuous
 62
     7
370
    25
100
AcDbCircle
 10
1.5195078911
 20
-3.4458289875
 30
0.0
 40
0.0149999999999999
100
AcDbArc
 50
114.0
 51
179.0
  0
LINE
  5
2B9
330
1F
100
AcDbEntity
  8
0
  6
Continuous
 62
     7
370
    25
100
AcDbLine
 10
1.5378996953
 20
-3.4212208845
 30
0.0
 11
1.5134068415
 21
-3.4321258057
 31
0.0
  0
ARC
  5
2BA
330
1F
100
AcDbEntity
  8
0
  6
Continuous
 62
     7
370
    25
100
AcDbCircle
 10
1.544000745
 20
-3.4349240664
 30
0.0
 40
0.0149999999999992
100
AcDbArc
 50
49.0
 51
114.0
  0
LINE
  5
2BB
330
1F
100
AcDbEntity
  8
0
  6
Continuous
 62
     7
370
    25
100
AcDbLine
 10
1.5538416304
 20
-3.4236034227
 30
0.0
 11
1.5952833609
 21
-3.4596281694
 31
0.0
  0
ARC
  5
2BC
330
1F
100
AcDbEntity
  8
0
  6
Continuous
 62
     7
370
    25
100
AcDbCircle
 10
0.0
 20
0.0
 30
0.0
 40
3.809718634205489
100
AcDbArc
 50
294.7550934315
 51
296.2449065685
  0
LINE
  5
2BD
330
1F
100
AcDbEntity
  8
0
  6
Continuous
 62
     7
370
    25
100
AcDbLine
 10
1.6827753511
 20
-3.3621051926
 30
0.0
 11
1.6846917115
 21
-3.4169825737
 31
0.0
  0
ARC
  5
2BE
330
1F
100
AcDbEntity
  8
0
  6
Continuous
 62
     7
370
    25
100
AcDbCircle
 10
1.6977662135
 20
-3.3615817002
 30
0.0
 40
0.0149999999999997
100
AcDbArc
 50
117.0
 51
182.0
  0
LINE
  5
2BF
330
1F
100
AcDbEntity
  8
0
  6
Continuous
 62
     7
370
    25
100
AcDbLine
 10
1.7148449238
 20
-3.3360447691
 30
0.0
 11
1.690956356
 21
-3.3482166023
 31
0.0
  0
ARC
  5
2C0
330
1F
100
AcDbEntity
  8
0
  6
Continuous
 62
     7
370
    25
100
AcDbCircle
 10
1.7216547813
 20
-3.3494098669
 30
0.0
 40
0.0149999999999998
100
AcDbArc
 50
52.0
 51
117.0
  0
LINE
  5
2C1
330
1F
100
AcDbEntity
  8
0
  6
Continuous
 62
     7
370
    25
100
AcDbLine
 10
1.7308897034
 20
-3.3375897056
 30
0.0
 11
1.774160029
 21
-3.371396189
 31
0.0
  0
ARC
  5
2C2
330
1F
100
AcDbEntity
  8
0
  6
Continuous
 62
     7
370
    25
100
AcDbCircle
 10
0.0
 20
0.0
 30
0.0
 40
3.809718634205489
100
AcDbArc
 50
297.7550934315
 51
299.2449065685
  0
LINE
  5
2C3
330
1F
100
AcDbEntity
  8
0
  6
Continuous
 62
     7
370
    25
100
AcDbLine
 10
1.8564281562
 20
-3.2694278871
 30
0.0
 11
1.8612139505
 21
-3.3241297662
 31
0.0
  0
ARC
  5
2C4
330
1F
100
AcDbEntity
  8
0
  6
Continuous
 62
     7
370
    25
100
AcDbCircle
 10
1.8713710767
 20
-3.268120551
 30
0.0
 40
0.0149999999999996
100
AcDbArc
 50
120.0
 51
185.0
  0
LINE
  5
2C5
330
1F
100
AcDbEntity
  8
0
  6
Continuous
 62
     7
370
    25
100
AcDbLine
 10
1.8870898815
 20
-3.2417247868
 30
0.0
 11
1.8638710767
 21
-3.2551301699
 31
0.0
  0
ARC
  5
2C6
330
1F
100
AcDbEntity
  8
0
  6
Continuous
 62
     7
370
    25
100
AcDbCircle
 10
1.8945898815
 20
-3.2547151678
 30
0.0
 40
0.0149999999999997
100
AcDbArc
 50
55.0
 51
120.0
  0
LINE
  5
2C7
330
1F
100
AcDbEntity
  8
0
  6
Continuous
 62
     7
370
    25
100
AcDbLine
 10
1.903193528
 20
-3.2424278871
 30
0.0
 11
1.9481738477
 21
-3.2739234461
 31
0.0
  0
ARC
  5
2C8
330
1F
100
AcDbEntity
  8
0
  6
Continuous
 62
     7
370
    25
100
AcDbCircle
 10
0.0
 20
0.0
 30
0.0
 40
3.809718634205489
100
AcDbArc
 50
300.7550934315
 51
302.2449065685
  0
LINE
  5
2C9
330
1F
100
AcDbEntity
  8
0
  6
Continuous
 62
     7
370
    25
100
AcDbLine
 10
2.0249926208
 20
-3.1677893071
 30
0.0
 11
2.0326347314
 21
-3.22216575
 31
0.0
  0
ARC
  5
2CA
330
1F
100
AcDbEntity
  8
0
  6
Continuous
 62
     7
370
    25
100
AcDbCircle
 10
2.0398466418
 20
-3.1657017106
 30
0.0
 40
0.0149999999999997
100
AcDbArc
 50
123.0
 51
188.0
  0
LINE
  5
2CB
330
1F
100
AcDbEntity
  8
0
  6
Continuous
 62
     7
370
    25
100
AcDbLine
 10
2.054162457
 20
-3.1385194621
 30
0.0
 11
2.0316770563
 21
-3.1531216521
 31
0.0
  0
ARC
  5
2CC
330
1F
100
AcDbEntity
  8
0
  6
Continuous
 62
     7
370
    25
100
AcDbCircle
 10
2.0623320425
 20
-3.1510995207
 30
0.0
 40
0.0149999999999992
100
AcDbArc
 50
58.0
 51
123.0
  0
LINE
  5
2CD
330
1F
100
AcDbEntity
  8
0
  6
Continuous
 62
     7
370
    25
100
AcDbLine
 10
2.0702808314
 20
-3.1383787992
 30
0.0
 11
2.1168478574
 21
-3.1674771065
 31
0.0
  0
ARC
  5
2CE
330
1F
100
AcDbEntity
  8
0
  6
Continuous
 62
     7
370
    25
100
AcDbCircle
 10
0.0
 20
0.0
 30
0.0
 40
3.80971863420549
100
AcDbArc
 50
303.7550934315
 51
305.2449065685
  0
LINE
  5
2CF
330
1F
100
AcDbEntity
  8
0
  6
Continuous
 62
     7
370
    25
100
AcDbLine
 10
2.1880067213
 20
-3.0574680368
 30
0.0
 11
2.1984842019
 21
-3.1113700014
 31
0.0
  0
ARC
  5
2D0
330
1F
100
AcDbEntity
  8
0
  6
Continuous
 62
     7
370
    25
100
AcDbCircle
 10
2.2027311291
 20
-3.0546059018
 30
0.0
 40
0.015
100
AcDbArc
 50
126.0
 51
191.0
  0
LINE
  5
2D1
330
1F
100
AcDbEntity
  8
0
  6
Continuous
 62
     7
370
    25
100
AcDbLine
 10
2.2156047159
 20
-3.0267116738
 30
0.0
 11
2.1939143503
 21
-3.0424706469
 31
0.0
  0
ARC
  5
2D2
330
1F
100
AcDbEntity
  8
0
  6
Continuous
 62
     7
370
    25
100
AcDbCircle
 10
2.2244214947
 20
-3.0388469287
 30
0.0
 40
0.0149999999999999
100
AcDbArc
 50
61.0
 51
126.0
  0
LINE
  5
2D3
330
1F
100
AcDbEntity
  8
0
  6
Continuous
 62
     7
370
    25
100
AcDbLine
 10
2.231693639
 20
-3.0257276331
 30
0.0
 11
2.2797197342
 21
-3.0523489324
 31
0.0
  0
ARC
  5
2D4
330
1F
100
AcDbEntity
  8
0
  6
Continuous
 62
     7
370
    25
100
AcDbCircle
 10
0.0
 20
0.0
 30
0.0
 40
3.809718634205489
100
AcDbArc
 50
306.7550934315
 51
308.2449065685
  0
LINE
  5
2D5
330
1F
100
AcDbEntity
  8
0
  6
Continuous
 62
     7
370
    25
100
AcDbLine
 10
2.3450236475
 20
-2.938766459
 30
0.0
 11
2.3583077799
 21
-2.992046204
 31
0.0
  0
ARC
  5
2D6
330
1F
100
AcDbEntity
  8
0
  6
Continuous
 62
     7
370
    25
100
AcDbCircle
 10
2.3595780834
 20
-2.9351376306
 30
0.0
 40
0.0149999999999996
100
AcDbArc
 50
129.0
 51
194.0
  0
LINE
  5
2D7
330
1F
100
AcDbEntity
  8
0
  6
Continuous
 62
     7
370
    25
100
AcDbLine
 10
2.3709741564
 20
-2.9066078792
 30
0.0
 11
2.3501382776
 21
-2.9234804412
 31
0.0
  0
ARC
  5
2D8
330
1F
100
AcDbEntity
  8
0
  6
Continuous
 62
     7
370
    25
100
AcDbCircle
 10
2.3804139623
 20
-2.9182650686
 30
0.0
 40
0.0149999999999993
100
AcDbArc
 50
64.0
 51
129.0
  0
LINE
  5
2D9
330
1F
100
AcDbEntity
  8
0
  6
Continuous
 62
     7
370
    25
100
AcDbLine
 10
2.3869895295
 20
-2.9047831579
 30
0.0
 11
2.4363430577
 21
-2.928854482
 31
0.0
  0
ARC
  5
2DA
330
1F
100
AcDbEntity
  8
0
  6
Continuous
 62
     7
370
    25
100
AcDbCircle
 10
0.0
 20
0.0
 30
0.0
 40
3.809718634205489
100
AcDbArc
 50
309.7550934315
 51
311.2449065685
  0
LINE
  5
2DB
330
1F
100
AcDbEntity
  8
0
  6
Continuous
 62
     7
370
    25
100
AcDbLine
 10
2.4956130269
 20
-2.8120099267
 30
0.0
 11
2.5116674003
 21
-2.8645214159
 31
0.0
  0
ARC
  5
2DC
330
1F
100
AcDbEntity
  8
0
  6
Continuous
 62
     7
370
    25
100
AcDbCircle
 10
2.5099575983
 20
-2.8076243512
 30
0.0
 40
0.015
100
AcDbArc
 50
132.0
 51
197.0
  0
LINE
  5
2DD
330
1F
100
AcDbEntity
  8
0
  6
Continuous
 62
     7
370
    25
100
AcDbLine
 10
2.5198449215
 20
-2.7785372744
 30
0.0
 11
2.4999206392
 21
-2.7964771788
 31
0.0
  0
ARC
  5
2DE
330
1F
100
AcDbEntity
  8
0
  6
Continuous
 62
     7
370
    25
100
AcDbCircle
 10
2.5298818806
 20
-2.7896844468
 30
0.0
 40
0.0150000000000004
100
AcDbArc
 50
67.0
 51
132.0
  0
LINE
  5
2DF
330
1F
100
AcDbEntity
  8
0
  6
Continuous
 62
     7
370
    25
100
AcDbLine
 10
2.5357428475
 20
-2.775876874
 30
0.0
 11
2.5862885343
 21
-2.7973322451
 31
0.0
  0
ARC
  5
2E0
330
1F
100
AcDbEntity
  8
0
  6
Continuous
 62
     7
370
    25
100
AcDbCircle
 10
0.0
 20
0.0
 30
0.0
 40
3.809718634205489
100
AcDbArc
 50
312.7550934315
 51
314.2449065685
  0
LINE
  5
2E1
330
1F
100
AcDbEntity
  8
0
  6
Continuous
 62
     7
370
    25
100
AcDbLine
 10
2.6393621045
 20
-2.6775458707
 30
0.0
 11
2.6581427149
 21
-2.7291451737
 31
0.0
  0
ARC
  5
2E2
330
1F
100
AcDbEntity
  8
0
  6
Continuous
 62
     7
370
    25
100
AcDbCircle
 10
2.6534574938
 20
-2.6724155685
 30
0.0
 40
0.014999999999999
100
AcDbArc
 50
135.0
 51
200.0
  0
LINE
  5
2E3
330
1F
100
AcDbEntity
  8
0
  6
Continuous
 62
     7
370
    25
100
AcDbLine
 10
2.6618089668
 20
-2.6428508921
 30
0.0
 11
2.6428508921
 21
-2.6618089668
 31
0.0
  0
ARC
  5
2E4
330
1F
100
AcDbEntity
  8
0
  6
Continuous
 62
     7
370
    25
100
AcDbCircle
 10
2.6724155685
 20
-2.6534574938
 30
0.0
 40
0.0149999999999994
100
AcDbArc
 50
70.0
 51
135.0
  0
LINE
  5
2E5
330
1F
100
AcDbEntity
  8
0
  6
Continuous
 62
     7
370
    25
100
AcDbLine
 10
2.6775458707
 20
-2.6393621045
 30
0.0
 11
2.7291451737
 21
-2.6581427149
 31
0.0
  0
ARC
  5
2E6
330
1F
100
AcDbEntity
  8
0
  6
Continuous
 62
     7
370
    25
100
AcDbCircle
 10
0.0
 20
0.0
 30
0.0
 40
3.809718634205489
100
AcDbArc
 50
315.7550934315
 51
317.2449065685
  0
LINE
  5
2E7
330
1F
100
AcDbEntity
  8
0
  6
Continuous
 62
     7
370
    25
100
AcDbLine
 10
2.775876874
 20
-2.5357428475
 30
0.0
 11
2.7973322451
 21
-2.5862885343
 31
0.0
  0
ARC
  5
2E8
330
1F
100
AcDbEntity
  8
0
  6
Continuous
 62
     7
370
    25
100
AcDbCircle
 10
2.7896844468
 20
-2.5298818806
 30
0.0
 40
0.0149999999999998
100
AcDbArc
 50
138.0
 51
203.0
  0
LINE
  5
2E9
330
1F
100
AcDbEntity
  8
0
  6
Continuous
 62
     7
370
    25
100
AcDbLine
 10
2.7964771788
 20
-2.4999206392
 30
0.0
 11
2.7785372744
 21
-2.5198449215
 31
0.0
  0
ARC
  5
2EA
330
1F
100
AcDbEntity
  8
0
  6
Continuous
 62
     7
370
    25
100
AcDbCircle
 10
2.8076243512
 20
-2.5099575983
 30
0.0
 40
0.0149999999999997
100
AcDbArc
 50
73.0
 51
138.0
  0
LINE
  5
2EB
330
1F
100
AcDbEntity
  8
0
  6
Continuous
 62
     7
370
    25
100
AcDbLine
 10
2.8120099267
 20
-2.4956130269
 30
0.0
 11
2.8645214159
 21
-2.5116674003
 31
0.0
  0
ARC
  5
2EC
330
1F
100
AcDbEntity
  8
0
  6
Continuous
 62
     7
370
    25
100
AcDbCircle
 10
0.0
 20
0.0
 30
0.0
 40
3.809718634205489
100
AcDbArc
 50
318.7550934315
 51
320.2449065685
  0
LINE
  5
2ED
330
1F
100
AcDbEntity
  8
0
  6
Continuous
 62
     7
370
    25
100
AcDbLine
 10
2.9047831579
 20
-2.3869895295
 30
0.0
 11
2.928854482
 21
-2.4363430577
 31
0.0
  0
ARC
  5
2EE
330
1F
100
AcDbEntity
  8
0
  6
Continuous
 62
     7
370
    25
100
AcDbCircle
 10
2.9182650686
 20
-2.3804139623
 30
0.0
 40
0.0149999999999997
100
AcDbArc
 50
141.0
 51
206.0
  0
LINE
  5
2EF
330
1F
100
AcDbEntity
  8
0
  6
Continuous
 62
     7
370
    25
100
AcDbLine
 10
2.9234804412
 20
-2.3501382776
 30
0.0
 11
2.9066078792
 21
-2.3709741564
 31
0.0
  0
ARC
  5
2F0
330
1F
100
AcDbEntity
  8
0
  6
Continuous
 62
     7
370
    25
100
AcDbCircle
 10
2.9351376306
 20
-2.3595780834
 30
0.0
 40
0.0149999999999995
100
AcDbArc
 50
76.0
 51
141.0
  0
LINE
  5
2F1
330
1F
100
AcDbEntity
  8
0
  6
Continuous
 62
     7
370
    25
100
AcDbLine
 10
2.938766459
 20
-2.3450236475
 30
0.0
 11
2.992046204
 21
-2.3583077799
 31
0.0
  0
ARC
  5
2F2
330
1F
100
AcDbEntity
  8
0
  6
Continuous
 62
     7
370
    25
100
AcDbCircle
 10
0.0
 20
0.0
 30
0.0
 40
3.809718634205489
100
AcDbArc
 50
321.7550934315
 51
323.2449065685
  0
LINE
  5
2F3
330
1F
100
AcDbEntity
  8
0
  6
Continuous
 62
     7
370
    25
100
AcDbLine
 10
3.0257276331
 20
-2.231693639
 30
0.0
 11
3.0523489324
 21
-2.2797197342
 31
0.0
  0
ARC
  5
2F4
330
1F
100
AcDbEntity
  8
0
  6
Continuous
 62
     7
370
    25
100
AcDbCircle
 10
3.0388469287
 20
-2.2244214947
 30
0.0
 40
0.0149999999999999
100
AcDbArc
 50
144.0
 51
209.0
  0
LINE
  5
2F5
330
1F
100
AcDbEntity
  8
0
  6
Continuous
 62
     7
370
    25
100
AcDbLine
 10
3.0424706469
 20
-2.1939143503
 30
0.0
 11
3.0267116738
 21
-2.2156047159
 31
0.0
  0
ARC
  5
2F6
330
1F
100
AcDbEntity
  8
0
  6
Continuous
 62
     7
370
    25
100
AcDbCircle
 10
3.0546059018
 20
-2.2027311291
 30
0.0
 40
0.0149999999999996
100
AcDbArc
 50
79.0
 51
144.0
  0
LINE
  5
2F7
330
1F
100
AcDbEntity
  8
0
  6
Continuous
 62
     7
370
    25
100
AcDbLine
 10
3.0574680368
 20
-2.1880067213
 30
0.0
 11
3.1113700014
 21
-2.1984842019
 31
0.0
  0
ARC
  5
2F8
330
1F
100
AcDbEntity
  8
0
  6
Continuous
 62
     7
370
    25
100
AcDbCircle
 10
0.0
 20
0.0
 30
0.0
 40
3.80971863420549
100
AcDbArc
 50
324.7550934315
 51
326.2449065685
  0
LINE
  5
2F9
330
1F
100
AcDbEntity
  8
0
  6
Continuous
 62
     7
370
    25
100
AcDbLine
 10
3.1383787992
 20
-2.0702808314
 30
0.0
 11
3.1674771065
 21
-2.1168478574
 31
0.0
  0
ARC
  5
2FA
330
1F
100
AcDbEntity
  8
0
  6
Continuous
 62
     7
370
    25
100
AcDbCircle
 10
3.1510995207
 20
-2.0623320425
 30
0.0
 40
0.0149999999999996
100
AcDbArc
 50
147.0
 51
212.0
  0
LINE
  5
2FB
330
1F
100
AcDbEntity
  8
0
  6
Continuous
 62
     7
370
    25
100
AcDbLine
 10
3.1531216521
 20
-2.0316770563
 30
0.0
 11
3.1385194621
 21
-2.054162457
 31
0.0
  0
ARC
  5
2FC
330
1F
100
AcDbEntity
  8
0
  6
Continuous
 62
     7
370
    25
100
AcDbCircle
 10
3.1657017106
 20
-2.0398466418
 30
0.0
 40
0.0149999999999997
100
AcDbArc
 50
82.0
 51
147.0
  0
LINE
  5
2FD
330
1F
100
AcDbEntity
  8
0
  6
Continuous
 62
     7
370
    25
100
AcDbLine
 10
3.1677893071
 20
-2.0249926208
 30
0.0
 11
3.22216575
 21
-2.0326347314
 31
0.0
  0
ARC
  5
2FE
330
1F
100
AcDbEntity
  8
0
  6
Continuous
 62
     7
370
    25
100
AcDbCircle
 10
0.0
 20
0.0
 30
0.0
 40
3.809718634205489
100
AcDbArc
 50
327.7550934315
 51
329.2449065685
  0
LINE
  5
2FF
330
1F
100
AcDbEntity
  8
0
  6
Continuous
 62
     7
370
    25
100
AcDbLine
 10
3.2424278871
 20
-1.903193528
 30
0.0
 11
3.2739234461
 21
-1.9481738477
 31
0.0
  0
ARC
  5
300
330
1F
100
AcDbEntity
  8
0
  6
Continuous
 62
     7
370
    25
100
AcDbCircle
 10
3.2547151678
 20
-1.8945898815
 30
0.0
 40
0.015
100
AcDbArc
 50
150.0
 51
215.0
  0
LINE
  5
301
330
1F
100
AcDbEntity
  8
0
  6
Continuous
 62
     7
370
    25
100
AcDbLine
 10
3.2551301699
 20
-1.8638710767
 30
0.0
 11
3.2417247868
 21
-1.8870898815
 31
0.0
  0
ARC
  5
302
330
1F
100
AcDbEntity
  8
0
  6
Continuous
 62
     7
370
    25
100
AcDbCircle
 10
3.268120551
 20
-1.8713710767
 30
0.0
 40
0.0149999999999997
100
AcDbArc
 50
85.0
 51
150.0
  0
LINE
  5
303
330
1F
100
AcDbEntity
  8
0
  6
Continuous
 62
     7
370
    25
100
AcDbLine
 10
3.2694278871
 20
-1.8564281562
 30
0.0
 11
3.3241297662
 21
-1.8612139505
 31
0.0
  0
ARC
  5
304
330
1F
100
AcDbEntity
  8
0
  6
Continuous
 62
     7
370
    25
100
AcDbCircle
 10
0.0
 20
0.0
 30
0.0
 40
3.809718634205489
100
AcDbArc
 50
330.7550934315
 51
332.2449065685
  0
LINE
  5
305
330
1F
100
AcDbEntity
  8
0
  6
Continuous
 62
     7
370
    25
100
AcDbLine
 10
3.3375897056
 20
-1.7308897034
 30
0.0
 11
3.371396189
 21
-1.774160029
 31
0.0
  0
ARC
  5
306
330
1F
100
AcDbEntity
  8
0
  6
Continuous
 62
     7
370
    25
100
AcDbCircle
 10
3.3494098669
 20
-1.7216547813
 30
0.0
 40
0.0149999999999998
100
AcDbArc
 50
153.0
 51
218.0
  0
LINE
  5
307
330
1F
100
AcDbEntity
  8
0
  6
Continuous
 62
     7
370
    25
100
AcDbLine
 10
3.3482166023
 20
-1.690956356
 30
0.0
 11
3.3360447691
 21
-1.7148449238
 31
0.0
  0
ARC
  5
308
330
1F
100
AcDbEntity
  8
0
  6
Continuous
 62
     7
370
    25
100
AcDbCircle
 10
3.3615817002
 20
-1.6977662135
 30
0.0
 40
0.0149999999999997
100
AcDbArc
 50
88.0
 51
153.0
  0
LINE
  5
309
330
1F
100
AcDbEntity
  8
0
  6
Continuous
 62
     7
370
    25
100
AcDbLine
 10
3.3621051926
 20
-1.6827753511
 30
0.0
 11
3.4169825737
 21
-1.6846917115
 31
0.0
  0
ARC
  5
30A
330
1F
100
AcDbEntity
  8
0
  6
Continuous
 62
     7
370
    25
100
AcDbCircle
 10
0.0
 20
0.0
 30
0.0
 40
3.809718634205489
100
AcDbArc
 50
333.7550934315
 51
335.2449065685
  0
LINE
  5
30B
330
1F
100
AcDbEntity
  8
0
  6
Continuous
 62
     7
370
    25
100
AcDbLine
 10
3.4236034227
 20
-1.5538416304
 30
0.0
 11
3.4596281694
 21
-1.5952833609
 31
0.0
  0
ARC
  5
30C
330
1F
100
AcDbEntity
  8
0
  6
Continuous
 62
     7
370
    25
100
AcDbCircle
 10
3.4349240664
 20
-1.544000745
 30
0.0
 40
0.0149999999999992
100
AcDbArc
 50
156.0
 51
221.0
  0
LINE
  5
30D
330
1F
100
AcDbEntity
  8
0
  6
Continuous
 62
     7
370
    25
100
AcDbLine
 10
3.4321258057
 20
-1.5134068415
 30
0.0
 11
3.4212208845
 21
-1.5378996953
 31
0.0
  0
ARC
  5
30E
330
1F
100
AcDbEntity
  8
0
  6
Continuous
 62
     7
370
    25
100
AcDbCircle
 10
3.4458289875
 20
-1.5195078911
 30
0.0
 40
0.0149999999999999
100
AcDbArc
 50
91.0
 51
156.0
  0
LINE
  5
30F
330
1F
100
AcDbEntity
  8
0
  6
Continuous
 62
     7
370
    25
100
AcDbLine
 10
3.4455672014
 20
-1.5045101757
 30
0.0
 11
3.5004696696
 21
-1.5035518496
 31
0.0
  0
ARC
  5
310
330
1F
100
AcDbEntity
  8
0
  6
Continuous
 62
     7
370
    25
100
AcDbCircle
 10
0.0
 20
0.0
 30
0.0
 40
3.809718634205489
100
AcDbArc
 50
336.7550934315
 51
338.2449065685
  0
LINE
  5
311
330
1F
100
AcDbEntity
  8
0
  6
Continuous
 62
     7
370
    25
100
AcDbLine
 10
3.5002332808
 20
-1.3725345856
 30
0.0
 11
3.5383775494
 21
-1.412034132
 31
0.0
  0
ARC
  5
312
330
1F
100
AcDbEntity
  8
0
  6
Continuous
 62
     7
370
    25
100
AcDbCircle
 10
3.5110233778
 20
-1.36211471
 30
0.0
 40
0.0149999999999991
100
AcDbArc
 50
159.0
 51
224.0
  0
LINE
  5
313
330
1F
100
AcDbEntity
  8
0
  6
Continuous
 62
     7
370
    25
100
AcDbLine
 10
3.5066277908
 20
-1.331709184
 30
0.0
 11
3.4970196714
 21
-1.3567391908
 31
0.0
  0
ARC
  5
314
330
1F
100
AcDbEntity
  8
0
  6
Continuous
 62
     7
370
    25
100
AcDbCircle
 10
3.5206314972
 20
-1.3370847033
 30
0.0
 40
0.0149999999999999
100
AcDbArc
 50
94.0
 51
159.0
  0
LINE
  5
315
330
1F
100
AcDbEntity
  8
0
  6
Continuous
 62
     7
370
    25
100
AcDbLine
 10
3.5195851501
 20
-1.3221212425
 30
0.0
 11
3.5743622213
 21
-1.3182908566
 31
0.0
  0
ARC
  5
316
330
1F
100
AcDbEntity
  8
0
  6
Continuous
 62
     7
370
    25
100
AcDbCircle
 10
0.0
 20
0.0
 30
0.0
 40
3.809718634205489
100
AcDbArc
 50
339.7550934315
 51
341.2449065685
  0
LINE
  5
317
330
1F
100
AcDbEntity
  8
0
  6
Continuous
 62
     7
370
    25
100
AcDbLine
 10
3.5672692427
 20
-1.1874655188
 30
0.0
 11
3.6074284825
 21
-1.2249146157
 31
0.0
  0
ARC
  5
318
330
1F
100
AcDbEntity
  8
0
  6
Continuous
 62
     7
370
    25
100
AcDbCircle
 10
3.5774992181
 20
-1.1764952133
 30
0.0
 40
0.0149999999999997
100
AcDbArc
 50
162.0
 51
227.0
  0
LINE
  5
319
330
1F
100
AcDbEntity
  8
0
  6
Continuous
 62
     7
370
    25
100
AcDbLine
 10
3.5715183528
 20
-1.1463614043
 30
0.0
 11
3.5632333704
 21
-1.1718599583
 31
0.0
  0
ARC
  5
31A
330
1F
100
AcDbEntity
  8
0
  6
Continuous
 62
     7
370
    25
100
AcDbCircle
 10
3.5857842006
 20
-1.1509966592
 30
0.0
 40
0.0149999999999996
100
AcDbArc
 50
97.0
 51
162.0
  0
LINE
  5
31B
330
1F
100
AcDbEntity
  8
0
  6
Continuous
 62
     7
370
    25
100
AcDbLine
 10
3.5839561604
 20
-1.1361084669
 30
0.0
 11
3.6384576947
 21
-1.1294165199
 31
0.0
  0
ARC
  5
31C
330
1F
100
AcDbEntity
  8
0
  6
Continuous
 62
     7
370
    25
100
AcDbCircle
 10
0.0
 20
0.0
 30
0.0
 40
3.809718634205489
100
AcDbArc
 50
342.7550934315
 51
344.2449065685
  0
LINE
  5
31D
330
1F
100
AcDbEntity
  8
0
  6
Continuous
 62
     7
370
    25
100
AcDbLine
 10
3.6245275676
 20
-0.9991416916
 30
0.0
 11
3.6665917048
 21
-1.0344376936
 31
0.0
  0
ARC
  5
31E
330
1F
100
AcDbEntity
  8
0
  6
Continuous
 62
     7
370
    25
100
AcDbCircle
 10
3.6341693818
 20
-0.9876510249
 30
0.0
 40
0.0149999999999996
100
AcDbArc
 50
165.0
 51
230.0
  0
LINE
  5
31F
330
1F
100
AcDbEntity
  8
0
  6
Continuous
 62
     7
370
    25
100
AcDbLine
 10
3.6266196313
 20
-0.9578715276
 30
0.0
 11
3.6196804944
 21
-0.9837687392
 31
0.0
  0
ARC
  5
320
330
1F
100
AcDbEntity
  8
0
  6
Continuous
 62
     7
370
    25
100
AcDbCircle
 10
3.6411085187
 20
-0.9617538132
 30
0.0
 40
0.0149999999999995
100
AcDbArc
 50
100.0
 51
165.0
  0
LINE
  5
321
330
1F
100
AcDbEntity
  8
0
  6
Continuous
 62
     7
370
    25
100
AcDbLine
 10
3.6385037961
 20
-0.9469816969
 30
0.0
 11
3.6925804085
 21
-0.9374465312
 31
0.0
  0
ARC
  5
322
330
1F
100
AcDbEntity
  8
0
  6
Continuous
 62
     7
370
    25
100
AcDbCircle
 10
0.0
 20
0.0
 30
0.0
 40
3.809718634205489
100
AcDbArc
 50
345.7550934315
 51
347.2449065685
  0
LINE
  5
323
330
1F
100
AcDbEntity
  8
0
  6
Continuous
 62
     7
370
    25
100
AcDbLine
 10
3.6718513144
 20
-0.8080792864
 30
0.0
 11
3.7157050542
 21
-0.8411254496
 31
0.0
  0
ARC
  5
324
330
1F
100
AcDbEntity
  8
0
  6
Continuous
 62
     7
370
    25
100
AcDbCircle
 10
3.6808785398
 20
-0.7960997538
 30
0.0
 40
0.0149999999999998
100
AcDbArc
 50
168.0
 51
233.0
  0
LINE
  5
325
330
1F
100
AcDbEntity
  8
0
  6
Continuous
 62
     7
370
    25
100
AcDbLine
 10
3.6717805975
 20
-0.7667561916
 30
0.0
 11
3.6662063258
 21
-0.7929810784
 31
0.0
  0
ARC
  5
326
330
1F
100
AcDbEntity
  8
0
  6
Continuous
 62
     7
370
    25
100
AcDbCircle
 10
3.6864528115
 20
-0.769874867
 30
0.0
 40
0.0149999999999998
100
AcDbArc
 50
103.0
 51
168.0
  0
LINE
  5
327
330
1F
100
AcDbEntity
  8
0
  6
Continuous
 62
     7
370
    25
100
AcDbLine
 10
3.6830785457
 20
-0.755259316
 30
0.0
 11
3.736582016
 21
-0.7429070666
 31
0.0
  0
ARC
  5
328
330
1F
100
AcDbEntity
  8
0
  6
Continuous
 62
     7
370
    25
100
AcDbCircle
 10
0.0
 20
0.0
 30
0.0
 40
3.809718634205489
100
AcDbArc
 50
348.7550934315
 51
350.2449065685
  0
LINE
  5
329
330
1F
100
AcDbEntity
  8
0
  6
Continuous
 62
     7
370
    25
100
AcDbLine
 10
3.709110772
 20
-0.6148019921
 30
0.0
 11
3.7546339143
 21
-0.6455077393
 31
0.0
  0
ARC
  5
32A
330
1F
100
AcDbEntity
  8
0
  6
Continuous
 62
     7
370
    25
100
AcDbCircle
 10
3.7174986655
 20
-0.6023664285
 30
0.0
 40
0.0149999999999996
100
AcDbArc
 50
171.0
 51
236.0
  0
LINE
  5
32B
330
1F
100
AcDbEntity
  8
0
  6
Continuous
 62
     7
370
    25
100
AcDbLine
 10
3.7068774683
 20
-0.5735392302
 30
0.0
 11
3.7026833404
 21
-0.6000199116
 31
0.0
  0
ARC
  5
32C
330
1F
100
AcDbEntity
  8
0
  6
Continuous
 62
     7
370
    25
100
AcDbCircle
 10
3.7216927934
 20
-0.5758857472
 30
0.0
 40
0.0149999999999997
100
AcDbArc
 50
106.0
 51
171.0
  0
LINE
  5
32D
330
1F
100
AcDbEntity
  8
0
  6
Continuous
 62
     7
370
    25
100
AcDbLine
 10
3.7175582331
 20
-0.5614668217
 30
0.0
 11
3.7703419119
 21
-0.5463313454
 31
0.0
  0
ARC
  5
32E
330
1F
100
AcDbEntity
  8
0
  6
Continuous
 62
     7
370
    25
100
AcDbCircle
 10
0.0
 20
0.0
 30
0.0
 40
3.80971863420549
100
AcDbArc
 50
351.7550934315
 51
353.2449065685
  0
LINE
  5
32F
330
1F
100
AcDbEntity
  8
0
  6
Continuous
 62
     7
370
    25
100
AcDbLine
 10
3.7362038147
 20
-0.4198395683
 30
0.0
 11
3.7832715838
 21
-0.4481207371
 31
0.0
  0
ARC
  5
330
330
1F
100
AcDbEntity
  8
0
  6
Continuous
 62
     7
370
    25
100
AcDbCircle
 10
3.7439293859
 20
-0.4069820588
 30
0.0
 40
0.0149999999999998
100
AcDbArc
 50
174.0
 51
239.0
  0
LINE
  5
331
330
1F
100
AcDbEntity
  8
0
  6
Continuous
 62
     7
370
    25
100
AcDbLine
 10
3.7318140456
 20
-0.3787502376
 30
0.0
 11
3.7290115574
 21
-0.4054141318
 31
0.0
  0
ARC
  5
332
330
1F
100
AcDbEntity
  8
0
  6
Continuous
 62
     7
370
    25
100
AcDbCircle
 10
3.7467318741
 20
-0.3803181646
 30
0.0
 40
0.0149999999999996
100
AcDbArc
 50
109.0
 51
174.0
  0
LINE
  5
333
330
1F
100
AcDbEntity
  8
0
  6
Continuous
 62
     7
370
    25
100
AcDbLine
 10
3.7418483518
 20
-0.3661353859
 30
0.0
 11
3.7937675628
 21
-0.3482581679
 31
0.0
  0
ARC
  5
334
330
1F
100
AcDbEntity
  8
0
  6
Continuous
 62
     7
370
    25
100
AcDbCircle
 10
0.0
 20
0.0
 30
0.0
 40
3.80971863420549
100
AcDbArc
 50
354.7550934315
 51
356.2449065685
  0
LINE
  5
335
330
1F
100
AcDbEntity
  8
0
  6
Continuous
 62
     7
370
    25
100
AcDbLine
 10
3.7530561825
 20
-0.2237263934
 30
0.0
 11
3.8015395689
 21
-0.2495054672
 31
0.0
  0
ARC
  5
336
330
1F
100
AcDbEntity
  8
0
  6
Continuous
 62
     7
370
    25
100
AcDbCircle
 10
3.760098256
 20
-0.2104821795
 30
0.0
 40
0.0149999999999996
100
AcDbArc
 50
177.0
 51
242.0
  0
LINE
  5
337
330
1F
100
AcDbEntity
  8
0
  6
Continuous
 62
     7
370
    25
100
AcDbLine
 10
3.7465219801
 20
-0.182923117
 30
0.0
 11
3.745118813
 21
-0.2096971402
 31
0.0
  0
ARC
  5
338
330
1F
100
AcDbEntity
  8
0
  6
Continuous
 62
     7
370
    25
100
AcDbCircle
 10
3.7615014231
 20
-0.1837081563
 30
0.0
 40
0.0149999999999998
100
AcDbArc
 50
112.0
 51
177.0
  0
LINE
  5
339
330
1F
100
AcDbEntity
  8
0
  6
Continuous
 62
     7
370
    25
100
AcDbLine
 10
3.7558823242
 20
-0.1698003985
 30
0.0
 11
3.8067947604
 21
-0.1492304391
 31
0.0
  0
ARC
  5
33A
330
1F
100
AcDbEntity
  8
0
  6
Continuous
 62
     7
370
    25
100
AcDbCircle
 10
0.0
 20
0.0
 30
0.0
 40
3.80971863420549
100
AcDbArc
 50
357.7550934315
 51
359.2449065685
  0
LINE
  5
33B
330
1F
100
AcDbEntity
  8
0
  6
Continuous
 62
     7
370
    25
100
AcDbLine
 10
3.7596216842
 20
-0.027
 30
0.0
 11
3.8093877982
 21
-0.0502063201
 31
0.0
  0
ARC
  5
33C
330
1F
100
AcDbEntity
  8
0
  6
Continuous
 62
     7
370
    25
100
AcDbCircle
 10
3.7659609581
 20
-0.0134053832
 30
0.0
 40
0.0149999999999996
100
AcDbArc
 50
180.0
 51
245.0
  0
LINE
  5
33D
330
1F
100
AcDbEntity
  8
0
  6
Continuous
 62
     7
370
    25
100
AcDbLine
 10
3.7509609581
 20
0.0134053832
 30
0.0
 11
3.7509609581
 21
-0.0134053832
 31
0.0
  0
ARC
  5
33E
330
1F
100
AcDbEntity
  8
0
  6
Continuous
 62
     7
370
    25
100
AcDbCircle
 10
3.7659609581
 20
0.0134053832
 30
0.0
 40
0.0149999999999996
100
AcDbArc
 50
115.0
 51
180.0
  0
LINE
  5
33F
330
1F
100
AcDbEntity
  8
0
  6
Continuous
 62
     7
370
    25
100
AcDbLine
 10
3.7596216842
 20
0.027
 30
0.0
 11
3.8093877982
 21
0.0502063201
 31
0.0
  0
ARC
  5
340
330
1F
100
AcDbEntity
  8
0
  6
Continuous
 62
     7
370
    25
100
AcDbCircle
 10
0.0
 20
0.0
 30
0.0
 40
3.809718634205489
100
AcDbArc
 50
0.7550934315
 51
2.2449065685
  0
LINE
  5
341
330
1F
100
AcDbEntity
  8
0
  6
Continuous
 62
     7
370
    25
100
AcDbLine
 10
3.7558823242
 20
0.1698003985
 30
0.0
 11
3.8067947604
 21
0.1492304391
 31
0.0
  0
ARC
  5
342
330
1F
100
AcDbEntity
  8
0
  6
Continuous
 62
     7
370
    25
100
AcDbCircle
 10
3.7615014231
 20
0.1837081563
 30
0.0
 40
0.0149999999999998
100
AcDbArc
 50
183.0
 51
248.0
  0
LINE
  5
343
330
1F
100
AcDbEntity
  8
0
  6
Continuous
 62
     7
370
    25
100
AcDbLine
 10
3.745118813
 20
0.2096971402
 30
0.0
 11
3.7465219801
 21
0.182923117
 31
0.0
  0
MTEXT
  5
345
330
1F
100
AcDbEntity
  8
0
  6
Continuous
 62
     7
100
AcDbMText
 10
-3.8093877982
 20
-3.8495282073
 30
0.0
 40
0.1903
 41
0.0
 71
     1
 72
     1
  1
SOLIDWORKS Educational Product.
  7
SLDTEXTSTYLE0
 73
     1
 44
1.0
  0
MTEXT
  5
346
330
1F
100
AcDbEntity
  8
0
  6
Continuous
 62
     7
100
AcDbMText
 10
-3.8093877982
 20
-4.1349782073
 30
0.0
 40
0.1903
 41
0.0
 71
     1
 72
     1
  1
For Instructional Use Only.
  7
SLDTEXTSTYLE0
 73
     1
 44
1.0
  0
ENDSEC
  0
SECTION
  2
OBJECTS
  0
DICTIONARY
  5
C
330
0
100
AcDbDictionary
281
     1
  3
ACAD_GROUP
350
D
  3
ACAD_LAYOUT
350
1A
  3
ACAD_MLINESTYLE
350
17
  3
ACAD_PLOTSETTINGS
350
19
  3
ACAD_PLOTSTYLENAME
350
E
  3
ACAD_SCALELIST
350
47
  0
DICTIONARY
  5
D
102
{ACAD_REACTORS
330
C
102
}
330
C
100
AcDbDictionary
281
     1
  0
DICTIONARY
  5
1A
102
{ACAD_REACTORS
330
C
102
}
330
C
100
AcDbDictionary
281
     1
  3
Layout1
350
1E
  3
Layout2
350
26
  3
Model
350
22
  0
DICTIONARY
  5
17
102
{ACAD_REACTORS
330
C
102
}
330
C
100
AcDbDictionary
281
     1
  3
Standard
350
18
  0
DICTIONARY
  5
19
102
{ACAD_REACTORS
330
C
102
}
330
C
100
AcDbDictionary
281
     1
  0
ACDBDICTIONARYWDFLT
  5
E
102
{ACAD_REACTORS
330
C
102
}
330
C
100
AcDbDictionary
281
     1
  3
Normal
350
F
100
AcDbDictionaryWithDefault
340
F
  0
DICTIONARY
  5
47
102
{ACAD_REACTORS
330
C
102
}
330
C
100
AcDbDictionary
281
     1
  3
A0
350
48
  3
A1
350
49
  3
A2
350
4A
  3
A3
350
4B
  3
A4
350
4C
  3
A5
350
4D
  3
A6
350
4E
  3
A7
350
4F
  3
A8
350
50
  3
A9
350
51
  3
B0
350
52
  3
B1
350
53
  3
B2
350
54
  3
B3
350
55
  3
B4
350
56
  3
B5
350
57
  3
B6
350
58
  3
B7
350
59
  3
B8
350
5A
  3
B9
350
5B
  3
C0
350
5C
  3
C1
350
5D
  3
C2
350
5E
  3
C3
350
5F
  3
C4
350
60
  3
C5
350
61
  3
C6
350
62
  3
C7
350
63
  3
C8
350
64
  3
C9
350
65
  3
D0
350
66
  3
D1
350
67
  3
D2
350
68
  0
LAYOUT
  5
1E
102
{ACAD_REACTORS
330
1A
102
}
330
1A
100
AcDbPlotSettings
  1

  2
none_device
  4

  6

 40
0.0
 41
0.0
 42
0.0
 43
0.0
 44
0.0
 45
0.0
 46
0.0
 47
0.0
 48
0.0
 49
0.0
140
0.0
141
0.0
142
1.0
143
1.0
 70
   688
 72
     0
 73
     0
 74
     5
  7

 75
    16
147
1.0
148
0.0
149
0.0
100
AcDbLayout
  1
Layout1
 70
     1
 71
     1
 10
0.0
 20
0.0
 11
12.0
 21
9.0
 12
0.0
 22
0.0
 32
0.0
 14
1.0000000000E+20
 24
1.0000000000E+20
 34
1.0000000000E+20
 15
-1.0000000000E+20
 25
-1.0000000000E+20
 35
-1.0000000000E+20
146
0.0
 13
0.0
 23
0.0
 33
0.0
 16
1.0
 26
0.0
 36
0.0
 17
0.0
 27
1.0
 37
0.0
 76
     0
330
1B
  0
LAYOUT
  5
26
102
{ACAD_REACTORS
330
1A
102
}
330
1A
100
AcDbPlotSettings
  1

  2
none_device
  4

  6

 40
0.0
 41
0.0
 42
0.0
 43
0.0
 44
0.0
 45
0.0
 46
0.0
 47
0.0
 48
0.0
 49
0.0
140
0.0
141
0.0
142
1.0
143
1.0
 70
   688
 72
     0
 73
     0
 74
     5
  7

 75
    16
147
1.0
148
0.0
149
0.0
100
AcDbLayout
  1
Layout2
 70
     1
 71
     2
 10
0.0
 20
0.0
 11
0.0
 21
0.0
 12
0.0
 22
0.0
 32
0.0
 14
0.0
 24
0.0
 34
0.0
 15
0.0
 25
0.0
 35
0.0
146
0.0
 13
0.0
 23
0.0
 33
0.0
 16
1.0
 26
0.0
 36
0.0
 17
0.0
 27
1.0
 37
0.0
 76
     0
330
23
  0
LAYOUT
  5
22
102
{ACAD_REACTORS
330
1A
102
}
330
1A
100
AcDbPlotSettings
  1

  2
none_device
  4
ANSI_A_(11.00_x_8.50_Inches)
  6

 40
6.35
 41
19.05
 42
6.35000508
 43
19.05000254
 44
279.4
 45
215.9
 46
133.34999746
 47
88.89999873
 48
0.0
 49
0.0
140
0.0
141
0.0
142
1.1045081842
143
1.0
 70
  1696
 72
     0
 73
     0
 74
     0
  7

 75
     0
147
0.5913241897
148
-39.4088153714
149
0.0
100
AcDbLayout
  1
Model
 70
     1
 71
     0
 10
0.0
 20
0.0
 11
12.0
 21
9.0
 12
0.0
 22
0.0
 32
0.0
 14
-3.8093877982
 24
-3.8093877982
 34
0.0
 15
3.8093877982
 25
3.8093877982
 35
0.0
146
0.0
 13
0.0
 23
0.0
 33
0.0
 16
1.0
 26
0.0
 36
0.0
 17
0.0
 27
1.0
 37
0.0
 76
     0
330
1F
331
29
  0
MLINESTYLE
  5
18
102
{ACAD_REACTORS
330
17
102
}
330
17
100
AcDbMlineStyle
  2
Standard
 70
     0
  3

 62
   256
 51
90.0
 52
90.0
 71
     2
 49
0.5
 62
   256
  6
BYLAYER
 49
-0.5
 62
   256
  6
BYLAYER
  0
ACDBPLACEHOLDER
  5
F
102
{ACAD_REACTORS
330
E
102
}
330
E
  0
SCALE
  5
48
102
{ACAD_REACTORS
330
47
102
}
330
47
100
AcDbScale
 70
     0
300
1:1
140
1.0
141
1.0
290
     1
  0
SCALE
  5
49
102
{ACAD_REACTORS
330
47
102
}
330
47
100
AcDbScale
 70
     0
300
1:2
140
1.0
141
2.0
290
     0
  0
SCALE
  5
4A
102
{ACAD_REACTORS
330
47
102
}
330
47
100
AcDbScale
 70
     0
300
1:4
140
1.0
141
4.0
290
     0
  0
SCALE
  5
4B
102
{ACAD_REACTORS
330
47
102
}
330
47
100
AcDbScale
 70
     0
300
1:5
140
1.0
141
5.0
290
     0
  0
SCALE
  5
4C
102
{ACAD_REACTORS
330
47
102
}
330
47
100
AcDbScale
 70
     0
300
1:8
140
1.0
141
8.0
290
     0
  0
SCALE
  5
4D
102
{ACAD_REACTORS
330
47
102
}
330
47
100
AcDbScale
 70
     0
300
1:10
140
1.0
141
10.0
290
     0
  0
SCALE
  5
4E
102
{ACAD_REACTORS
330
47
102
}
330
47
100
AcDbScale
 70
     0
300
1:16
140
1.0
141
16.0
290
     0
  0
SCALE
  5
4F
102
{ACAD_REACTORS
330
47
102
}
330
47
100
AcDbScale
 70
     0
300
1:20
140
1.0
141
20.0
290
     0
  0
SCALE
  5
50
102
{ACAD_REACTORS
330
47
102
}
330
47
100
AcDbScale
 70
     0
300
1:30
140
1.0
141
30.0
290
     0
  0
SCALE
  5
51
102
{ACAD_REACTORS
330
47
102
}
330
47
100
AcDbScale
 70
     0
300
1:40
140
1.0
141
40.0
290
     0
  0
SCALE
  5
52
102
{ACAD_REACTORS
330
47
102
}
330
47
100
AcDbScale
 70
     0
300
1:50
140
1.0
141
50.0
290
     0
  0
SCALE
  5
53
102
{ACAD_REACTORS
330
47
102
}
330
47
100
AcDbScale
 70
     0
300
1:100
140
1.0
141
100.0
290
     0
  0
SCALE
  5
54
102
{ACAD_REACTORS
330
47
102
}
330
47
100
AcDbScale
 70
     0
300
2:1
140
2.0
141
1.0
290
     0
  0
SCALE
  5
55
102
{ACAD_REACTORS
330
47
102
}
330
47
100
AcDbScale
 70
     0
300
4:1
140
4.0
141
1.0
290
     0
  0
SCALE
  5
56
102
{ACAD_REACTORS
330
47
102
}
330
47
100
AcDbScale
 70
     0
300
8:1
140
8.0
141
1.0
290
     0
  0
SCALE
  5
57
102
{ACAD_REACTORS
330
47
102
}
330
47
100
AcDbScale
 70
     0
300
10:1
140
10.0
141
1.0
290
     0
  0
SCALE
  5
58
102
{ACAD_REACTORS
330
47
102
}
330
47
100
AcDbScale
 70
     0
300
100:1
140
100.0
141
1.0
290
     0
  0
SCALE
  5
59
102
{ACAD_REACTORS
330
47
102
}
330
47
100
AcDbScale
 70
     0
300
1/128" = 1'-0"
140
0.0078125
141
12.0
290
     0
  0
SCALE
  5
5A
102
{ACAD_REACTORS
330
47
102
}
330
47
100
AcDbScale
 70
     0
300
1/64" = 1'-0"
140
0.015625
141
12.0
290
     0
  0
SCALE
  5
5B
102
{ACAD_REACTORS
330
47
102
}
330
47
100
AcDbScale
 70
     0
300
1/32" = 1'-0"
140
0.03125
141
12.0
290
     0
  0
SCALE
  5
5C
102
{ACAD_REACTORS
330
47
102
}
330
47
100
AcDbScale
 70
     0
300
1/16" = 1'-0"
140
0.0625
141
12.0
290
     0
  0
SCALE
  5
5D
102
{ACAD_REACTORS
330
47
102
}
330
47
100
AcDbScale
 70
     0
300
3/32" = 1'-0"
140
0.09375
141
12.0
290
     0
  0
SCALE
  5
5E
102
{ACAD_REACTORS
330
47
102
}
330
47
100
AcDbScale
 70
     0
300
1/8" = 1'-0"
140
0.125
141
12.0
290
     0
  0
SCALE
  5
5F
102
{ACAD_REACTORS
330
47
102
}
330
47
100
AcDbScale
 70
     0
300
3/16" = 1'-0"
140
0.1875
141
12.0
290
     0
  0
SCALE
  5
60
102
{ACAD_REACTORS
330
47
102
}
330
47
100
AcDbScale
 70
     0
300
1/4" = 1'-0"
140
0.25
141
12.0
290
     0
  0
SCALE
  5
61
102
{ACAD_REACTORS
330
47
102
}
330
47
100
AcDbScale
 70
     0
300
3/8" = 1'-0"
140
0.375
141
12.0
290
     0
  0
SCALE
  5
62
102
{ACAD_REACTORS
330
47
102
}
330
47
100
AcDbScale
 70
     0
300
1/2" = 1'-0"
140
0.5
141
12.0
290
     0
  0
SCALE
  5
63
102
{ACAD_REACTORS
330
47
102
}
330
47
100
AcDbScale
 70
     0
300
3/4" = 1'-0"
140
0.75
141
12.0
290
     0
  0
SCALE
  5
64
102
{ACAD_REACTORS
330
47
102
}
330
47
100
AcDbScale
 70
     0
300
1" = 1'-0"
140
1.0
141
12.0
290
     0
  0
SCALE
  5
65
102
{ACAD_REACTORS
330
47
102
}
330
47
100
AcDbScale
 70
     0
300
1-1/2" = 1'-0"
140
1.5
141
12.0
290
     0
  0
SCALE
  5
66
102
{ACAD_REACTORS
330
47
102
}
330
47
100
AcDbScale
 70
     0
300
3" = 1'-0"
140
3.0
141
12.0
290
     0
  0
SCALE
  5
67
102
{ACAD_REACTORS
330
47
102
}
330
47
100
AcDbScale
 70
     0
300
6" = 1'-0"
140
6.0
141
12.0
290
     0
  0
SCALE
  5
68
102
{ACAD_REACTORS
330
47
102
}
330
47
100
AcDbScale
 70
     0
300
1'-0" = 1'-0"
140
12.0
141
12.0
290
     0
  0
ENDSEC
  0
EOF
